ISO-10303-21;
HEADER;
FILE_DESCRIPTION (( 'STEP AP214' ),
    '1' );
FILE_NAME ('Micro_SBMM-060-418X.STEP',
    '2021-09-02T17:14:34',
    ( '' ),
    ( '' ),
    'SwSTEP 2.0',
    'SolidWorks 2020',
    '' );
FILE_SCHEMA (( 'AUTOMOTIVE_DESIGN' ));
ENDSEC;

DATA;
#1 = FACE_OUTER_BOUND ( 'NONE', #340, .T. ) ;
#2 = VERTEX_POINT ( 'NONE', #170 ) ;
#3 = SPHERICAL_SURFACE ( 'NONE', #185, 0.1181099999999999928 ) ;
#4 = APPLICATION_CONTEXT ( 'automotive_design' ) ;
#5 =( NAMED_UNIT ( * ) PLANE_ANGLE_UNIT ( ) SI_UNIT ( $, .RADIAN. ) );
#6 = AXIS2_PLACEMENT_3D ( 'NONE', #205, #16, #287 ) ;
#7 = CARTESIAN_POINT ( 'NONE',  ( -0.1181100000000000344, 0.0000000000000000000, 2.952755999999999936 ) ) ;
#8 = CARTESIAN_POINT ( 'NONE',  ( 0.07873999999999994892, 9.642868896486252346E-18, 0.0000000000000000000 ) ) ;
#9 = FACE_OUTER_BOUND ( 'NONE', #37, .T. ) ;
#10 = CIRCLE ( 'NONE', #6, 0.1181100000000000344 ) ;
#11 = DIRECTION ( 'NONE',  ( 1.000000000000000000, 0.0000000000000000000, 0.0000000000000000000 ) ) ;
#12 = CARTESIAN_POINT ( 'NONE',  ( 0.0000000000000000000, 0.0000000000000000000, 0.1181100000000000066 ) ) ;
#13 = DIRECTION ( 'NONE',  ( 0.0000000000000000000, 1.000000000000000000, 0.0000000000000000000 ) ) ;
#14 = DIRECTION ( 'NONE',  ( 0.0000000000000000000, 0.0000000000000000000, 1.000000000000000000 ) ) ;
#15 =( GEOMETRIC_REPRESENTATION_CONTEXT ( 3 ) GLOBAL_UNCERTAINTY_ASSIGNED_CONTEXT ( ( #249 ) ) GLOBAL_UNIT_ASSIGNED_CONTEXT ( ( #167, #5, #107 ) ) REPRESENTATION_CONTEXT ( 'NONE', 'WORKASPACE' ) );
#16 = DIRECTION ( 'NONE',  ( 0.0000000000000000000, 0.0000000000000000000, 1.000000000000000000 ) ) ;
#17 = CARTESIAN_POINT ( 'NONE',  ( 0.0000000000000000000, 0.0000000000000000000, 0.7086609999999999854 ) ) ;
#18 = CARTESIAN_POINT ( 'NONE',  ( -0.07873999999999994892, 0.0000000000000000000, 0.0000000000000000000 ) ) ;
#19 = AXIS2_PLACEMENT_3D ( 'NONE', #102, #68, #304 ) ;
#20 = VERTEX_POINT ( 'NONE', #272 ) ;
#21 = APPLICATION_CONTEXT ( 'automotive_design' ) ;
#22 = DIRECTION ( 'NONE',  ( 1.000000000000000000, 0.0000000000000000000, -0.0000000000000000000 ) ) ;
#23 = ADVANCED_FACE ( 'NONE', ( #9 ), #175, .T. ) ;
#24 = DIRECTION ( 'NONE',  ( 0.0000000000000000000, 0.0000000000000000000, 1.000000000000000000 ) ) ;
#25 = DIRECTION ( 'NONE',  ( -0.0000000000000000000, -0.0000000000000000000, -1.000000000000000000 ) ) ;
#26 = ORIENTED_EDGE ( 'NONE', *, *, #137, .T. ) ;
#27 = VECTOR ( 'NONE', #279, 39.37007874015748143 ) ;
#28 = ADVANCED_FACE ( 'NONE', ( #276 ), #224, .T. ) ;
#29 = EDGE_CURVE ( 'NONE', #139, #20, #59, .T. ) ;
#30 = AXIS2_PLACEMENT_3D ( 'NONE', #331, #296, #63 ) ;
#31 = DIRECTION ( 'NONE',  ( -0.0000000000000000000, -0.0000000000000000000, -1.000000000000000000 ) ) ;
#32 = ORIENTED_EDGE ( 'NONE', *, *, #305, .F. ) ;
#33 = SHAPE_DEFINITION_REPRESENTATION ( #343, #280 ) ;
#34 = ADVANCED_FACE ( 'NONE', ( #328 ), #55, .T. ) ;
#35 = ORIENTED_EDGE ( 'NONE', *, *, #134, .T. ) ;
#36 =( CONVERSION_BASED_UNIT ( 'INCH', #201 ) LENGTH_UNIT ( ) NAMED_UNIT ( #90 ) );
#37 = EDGE_LOOP ( 'NONE', ( #94, #91, #216, #196 ) ) ;
#38 = CIRCLE ( 'NONE', #218, 0.1031099999999991745 ) ;
#39 = ORIENTED_EDGE ( 'NONE', *, *, #330, .F. ) ;
#40 = EDGE_CURVE ( 'NONE', #2, #93, #104, .T. ) ;
#41 = ORIENTED_EDGE ( 'NONE', *, *, #40, .T. ) ;
#42 = VERTEX_POINT ( 'NONE', #227 ) ;
#43 = DIRECTION ( 'NONE',  ( -1.000000000000000000, 0.0000000000000000000, 0.0000000000000000000 ) ) ;
#44 = AXIS2_PLACEMENT_3D ( 'NONE', #100, #263, #50 ) ;
#45 = DIRECTION ( 'NONE',  ( -1.000000000000000000, 0.0000000000000000000, 0.0000000000000000000 ) ) ;
#46 = FACE_OUTER_BOUND ( 'NONE', #285, .T. ) ;
#47 = CARTESIAN_POINT ( 'NONE',  ( 0.07873999999999992117, 0.0000000000000000000, 0.7086609999999999854 ) ) ;
#48 =( GEOMETRIC_REPRESENTATION_CONTEXT ( 3 ) GLOBAL_UNCERTAINTY_ASSIGNED_CONTEXT ( ( #83 ) ) GLOBAL_UNIT_ASSIGNED_CONTEXT ( ( #117, #171, #85 ) ) REPRESENTATION_CONTEXT ( 'NONE', 'WORKASPACE' ) );
#49 = EDGE_CURVE ( 'NONE', #2, #203, #194, .T. ) ;
#50 = DIRECTION ( 'NONE',  ( 1.000000000000000000, 0.0000000000000000000, 0.0000000000000000000 ) ) ;
#51 = LINE ( 'NONE', #79, #70 ) ;
#52 = ORIENTED_EDGE ( 'NONE', *, *, #49, .F. ) ;
#53 = CARTESIAN_POINT ( 'NONE',  ( 0.0000000000000000000, 0.0000000000000000000, 2.952755999999999936 ) ) ;
#54 = CLOSED_SHELL ( 'NONE', ( #278, #23, #110, #176, #246, #28, #34, #97, #319, #204, #225 ) ) ;
#55 = CONICAL_SURFACE ( 'NONE', #338, 0.1299209999999997589, 0.09065967900408447577 ) ;
#56 = CARTESIAN_POINT ( 'NONE',  ( 0.0000000000000000000, 0.0000000000000000000, 2.952755999999999936 ) ) ;
#57 = ORIENTED_EDGE ( 'NONE', *, *, #29, .F. ) ;
#58 =( GEOMETRIC_REPRESENTATION_CONTEXT ( 3 ) GLOBAL_UNCERTAINTY_ASSIGNED_CONTEXT ( ( #326 ) ) GLOBAL_UNIT_ASSIGNED_CONTEXT ( ( #36, #198, #111 ) ) REPRESENTATION_CONTEXT ( 'NONE', 'WORKASPACE' ) );
#59 = CIRCLE ( 'NONE', #228, 0.1031099999999991745 ) ;
#60 = ORIENTED_EDGE ( 'NONE', *, *, #302, .F. ) ;
#61 = EDGE_CURVE ( 'NONE', #139, #273, #173, .T. ) ;
#62 = FILL_AREA_STYLE_COLOUR ( '', #174 ) ;
#63 = DIRECTION ( 'NONE',  ( -1.000000000000000000, 0.0000000000000000000, 0.0000000000000000000 ) ) ;
#64 =( LENGTH_UNIT ( ) NAMED_UNIT ( * ) SI_UNIT ( $, .METRE. ) );
#65 = CIRCLE ( 'NONE', #92, 0.07873999999999992117 ) ;
#66 = ORIENTED_EDGE ( 'NONE', *, *, #40, .F. ) ;
#67 = DIRECTION ( 'NONE',  ( -0.0000000000000000000, -0.0000000000000000000, -1.000000000000000000 ) ) ;
#68 = DIRECTION ( 'NONE',  ( 0.0000000000000000000, 0.0000000000000000000, 1.000000000000000000 ) ) ;
#69 = LINE ( 'NONE', #264, #256 ) ;
#70 = VECTOR ( 'NONE', #269, 39.37007874015748143 ) ;
#71 = DIRECTION ( 'NONE',  ( 0.0000000000000000000, 0.0000000000000000000, 1.000000000000000000 ) ) ;
#72 = DIRECTION ( 'NONE',  ( 1.000000000000000000, 0.0000000000000000000, 0.0000000000000000000 ) ) ;
#73 = DIRECTION ( 'NONE',  ( -0.0000000000000000000, -0.0000000000000000000, -1.000000000000000000 ) ) ;
#74 = DIRECTION ( 'NONE',  ( -0.0000000000000000000, -0.0000000000000000000, -1.000000000000000000 ) ) ;
#75 = CARTESIAN_POINT ( 'NONE',  ( -0.07873999999999992117, 1.205358612060782005E-17, 0.7086609999999999854 ) ) ;
#76 =( LENGTH_UNIT ( ) NAMED_UNIT ( * ) SI_UNIT ( $, .METRE. ) );
#77 = CONICAL_SURFACE ( 'NONE', #153, 0.1031099999999991745, 0.7853981633974500554 ) ;
#78 = CARTESIAN_POINT ( 'NONE',  ( 0.0000000000000000000, 0.0000000000000000000, 2.937755999999999368 ) ) ;
#79 = CARTESIAN_POINT ( 'NONE',  ( -0.1299209999999997589, 1.591073367920229727E-17, 1.271653299999996767 ) ) ;
#80 = EDGE_CURVE ( 'NONE', #116, #42, #307, .T. ) ;
#81 = ORIENTED_EDGE ( 'NONE', *, *, #127, .T. ) ;
#82 = DIRECTION ( 'NONE',  ( 1.000000000000000000, 0.0000000000000000000, 0.0000000000000000000 ) ) ;
#83 = UNCERTAINTY_MEASURE_WITH_UNIT (LENGTH_MEASURE( 1.000000000000000082E-05 ), #117, 'distance_accuracy_value', 'NONE');
#84 = AXIS2_PLACEMENT_3D ( 'NONE', #211, #282, #126 ) ;
#85 =( NAMED_UNIT ( * ) SI_UNIT ( $, .STERADIAN. ) SOLID_ANGLE_UNIT ( ) );
#86 = ORIENTED_EDGE ( 'NONE', *, *, #155, .T. ) ;
#87 = EDGE_CURVE ( 'NONE', #20, #139, #38, .T. ) ;
#88 = CARTESIAN_POINT ( 'NONE',  ( 0.0000000000000000000, 0.0000000000000000000, 0.0000000000000000000 ) ) ;
#89 = ORIENTED_EDGE ( 'NONE', *, *, #134, .F. ) ;
#90 = DIMENSIONAL_EXPONENTS ( 1.000000000000000000, 0.0000000000000000000, 0.0000000000000000000, 0.0000000000000000000, 0.0000000000000000000, 0.0000000000000000000, 0.0000000000000000000 ) ;
#91 = ORIENTED_EDGE ( 'NONE', *, *, #314, .T. ) ;
#92 = AXIS2_PLACEMENT_3D ( 'NONE', #17, #98, #208 ) ;
#93 = VERTEX_POINT ( 'NONE', #257 ) ;
#94 = ORIENTED_EDGE ( 'NONE', *, *, #330, .T. ) ;
#95 = CYLINDRICAL_SURFACE ( 'NONE', #109, 0.07873999999999994892 ) ;
#96 = CARTESIAN_POINT ( 'NONE',  ( 0.0000000000000000000, 0.0000000000000000000, 2.952755999999999936 ) ) ;
#97 = ADVANCED_FACE ( 'NONE', ( #335 ), #125, .T. ) ;
#98 = DIRECTION ( 'NONE',  ( -0.0000000000000000000, -0.0000000000000000000, -1.000000000000000000 ) ) ;
#99 = ORIENTED_EDGE ( 'NONE', *, *, #122, .T. ) ;
#100 = CARTESIAN_POINT ( 'NONE',  ( 0.0000000000000000000, 0.0000000000000000000, 1.271653299999996767 ) ) ;
#101 = ORIENTED_EDGE ( 'NONE', *, *, #80, .T. ) ;
#102 = CARTESIAN_POINT ( 'NONE',  ( 0.0000000000000000000, 0.0000000000000000000, 1.141731999999999969 ) ) ;
#103 = EDGE_CURVE ( 'NONE', #273, #308, #300, .T. ) ;
#104 = CIRCLE ( 'NONE', #270, 0.1181099999999999928 ) ;
#105 = FILL_AREA_STYLE ('',( #163 ) ) ;
#106 = CARTESIAN_POINT ( 'NONE',  ( 0.0000000000000000000, 0.07873999999999996280, 0.2061439962741667686 ) ) ;
#107 =( NAMED_UNIT ( * ) SI_UNIT ( $, .STERADIAN. ) SOLID_ANGLE_UNIT ( ) );
#108 = VECTOR ( 'NONE', #25, 39.37007874015748143 ) ;
#109 = AXIS2_PLACEMENT_3D ( 'NONE', #178, #73, #43 ) ;
#110 = ADVANCED_FACE ( 'NONE', ( #46 ), #95, .T. ) ;
#111 =( NAMED_UNIT ( * ) SI_UNIT ( $, .STERADIAN. ) SOLID_ANGLE_UNIT ( ) );
#112 = ORIENTED_EDGE ( 'NONE', *, *, #189, .T. ) ;
#113 = SURFACE_SIDE_STYLE ('',( #327 ) ) ;
#114 = ORIENTED_EDGE ( 'NONE', *, *, #127, .F. ) ;
#115 = COLOUR_RGB ( '',0.7921568627450980005, 0.8196078431372548767, 0.9333333333333333481 ) ;
#116 = VERTEX_POINT ( 'NONE', #47 ) ;
#117 =( CONVERSION_BASED_UNIT ( 'INCH', #119 ) LENGTH_UNIT ( ) NAMED_UNIT ( #230 ) );
#118 = CARTESIAN_POINT ( 'NONE',  ( 0.0000000000000000000, 0.0000000000000000000, 0.1181100000000000066 ) ) ;
#119 = LENGTH_MEASURE_WITH_UNIT ( LENGTH_MEASURE( 0.02539999999999999897 ), #244 );
#120 = DIRECTION ( 'NONE',  ( -1.224646799147353207E-16, 1.000000000000000000, 0.0000000000000000000 ) ) ;
#121 = AXIS2_PLACEMENT_3D ( 'NONE', #88, #254, #82 ) ;
#122 = EDGE_CURVE ( 'NONE', #116, #248, #65, .T. ) ;
#123 = CIRCLE ( 'NONE', #286, 0.1181099999999999789 ) ;
#124 = CARTESIAN_POINT ( 'NONE',  ( 0.0000000000000000000, 0.0000000000000000000, 2.952755999999999936 ) ) ;
#125 = CYLINDRICAL_SURFACE ( 'NONE', #191, 0.07873999999999994892 ) ;
#126 = DIRECTION ( 'NONE',  ( -1.000000000000000000, 0.0000000000000000000, 0.0000000000000000000 ) ) ;
#127 = EDGE_CURVE ( 'NONE', #247, #93, #123, .T. ) ;
#128 = STYLED_ITEM ( 'NONE', ( #271 ), #280 ) ;
#129 = CARTESIAN_POINT ( 'NONE',  ( -0.07873999999999996280, 0.0000000000000000000, 0.2061439962741667686 ) ) ;
#130 = MECHANICAL_DESIGN_GEOMETRIC_PRESENTATION_REPRESENTATION (  '', ( #166 ), #15 ) ;
#131 = ORIENTED_EDGE ( 'NONE', *, *, #137, .F. ) ;
#132 = DIRECTION ( 'NONE',  ( -1.000000000000000000, 0.0000000000000000000, 0.0000000000000000000 ) ) ;
#133 = ORIENTED_EDGE ( 'NONE', *, *, #305, .T. ) ;
#134 = EDGE_CURVE ( 'NONE', #247, #193, #142, .T. ) ;
#135 = DIRECTION ( 'NONE',  ( -0.0000000000000000000, -0.0000000000000000000, -1.000000000000000000 ) ) ;
#136 = CARTESIAN_POINT ( 'NONE',  ( 0.1181100000000000344, 1.446430334472939084E-17, 2.952755999999999936 ) ) ;
#137 = EDGE_CURVE ( 'NONE', #193, #2, #275, .T. ) ;
#138 = CONICAL_SURFACE ( 'NONE', #262, 0.1031099999999991745, 0.7853981633974500554 ) ;
#139 = VERTEX_POINT ( 'NONE', #303 ) ;
#140 = DIRECTION ( 'NONE',  ( -0.0000000000000000000, -0.0000000000000000000, -1.000000000000000000 ) ) ;
#141 = CARTESIAN_POINT ( 'NONE',  ( 0.0000000000000000000, 0.0000000000000000000, 0.2061439962741667686 ) ) ;
#142 = CIRCLE ( 'NONE', #332, 0.07873999999999996280 ) ;
#143 = DIRECTION ( 'NONE',  ( 0.0000000000000000000, 0.0000000000000000000, -1.000000000000000000 ) ) ;
#144 = ORIENTED_EDGE ( 'NONE', *, *, #210, .T. ) ;
#145 = PRODUCT_DEFINITION_CONTEXT ( 'detailed design', #21, 'design' ) ;
#146 = ORIENTED_EDGE ( 'NONE', *, *, #29, .T. ) ;
#147 = FILL_AREA_STYLE ('',( #62 ) ) ;
#148 = ORIENTED_EDGE ( 'NONE', *, *, #49, .T. ) ;
#149 = CONICAL_SURFACE ( 'NONE', #44, 0.1299209999999997589, 0.09065967900408447577 ) ;
#150 = EDGE_LOOP ( 'NONE', ( #60, #212, #101, #235 ) ) ;
#151 = DIRECTION ( 'NONE',  ( 0.0000000000000000000, 0.0000000000000000000, 1.000000000000000000 ) ) ;
#152 = EDGE_LOOP ( 'NONE', ( #341, #99, #144, #52, #131 ) ) ;
#153 = AXIS2_PLACEMENT_3D ( 'NONE', #53, #143, #188 ) ;
#154 = CARTESIAN_POINT ( 'NONE',  ( 0.0000000000000000000, 0.0000000000000000000, 0.0000000000000000000 ) ) ;
#155 = EDGE_CURVE ( 'NONE', #20, #308, #69, .T. ) ;
#156 = CARTESIAN_POINT ( 'NONE',  ( -0.1181100000000000344, 1.446430334472939084E-17, 1.141731999999999969 ) ) ;
#157 = FACE_OUTER_BOUND ( 'NONE', #322, .T. ) ;
#158 = CARTESIAN_POINT ( 'NONE',  ( 0.0000000000000000000, 0.0000000000000000000, 0.1181100000000000066 ) ) ;
#159 = MECHANICAL_DESIGN_GEOMETRIC_PRESENTATION_REPRESENTATION (  '', ( #128 ), #58 ) ;
#160 = EDGE_CURVE ( 'NONE', #42, #202, #10, .T. ) ;
#161 = ORIENTED_EDGE ( 'NONE', *, *, #103, .T. ) ;
#162 = FACE_OUTER_BOUND ( 'NONE', #311, .T. ) ;
#163 = FILL_AREA_STYLE_COLOUR ( '', #115 ) ;
#164 = EDGE_LOOP ( 'NONE', ( #35, #26, #41, #114 ) ) ;
#165 = SURFACE_SIDE_STYLE ('',( #215 ) ) ;
#166 = STYLED_ITEM ( 'NONE', ( #288 ), #333 ) ;
#167 =( CONVERSION_BASED_UNIT ( 'INCH', #190 ) LENGTH_UNIT ( ) NAMED_UNIT ( #181 ) );
#168 = DIRECTION ( 'NONE',  ( -0.0000000000000000000, -0.0000000000000000000, -1.000000000000000000 ) ) ;
#169 = PRESENTATION_LAYER_ASSIGNMENT (  '', '', ( #166 ) ) ;
#170 = CARTESIAN_POINT ( 'NONE',  ( 9.642868896486255427E-18, -0.07873999999999996280, 0.2061439962741667686 ) ) ;
#171 =( NAMED_UNIT ( * ) PLANE_ANGLE_UNIT ( ) SI_UNIT ( $, .RADIAN. ) );
#172 = ORIENTED_EDGE ( 'NONE', *, *, #160, .F. ) ;
#173 = LINE ( 'NONE', #274, #281 ) ;
#174 = COLOUR_RGB ( '',0.7921568627450980005, 0.8196078431372548767, 0.9333333333333333481 ) ;
#175 = CYLINDRICAL_SURFACE ( 'NONE', #298, 0.1181100000000000344 ) ;
#176 = ADVANCED_FACE ( 'NONE', ( #283 ), #149, .T. ) ;
#177 = DIRECTION ( 'NONE',  ( 1.000000000000000000, 1.224646799147353207E-16, -0.0000000000000000000 ) ) ;
#178 = CARTESIAN_POINT ( 'NONE',  ( 0.0000000000000000000, 0.0000000000000000000, 0.0000000000000000000 ) ) ;
#179 = CIRCLE ( 'NONE', #200, 0.1181100000000000344 ) ;
#180 = PLANE ( 'NONE',  #223 ) ;
#181 = DIMENSIONAL_EXPONENTS ( 1.000000000000000000, 0.0000000000000000000, 0.0000000000000000000, 0.0000000000000000000, 0.0000000000000000000, 0.0000000000000000000, 0.0000000000000000000 ) ;
#182 = DIRECTION ( 'NONE',  ( -0.7071067811865486830, 0.0000000000000000000, -0.7071067811865462405 ) ) ;
#183 = DIRECTION ( 'NONE',  ( 0.0000000000000000000, 0.0000000000000000000, 1.000000000000000000 ) ) ;
#184 = EDGE_LOOP ( 'NONE', ( #32, #299, #172, #266 ) ) ;
#185 = AXIS2_PLACEMENT_3D ( 'NONE', #267, #242, #316 ) ;
#186 = CARTESIAN_POINT ( 'NONE',  ( 0.1299209999999997589, 0.0000000000000000000, 1.271653299999996767 ) ) ;
#187 = DIRECTION ( 'NONE',  ( -1.000000000000000000, 0.0000000000000000000, 0.0000000000000000000 ) ) ;
#188 = DIRECTION ( 'NONE',  ( -1.000000000000000000, 0.0000000000000000000, 0.0000000000000000000 ) ) ;
#189 = EDGE_CURVE ( 'NONE', #202, #42, #239, .T. ) ;
#190 = LENGTH_MEASURE_WITH_UNIT ( LENGTH_MEASURE( 0.02539999999999999897 ), #76 );
#191 = AXIS2_PLACEMENT_3D ( 'NONE', #154, #339, #284 ) ;
#192 = APPLICATION_PROTOCOL_DEFINITION ( 'draft international standard', 'automotive_design', 1998, #21 ) ;
#193 = VERTEX_POINT ( 'NONE', #231 ) ;
#194 = CIRCLE ( 'NONE', #30, 0.07873999999999996280 ) ;
#195 = APPLICATION_PROTOCOL_DEFINITION ( 'draft international standard', 'automotive_design', 1998, #4 ) ;
#196 = ORIENTED_EDGE ( 'NONE', *, *, #268, .F. ) ;
#197 = ORIENTED_EDGE ( 'NONE', *, *, #310, .T. ) ;
#198 =( NAMED_UNIT ( * ) PLANE_ANGLE_UNIT ( ) SI_UNIT ( $, .RADIAN. ) );
#199 = EDGE_LOOP ( 'NONE', ( #295, #161, #255, #112 ) ) ;
#200 = AXIS2_PLACEMENT_3D ( 'NONE', #78, #313, #321 ) ;
#201 = LENGTH_MEASURE_WITH_UNIT ( LENGTH_MEASURE( 0.02539999999999999897 ), #64 );
#202 = VERTEX_POINT ( 'NONE', #156 ) ;
#203 = VERTEX_POINT ( 'NONE', #129 ) ;
#204 = ADVANCED_FACE ( 'NONE', ( #162 ), #180, .T. ) ;
#205 = CARTESIAN_POINT ( 'NONE',  ( 0.0000000000000000000, 0.0000000000000000000, 1.141731999999999969 ) ) ;
#206 = VECTOR ( 'NONE', #135, 39.37007874015748143 ) ;
#207 = DIRECTION ( 'NONE',  ( 0.0000000000000000000, 0.0000000000000000000, -1.000000000000000000 ) ) ;
#208 = DIRECTION ( 'NONE',  ( -1.000000000000000000, 0.0000000000000000000, 0.0000000000000000000 ) ) ;
#209 = ORIENTED_EDGE ( 'NONE', *, *, #155, .F. ) ;
#210 = EDGE_CURVE ( 'NONE', #248, #203, #337, .T. ) ;
#211 = CARTESIAN_POINT ( 'NONE',  ( 0.0000000000000000000, 0.0000000000000000000, 0.2061439962741667686 ) ) ;
#212 = ORIENTED_EDGE ( 'NONE', *, *, #122, .F. ) ;
#213 = CIRCLE ( 'NONE', #290, 0.07873999999999996280 ) ;
#214 = DIRECTION ( 'NONE',  ( -1.000000000000000000, 0.0000000000000000000, 0.0000000000000000000 ) ) ;
#215 = SURFACE_STYLE_FILL_AREA ( #105 ) ;
#216 = ORIENTED_EDGE ( 'NONE', *, *, #160, .T. ) ;
#217 = CARTESIAN_POINT ( 'NONE',  ( 0.0000000000000000000, 0.0000000000000000000, 0.7086609999999999854 ) ) ;
#218 = AXIS2_PLACEMENT_3D ( 'NONE', #309, #71, #72 ) ;
#219 = DIRECTION ( 'NONE',  ( -1.000000000000000000, 0.0000000000000000000, 0.0000000000000000000 ) ) ;
#220 = PRODUCT_DEFINITION ( 'UNKNOWN', '', #233, #145 ) ;
#221 = ORIENTED_EDGE ( 'NONE', *, *, #336, .F. ) ;
#222 = ORIENTED_EDGE ( 'NONE', *, *, #103, .F. ) ;
#223 = AXIS2_PLACEMENT_3D ( 'NONE', #232, #24, #22 ) ;
#224 = SPHERICAL_SURFACE ( 'NONE', #260, 0.1181099999999999928 ) ;
#225 = ADVANCED_FACE ( 'NONE', ( #157 ), #138, .T. ) ;
#226 = EDGE_LOOP ( 'NONE', ( #66, #148, #237, #81 ) ) ;
#227 = CARTESIAN_POINT ( 'NONE',  ( 0.1181100000000000344, 0.0000000000000000000, 1.141731999999999969 ) ) ;
#228 = AXIS2_PLACEMENT_3D ( 'NONE', #301, #151, #11 ) ;
#229 = DIRECTION ( 'NONE',  ( 1.000000000000000000, 0.0000000000000000000, 0.0000000000000000000 ) ) ;
#230 = DIMENSIONAL_EXPONENTS ( 1.000000000000000000, 0.0000000000000000000, 0.0000000000000000000, 0.0000000000000000000, 0.0000000000000000000, 0.0000000000000000000, 0.0000000000000000000 ) ;
#231 = CARTESIAN_POINT ( 'NONE',  ( 0.07873999999999996280, 9.642868896486255427E-18, 0.2061439962741667686 ) ) ;
#232 = CARTESIAN_POINT ( 'NONE',  ( 0.0000000000000000000, 0.0000000000000000000, 2.952755999999999936 ) ) ;
#233 = PRODUCT_DEFINITION_FORMATION_WITH_SPECIFIED_SOURCE ( 'ANY', '', #315, .NOT_KNOWN. ) ;
#234 = CARTESIAN_POINT ( 'NONE',  ( 0.0000000000000000000, 0.0000000000000000000, 2.937755999999999368 ) ) ;
#235 = ORIENTED_EDGE ( 'NONE', *, *, #189, .F. ) ;
#236 = FACE_OUTER_BOUND ( 'NONE', #164, .T. ) ;
#237 = ORIENTED_EDGE ( 'NONE', *, *, #336, .T. ) ;
#238 = DIRECTION ( 'NONE',  ( -0.0000000000000000000, -0.0000000000000000000, -1.000000000000000000 ) ) ;
#239 = CIRCLE ( 'NONE', #19, 0.1181100000000000344 ) ;
#240 = FACE_OUTER_BOUND ( 'NONE', #199, .T. ) ;
#241 = ORIENTED_EDGE ( 'NONE', *, *, #210, .F. ) ;
#242 = DIRECTION ( 'NONE',  ( 1.000000000000000000, 0.0000000000000000000, 0.0000000000000000000 ) ) ;
#243 = LINE ( 'NONE', #136, #345 ) ;
#244 =( LENGTH_UNIT ( ) NAMED_UNIT ( * ) SI_UNIT ( $, .METRE. ) );
#245 = LINE ( 'NONE', #8, #108 ) ;
#246 = ADVANCED_FACE ( 'NONE', ( #236 ), #3, .T. ) ;
#247 = VERTEX_POINT ( 'NONE', #106 ) ;
#248 = VERTEX_POINT ( 'NONE', #75 ) ;
#249 = UNCERTAINTY_MEASURE_WITH_UNIT (LENGTH_MEASURE( 1.000000000000000082E-05 ), #167, 'distance_accuracy_value', 'NONE');
#250 = ORIENTED_EDGE ( 'NONE', *, *, #61, .F. ) ;
#251 = AXIS2_PLACEMENT_3D ( 'NONE', #217, #31, #219 ) ;
#252 = CARTESIAN_POINT ( 'NONE',  ( 0.0000000000000000000, 0.0000000000000000000, 1.271653299999996767 ) ) ;
#253 = DIRECTION ( 'NONE',  ( 1.000000000000000000, 0.0000000000000000000, 0.0000000000000000000 ) ) ;
#254 = DIRECTION ( 'NONE',  ( 0.0000000000000000000, 0.0000000000000000000, 1.000000000000000000 ) ) ;
#255 = ORIENTED_EDGE ( 'NONE', *, *, #268, .T. ) ;
#256 = VECTOR ( 'NONE', #182, 39.37007874015748854 ) ;
#257 = CARTESIAN_POINT ( 'NONE',  ( 0.0000000000000000000, 7.232151672364693882E-18, 1.707404996040164512E-17 ) ) ;
#258 = CARTESIAN_POINT ( 'NONE',  ( 0.0000000000000000000, 0.0000000000000000000, 0.2061439962741667686 ) ) ;
#259 = DIRECTION ( 'NONE',  ( 1.000000000000000000, 0.0000000000000000000, 0.0000000000000000000 ) ) ;
#260 = AXIS2_PLACEMENT_3D ( 'NONE', #118, #253, #13 ) ;
#261 = AXIS2_PLACEMENT_3D ( 'NONE', #234, #306, #259 ) ;
#262 = AXIS2_PLACEMENT_3D ( 'NONE', #96, #207, #132 ) ;
#263 = DIRECTION ( 'NONE',  ( 0.0000000000000000000, 0.0000000000000000000, 1.000000000000000000 ) ) ;
#264 = CARTESIAN_POINT ( 'NONE',  ( -0.1031099999999991745, 0.0000000000000000000, 2.952755999999999936 ) ) ;
#265 = DIRECTION ( 'NONE',  ( -0.0000000000000000000, -0.0000000000000000000, -1.000000000000000000 ) ) ;
#266 = ORIENTED_EDGE ( 'NONE', *, *, #80, .F. ) ;
#267 = CARTESIAN_POINT ( 'NONE',  ( 0.0000000000000000000, 0.0000000000000000000, 0.1181100000000000066 ) ) ;
#268 = EDGE_CURVE ( 'NONE', #308, #202, #317, .T. ) ;
#269 = DIRECTION ( 'NONE',  ( -0.09053553870087663324, 1.108740576791098970E-17, 0.9958932253169222593 ) ) ;
#270 = AXIS2_PLACEMENT_3D ( 'NONE', #12, #177, #120 ) ;
#271 = PRESENTATION_STYLE_ASSIGNMENT (( #297 ) ) ;
#272 = CARTESIAN_POINT ( 'NONE',  ( -0.1031099999999991745, 0.0000000000000000000, 2.952755999999999936 ) ) ;
#273 = VERTEX_POINT ( 'NONE', #318 ) ;
#274 = CARTESIAN_POINT ( 'NONE',  ( 0.1031099999999991745, 1.262733314600825725E-17, 2.952755999999999936 ) ) ;
#275 = CIRCLE ( 'NONE', #84, 0.07873999999999996280 ) ;
#276 = FACE_OUTER_BOUND ( 'NONE', #226, .T. ) ;
#277 = DIRECTION ( 'NONE',  ( -1.000000000000000000, 0.0000000000000000000, 0.0000000000000000000 ) ) ;
#278 = ADVANCED_FACE ( 'NONE', ( #1 ), #77, .T. ) ;
#279 = DIRECTION ( 'NONE',  ( 0.09053553870087663324, 0.0000000000000000000, 0.9958932253169222593 ) ) ;
#280 = ADVANCED_BREP_SHAPE_REPRESENTATION ( 'Micro_SBMM-060-418X', ( #333, #121 ), #48 ) ;
#281 = VECTOR ( 'NONE', #329, 39.37007874015748854 ) ;
#282 = DIRECTION ( 'NONE',  ( -0.0000000000000000000, -0.0000000000000000000, -1.000000000000000000 ) ) ;
#283 = FACE_OUTER_BOUND ( 'NONE', #184, .T. ) ;
#284 = DIRECTION ( 'NONE',  ( -1.000000000000000000, 0.0000000000000000000, 0.0000000000000000000 ) ) ;
#285 = EDGE_LOOP ( 'NONE', ( #133, #197, #89, #221, #241 ) ) ;
#286 = AXIS2_PLACEMENT_3D ( 'NONE', #158, #45, #183 ) ;
#287 = DIRECTION ( 'NONE',  ( 1.000000000000000000, 0.0000000000000000000, 0.0000000000000000000 ) ) ;
#288 = PRESENTATION_STYLE_ASSIGNMENT (( #289 ) ) ;
#289 = SURFACE_STYLE_USAGE ( .BOTH. , #165 ) ;
#290 = AXIS2_PLACEMENT_3D ( 'NONE', #141, #168, #187 ) ;
#291 = CARTESIAN_POINT ( 'NONE',  ( -0.1181100000000000344, 0.0000000000000000000, 2.937755999999999368 ) ) ;
#292 = CYLINDRICAL_SURFACE ( 'NONE', #324, 0.1181100000000000344 ) ;
#293 = VECTOR ( 'NONE', #265, 39.37007874015748143 ) ;
#294 = PRODUCT_CONTEXT ( 'NONE', #4, 'mechanical' ) ;
#295 = ORIENTED_EDGE ( 'NONE', *, *, #314, .F. ) ;
#296 = DIRECTION ( 'NONE',  ( -0.0000000000000000000, -0.0000000000000000000, -1.000000000000000000 ) ) ;
#297 = SURFACE_STYLE_USAGE ( .BOTH. , #113 ) ;
#298 = AXIS2_PLACEMENT_3D ( 'NONE', #124, #67, #277 ) ;
#299 = ORIENTED_EDGE ( 'NONE', *, *, #302, .T. ) ;
#300 = CIRCLE ( 'NONE', #261, 0.1181100000000000344 ) ;
#301 = CARTESIAN_POINT ( 'NONE',  ( 0.0000000000000000000, 0.0000000000000000000, 2.952755999999999936 ) ) ;
#302 = EDGE_CURVE ( 'NONE', #248, #202, #51, .T. ) ;
#303 = CARTESIAN_POINT ( 'NONE',  ( 0.1031099999999991745, 1.354581824536882559E-17, 2.952755999999999936 ) ) ;
#304 = DIRECTION ( 'NONE',  ( 1.000000000000000000, 0.0000000000000000000, 0.0000000000000000000 ) ) ;
#305 = EDGE_CURVE ( 'NONE', #248, #116, #312, .T. ) ;
#306 = DIRECTION ( 'NONE',  ( 0.0000000000000000000, 0.0000000000000000000, -1.000000000000000000 ) ) ;
#307 = LINE ( 'NONE', #186, #27 ) ;
#308 = VERTEX_POINT ( 'NONE', #291 ) ;
#309 = CARTESIAN_POINT ( 'NONE',  ( 0.0000000000000000000, 0.0000000000000000000, 2.952755999999999936 ) ) ;
#310 = EDGE_CURVE ( 'NONE', #116, #193, #245, .T. ) ;
#311 = EDGE_LOOP ( 'NONE', ( #323, #146 ) ) ;
#312 = CIRCLE ( 'NONE', #251, 0.07873999999999992117 ) ;
#313 = DIRECTION ( 'NONE',  ( 0.0000000000000000000, 0.0000000000000000000, -1.000000000000000000 ) ) ;
#314 = EDGE_CURVE ( 'NONE', #273, #42, #243, .T. ) ;
#315 = PRODUCT ( 'Micro_SBMM-060-418X', 'Micro_SBMM-060-418X', '', ( #294 ) ) ;
#316 = DIRECTION ( 'NONE',  ( 0.0000000000000000000, 1.000000000000000000, 0.0000000000000000000 ) ) ;
#317 = LINE ( 'NONE', #7, #293 ) ;
#318 = CARTESIAN_POINT ( 'NONE',  ( 0.1181100000000000344, 1.446430334472939084E-17, 2.937755999999999368 ) ) ;
#319 = ADVANCED_FACE ( 'NONE', ( #240 ), #292, .T. ) ;
#320 = PRODUCT_RELATED_PRODUCT_CATEGORY ( 'part', '', ( #315 ) ) ;
#321 = DIRECTION ( 'NONE',  ( 1.000000000000000000, 0.0000000000000000000, 0.0000000000000000000 ) ) ;
#322 = EDGE_LOOP ( 'NONE', ( #250, #334, #86, #222 ) ) ;
#323 = ORIENTED_EDGE ( 'NONE', *, *, #87, .T. ) ;
#324 = AXIS2_PLACEMENT_3D ( 'NONE', #56, #74, #214 ) ;
#325 = ORIENTED_EDGE ( 'NONE', *, *, #61, .T. ) ;
#326 = UNCERTAINTY_MEASURE_WITH_UNIT (LENGTH_MEASURE( 1.000000000000000082E-05 ), #36, 'distance_accuracy_value', 'NONE');
#327 = SURFACE_STYLE_FILL_AREA ( #147 ) ;
#328 = FACE_OUTER_BOUND ( 'NONE', #150, .T. ) ;
#329 = DIRECTION ( 'NONE',  ( 0.7071067811865486830, 8.659560562354947649E-17, -0.7071067811865462405 ) ) ;
#330 = EDGE_CURVE ( 'NONE', #308, #273, #179, .T. ) ;
#331 = CARTESIAN_POINT ( 'NONE',  ( 0.0000000000000000000, 0.0000000000000000000, 0.2061439962741667686 ) ) ;
#332 = AXIS2_PLACEMENT_3D ( 'NONE', #258, #238, #342 ) ;
#333 = MANIFOLD_SOLID_BREP ( 'Cut-Revolve3', #54 ) ;
#334 = ORIENTED_EDGE ( 'NONE', *, *, #87, .F. ) ;
#335 = FACE_OUTER_BOUND ( 'NONE', #152, .T. ) ;
#336 = EDGE_CURVE ( 'NONE', #203, #247, #213, .T. ) ;
#337 = LINE ( 'NONE', #18, #206 ) ;
#338 = AXIS2_PLACEMENT_3D ( 'NONE', #252, #14, #229 ) ;
#339 = DIRECTION ( 'NONE',  ( -0.0000000000000000000, -0.0000000000000000000, -1.000000000000000000 ) ) ;
#340 = EDGE_LOOP ( 'NONE', ( #57, #325, #39, #209 ) ) ;
#341 = ORIENTED_EDGE ( 'NONE', *, *, #310, .F. ) ;
#342 = DIRECTION ( 'NONE',  ( -1.000000000000000000, 0.0000000000000000000, 0.0000000000000000000 ) ) ;
#343 = PRODUCT_DEFINITION_SHAPE ( 'NONE', 'NONE',  #220 ) ;
#344 = PRESENTATION_LAYER_ASSIGNMENT (  '', '', ( #128 ) ) ;
#345 = VECTOR ( 'NONE', #140, 39.37007874015748143 ) ;
ENDSEC;
END-ISO-10303-21;
