ISO-10303-21;
HEADER;
FILE_DESCRIPTION (( 'STEP AP214' ),
    '1' );
FILE_NAME ('Micro_AEMM-055-4.STEP',
    '2022-03-15T14:27:05',
    ( '' ),
    ( '' ),
    'SwSTEP 2.0',
    'SolidWorks 2022',
    '' );
FILE_SCHEMA (( 'AUTOMOTIVE_DESIGN' ));
ENDSEC;

DATA;
#1 = AXIS2_PLACEMENT_3D ( 'NONE', #163, #189, #208 ) ;
#2 = CARTESIAN_POINT ( 'NONE',  ( -0.1031100000000002570, 0.000000000000000000, 2.244094000000000033 ) ) ;
#3 = ADVANCED_FACE ( 'NONE', ( #223 ), #125, .T. ) ;
#4 = CARTESIAN_POINT ( 'NONE',  ( -0.1181100000000000066, 0.000000000000000000, 2.229093999999999465 ) ) ;
#5 = DIRECTION ( 'NONE',  ( -1.224646799147353207E-16, -0.000000000000000000, -1.000000000000000000 ) ) ;
#6 = CARTESIAN_POINT ( 'NONE',  ( 0.000000000000000000, 0.000000000000000000, 2.244094000000000033 ) ) ;
#7 = CARTESIAN_POINT ( 'NONE',  ( 0.000000000000000000, 0.000000000000000000, 2.229093999999999465 ) ) ;
#8 = EDGE_CURVE ( 'NONE', #14, #271, #186, .T. ) ;
#9 = APPLICATION_CONTEXT ( 'automotive_design' ) ;
#10 = VERTEX_POINT ( 'NONE', #221 ) ;
#11 = AXIS2_PLACEMENT_3D ( 'NONE', #274, #57, #149 ) ;
#12 = UNCERTAINTY_MEASURE_WITH_UNIT (LENGTH_MEASURE( 1.000000000000000082E-05 ), #278, 'distance_accuracy_value', 'NONE');
#13 = DIRECTION ( 'NONE',  ( 1.000000000000000000, 0.000000000000000000, 0.000000000000000000 ) ) ;
#14 = VERTEX_POINT ( 'NONE', #60 ) ;
#15 = DIRECTION ( 'NONE',  ( -0.000000000000000000, -0.000000000000000000, -1.000000000000000000 ) ) ;
#16 = PRESENTATION_STYLE_ASSIGNMENT (( #248 ) ) ;
#17 = VERTEX_POINT ( 'NONE', #182 ) ;
#18 = DIRECTION ( 'NONE',  ( -1.224646799147353207E-16, -0.000000000000000000, -1.000000000000000000 ) ) ;
#19 = VERTEX_POINT ( 'NONE', #152 ) ;
#20 = SURFACE_STYLE_FILL_AREA ( #275 ) ;
#21 = EDGE_LOOP ( 'NONE', ( #249, #198, #228, #177 ) ) ;
#22 = DIRECTION ( 'NONE',  ( 1.000000000000000000, 0.000000000000000000, 0.000000000000000000 ) ) ;
#23 = SURFACE_SIDE_STYLE ('',( #20 ) ) ;
#24 = EDGE_LOOP ( 'NONE', ( #154, #107, #128, #78 ) ) ;
#25 = VECTOR ( 'NONE', #166, 39.37007874015748143 ) ;
#26 = DIRECTION ( 'NONE',  ( -1.000000000000000000, 0.000000000000000000, 0.000000000000000000 ) ) ;
#27 = ADVANCED_BREP_SHAPE_REPRESENTATION ( 'Micro_AEMM-055-4', ( #245, #86 ), #247 ) ;
#28 = CARTESIAN_POINT ( 'NONE',  ( 0.1031100000000002570, 1.262733314600838667E-17, 2.244094000000000033 ) ) ;
#29 = CYLINDRICAL_SURFACE ( 'NONE', #211, 0.1081592324999999938 ) ;
#30 = DIRECTION ( 'NONE',  ( 0.000000000000000000, 0.000000000000000000, -1.000000000000000000 ) ) ;
#31 = VECTOR ( 'NONE', #62, 39.37007874015748854 ) ;
#32 = ORIENTED_EDGE ( 'NONE', *, *, #250, .F. ) ;
#33 = CLOSED_SHELL ( 'NONE', ( #77, #103, #40, #3, #142, #49, #191, #219, #53, #193 ) ) ;
#34 = EDGE_LOOP ( 'NONE', ( #202, #216, #131, #291 ) ) ;
#35 = EDGE_CURVE ( 'NONE', #124, #19, #109, .T. ) ;
#36 = EDGE_LOOP ( 'NONE', ( #290, #225, #137, #130 ) ) ;
#37 = EDGE_LOOP ( 'NONE', ( #134, #147 ) ) ;
#38 = APPLICATION_PROTOCOL_DEFINITION ( 'draft international standard', 'automotive_design', 1998, #293 ) ;
#39 = AXIS2_PLACEMENT_3D ( 'NONE', #229, #18, #178 ) ;
#40 = ADVANCED_FACE ( 'NONE', ( #273 ), #127, .T. ) ;
#41 =( NAMED_UNIT ( * ) PLANE_ANGLE_UNIT ( ) SI_UNIT ( $, .RADIAN. ) );
#42 = CARTESIAN_POINT ( 'NONE',  ( -0.1081592324999999244, 1.324568578793593802E-17, 0.6299209999999999532 ) ) ;
#43 = ORIENTED_EDGE ( 'NONE', *, *, #73, .F. ) ;
#44 = DIRECTION ( 'NONE',  ( -1.224646799147353207E-16, -0.000000000000000000, -1.000000000000000000 ) ) ;
#45 = STYLED_ITEM ( 'NONE', ( #284 ), #27 ) ;
#46 = PLANE ( 'NONE',  #266 ) ;
#47 = DIRECTION ( 'NONE',  ( 0.000000000000000000, 0.000000000000000000, 1.000000000000000000 ) ) ;
#48 = SURFACE_STYLE_USAGE ( .BOTH. , #23 ) ;
#49 = ADVANCED_FACE ( 'NONE', ( #118 ), #136, .T. ) ;
#50 = CARTESIAN_POINT ( 'NONE',  ( 0.1181100000000000066, 1.446430334472939084E-17, 2.244094000000000033 ) ) ;
#51 = PRODUCT_DEFINITION_FORMATION_WITH_SPECIFIED_SOURCE ( 'ANY', '', #156, .NOT_KNOWN. ) ;
#52 = CARTESIAN_POINT ( 'NONE',  ( 0.000000000000000000, 0.000000000000000000, 2.244094000000000033 ) ) ;
#53 = ADVANCED_FACE ( 'NONE', ( #257 ), #279, .T. ) ;
#54 = ORIENTED_EDGE ( 'NONE', *, *, #161, .T. ) ;
#55 = ORIENTED_EDGE ( 'NONE', *, *, #281, .F. ) ;
#56 = AXIS2_PLACEMENT_3D ( 'NONE', #159, #269, #65 ) ;
#57 = DIRECTION ( 'NONE',  ( -1.224646799147353207E-16, -0.000000000000000000, -1.000000000000000000 ) ) ;
#58 =( NAMED_UNIT ( * ) SI_UNIT ( $, .STERADIAN. ) SOLID_ANGLE_UNIT ( ) );
#59 = MECHANICAL_DESIGN_GEOMETRIC_PRESENTATION_REPRESENTATION (  '', ( #66 ), #164 ) ;
#60 = CARTESIAN_POINT ( 'NONE',  ( 0.1081592324999999938, 1.324568578793593648E-17, 0.000000000000000000 ) ) ;
#61 = PRODUCT_DEFINITION_SHAPE ( 'NONE', 'NONE',  #170 ) ;
#62 = DIRECTION ( 'NONE',  ( -0.7071067811865358044, 0.000000000000000000, -0.7071067811865590080 ) ) ;
#63 = CARTESIAN_POINT ( 'NONE',  ( 0.000000000000000000, 0.000000000000000000, 2.244094000000000033 ) ) ;
#64 = DIRECTION ( 'NONE',  ( 0.000000000000000000, 0.000000000000000000, -1.000000000000000000 ) ) ;
#65 = DIRECTION ( 'NONE',  ( 1.000000000000000000, 0.000000000000000000, 0.000000000000000000 ) ) ;
#66 = STYLED_ITEM ( 'NONE', ( #16 ), #245 ) ;
#67 = FACE_OUTER_BOUND ( 'NONE', #21, .T. ) ;
#68 = DIRECTION ( 'NONE',  ( 0.7071067811865358044, 8.659560562354788645E-17, -0.7071067811865590080 ) ) ;
#69 =( NAMED_UNIT ( * ) SI_UNIT ( $, .STERADIAN. ) SOLID_ANGLE_UNIT ( ) );
#70 = CARTESIAN_POINT ( 'NONE',  ( 7.714307363656999460E-17, 0.000000000000000000, 0.6299209999999999532 ) ) ;
#71 = COLOUR_RGB ( '',0.7921568627450980005, 0.8196078431372548767, 0.9333333333333333481 ) ;
#72 = DIRECTION ( 'NONE',  ( 1.224646799147353207E-16, 0.000000000000000000, 1.000000000000000000 ) ) ;
#73 = EDGE_CURVE ( 'NONE', #124, #244, #270, .T. ) ;
#74 = DIRECTION ( 'NONE',  ( -0.1736481776669311639, 2.126576849575782392E-17, 0.9848077530122080203 ) ) ;
#75 = UNCERTAINTY_MEASURE_WITH_UNIT (LENGTH_MEASURE( 1.000000000000000082E-05 ), #135, 'distance_accuracy_value', 'NONE');
#76 = LINE ( 'NONE', #240, #100 ) ;
#77 = ADVANCED_FACE ( 'NONE', ( #67 ), #29, .T. ) ;
#78 = ORIENTED_EDGE ( 'NONE', *, *, #35, .F. ) ;
#79 = ORIENTED_EDGE ( 'NONE', *, *, #180, .T. ) ;
#80 = CIRCLE ( 'NONE', #145, 0.1181100000000000066 ) ;
#81 = VECTOR ( 'NONE', #141, 39.37007874015748143 ) ;
#82 = SURFACE_SIDE_STYLE ('',( #104 ) ) ;
#83 = PRODUCT_RELATED_PRODUCT_CATEGORY ( 'part', '', ( #156 ) ) ;
#84 = EDGE_CURVE ( 'NONE', #271, #14, #140, .T. ) ;
#85 = EDGE_LOOP ( 'NONE', ( #94, #295, #101, #267 ) ) ;
#86 = AXIS2_PLACEMENT_3D ( 'NONE', #222, #106, #196 ) ;
#87 = DIRECTION ( 'NONE',  ( -1.224646799147353207E-16, -0.000000000000000000, -1.000000000000000000 ) ) ;
#88 = DIRECTION ( 'NONE',  ( 0.1736481776669313304, 0.000000000000000000, 0.9848077530122077983 ) ) ;
#89 = ORIENTED_EDGE ( 'NONE', *, *, #175, .F. ) ;
#90 = ORIENTED_EDGE ( 'NONE', *, *, #35, .T. ) ;
#91 = FACE_OUTER_BOUND ( 'NONE', #24, .T. ) ;
#92 = CARTESIAN_POINT ( 'NONE',  ( 0.000000000000000000, 0.000000000000000000, 2.244094000000000033 ) ) ;
#93 = PRODUCT_DEFINITION_CONTEXT ( 'detailed design', #9, 'design' ) ;
#94 = ORIENTED_EDGE ( 'NONE', *, *, #180, .F. ) ;
#95 = CARTESIAN_POINT ( 'NONE',  ( 0.000000000000000000, 0.000000000000000000, 0.000000000000000000 ) ) ;
#96 = DIRECTION ( 'NONE',  ( -1.224646799147353207E-16, -0.000000000000000000, -1.000000000000000000 ) ) ;
#97 = VECTOR ( 'NONE', #74, 39.37007874015747433 ) ;
#98 = LINE ( 'NONE', #190, #25 ) ;
#99 = FILL_AREA_STYLE_COLOUR ( '', #71 ) ;
#100 = VECTOR ( 'NONE', #122, 39.37007874015748143 ) ;
#101 = ORIENTED_EDGE ( 'NONE', *, *, #197, .T. ) ;
#102 = CONICAL_SURFACE ( 'NONE', #132, 0.1081592325000000077, 0.1745329251994338360 ) ;
#103 = ADVANCED_FACE ( 'NONE', ( #91 ), #209, .T. ) ;
#104 = SURFACE_STYLE_FILL_AREA ( #252 ) ;
#105 = CARTESIAN_POINT ( 'NONE',  ( 0.1031100000000002570, 1.354581824536888722E-17, 2.244094000000000033 ) ) ;
#106 = DIRECTION ( 'NONE',  ( 0.000000000000000000, 0.000000000000000000, 1.000000000000000000 ) ) ;
#107 = ORIENTED_EDGE ( 'NONE', *, *, #175, .T. ) ;
#108 =( LENGTH_UNIT ( ) NAMED_UNIT ( * ) SI_UNIT ( $, .METRE. ) );
#109 = LINE ( 'NONE', #297, #123 ) ;
#110 = CIRCLE ( 'NONE', #258, 0.1181100000000000066 ) ;
#111 =( LENGTH_UNIT ( ) NAMED_UNIT ( * ) SI_UNIT ( $, .METRE. ) );
#112 = PRODUCT_CONTEXT ( 'NONE', #293, 'mechanical' ) ;
#113 = ORIENTED_EDGE ( 'NONE', *, *, #115, .T. ) ;
#114 = EDGE_LOOP ( 'NONE', ( #200, #113, #179, #32 ) ) ;
#115 = EDGE_CURVE ( 'NONE', #298, #10, #210, .T. ) ;
#116 = FACE_OUTER_BOUND ( 'NONE', #171, .T. ) ;
#117 = CIRCLE ( 'NONE', #39, 0.1081592325000000077 ) ;
#118 = FACE_OUTER_BOUND ( 'NONE', #194, .T. ) ;
#119 = DIRECTION ( 'NONE',  ( -1.000000000000000000, 0.000000000000000000, 0.000000000000000000 ) ) ;
#120 = DIRECTION ( 'NONE',  ( -1.000000000000000000, 0.000000000000000000, 1.224646799147353207E-16 ) ) ;
#121 = CONICAL_SURFACE ( 'NONE', #205, 0.1031100000000002570, 0.7853981633974318477 ) ;
#122 = DIRECTION ( 'NONE',  ( -1.224646799147353207E-16, -0.000000000000000000, -1.000000000000000000 ) ) ;
#123 = VECTOR ( 'NONE', #88, 39.37007874015748143 ) ;
#124 = VERTEX_POINT ( 'NONE', #286 ) ;
#125 = CYLINDRICAL_SURFACE ( 'NONE', #213, 0.1181100000000000066 ) ;
#126 = AXIS2_PLACEMENT_3D ( 'NONE', #70, #96, #119 ) ;
#127 = CONICAL_SURFACE ( 'NONE', #217, 0.1031100000000002570, 0.7853981633974318477 ) ;
#128 = ORIENTED_EDGE ( 'NONE', *, *, #281, .T. ) ;
#129 =( NAMED_UNIT ( * ) PLANE_ANGLE_UNIT ( ) SI_UNIT ( $, .RADIAN. ) );
#130 = ORIENTED_EDGE ( 'NONE', *, *, #199, .F. ) ;
#131 = ORIENTED_EDGE ( 'NONE', *, *, #234, .T. ) ;
#132 = AXIS2_PLACEMENT_3D ( 'NONE', #160, #255, #206 ) ;
#133 = LINE ( 'NONE', #183, #31 ) ;
#134 = ORIENTED_EDGE ( 'NONE', *, *, #84, .T. ) ;
#135 =( CONVERSION_BASED_UNIT ( 'INCH', #272 ) LENGTH_UNIT ( ) NAMED_UNIT ( #241 ) );
#136 = PLANE ( 'NONE',  #264 ) ;
#137 = ORIENTED_EDGE ( 'NONE', *, *, #250, .T. ) ;
#138 = FACE_OUTER_BOUND ( 'NONE', #85, .T. ) ;
#139 = LENGTH_MEASURE_WITH_UNIT ( LENGTH_MEASURE( 0.02539999999999999897 ), #187 );
#140 = CIRCLE ( 'NONE', #1, 0.1081592324999999938 ) ;
#141 = DIRECTION ( 'NONE',  ( -0.000000000000000000, -0.000000000000000000, -1.000000000000000000 ) ) ;
#142 = ADVANCED_FACE ( 'NONE', ( #138 ), #188, .T. ) ;
#143 = DIRECTION ( 'NONE',  ( 1.000000000000000000, 0.000000000000000000, -0.000000000000000000 ) ) ;
#144 = LINE ( 'NONE', #42, #97 ) ;
#145 = AXIS2_PLACEMENT_3D ( 'NONE', #224, #87, #13 ) ;
#146 = DIRECTION ( 'NONE',  ( 0.000000000000000000, 0.000000000000000000, 1.000000000000000000 ) ) ;
#147 = ORIENTED_EDGE ( 'NONE', *, *, #8, .T. ) ;
#148 = CIRCLE ( 'NONE', #218, 0.1181100000000000066 ) ;
#149 = DIRECTION ( 'NONE',  ( -1.000000000000000000, 0.000000000000000000, 1.224646799147353207E-16 ) ) ;
#150 = CIRCLE ( 'NONE', #242, 0.1031100000000002570 ) ;
#151 = SHAPE_DEFINITION_REPRESENTATION ( #61, #27 ) ;
#152 = CARTESIAN_POINT ( 'NONE',  ( 0.1181100000000000899, 1.446430334472940009E-17, 0.6863546068139924072 ) ) ;
#153 =( CONVERSION_BASED_UNIT ( 'INCH', #268 ) LENGTH_UNIT ( ) NAMED_UNIT ( #283 ) );
#154 = ORIENTED_EDGE ( 'NONE', *, *, #261, .F. ) ;
#155 = VERTEX_POINT ( 'NONE', #4 ) ;
#156 = PRODUCT ( 'Micro_AEMM-055-4', 'Micro_AEMM-055-4', '', ( #112 ) ) ;
#157 = DIRECTION ( 'NONE',  ( -1.000000000000000000, 0.000000000000000000, 0.000000000000000000 ) ) ;
#158 = VECTOR ( 'NONE', #192, 39.37007874015748143 ) ;
#159 = CARTESIAN_POINT ( 'NONE',  ( 8.405419723147960063E-17, 0.000000000000000000, 0.6863546068139924072 ) ) ;
#160 = CARTESIAN_POINT ( 'NONE',  ( 7.714307363656999460E-17, 0.000000000000000000, 0.6299209999999999532 ) ) ;
#161 = EDGE_CURVE ( 'NONE', #298, #231, #150, .T. ) ;
#162 = CARTESIAN_POINT ( 'NONE',  ( 0.000000000000000000, 0.000000000000000000, 0.000000000000000000 ) ) ;
#163 = CARTESIAN_POINT ( 'NONE',  ( 1.622128670270733258E-33, 0.000000000000000000, 1.324568578793593648E-17 ) ) ;
#164 =( GEOMETRIC_REPRESENTATION_CONTEXT ( 3 ) GLOBAL_UNCERTAINTY_ASSIGNED_CONTEXT ( ( #256 ) ) GLOBAL_UNIT_ASSIGNED_CONTEXT ( ( #153, #41, #58 ) ) REPRESENTATION_CONTEXT ( 'NONE', 'WORKASPACE' ) );
#165 = DIRECTION ( 'NONE',  ( -1.000000000000000000, 0.000000000000000000, 1.224646799147353207E-16 ) ) ;
#166 = DIRECTION ( 'NONE',  ( -0.000000000000000000, -0.000000000000000000, -1.000000000000000000 ) ) ;
#167 = ORIENTED_EDGE ( 'NONE', *, *, #254, .T. ) ;
#168 = CARTESIAN_POINT ( 'NONE',  ( -0.1081592324999999244, 1.385499456633266443E-17, 0.6299209999999999532 ) ) ;
#169 = AXIS2_PLACEMENT_3D ( 'NONE', #239, #72, #287 ) ;
#170 = PRODUCT_DEFINITION ( 'UNKNOWN', '', #51, #93 ) ;
#171 = EDGE_LOOP ( 'NONE', ( #89, #43, #90, #167 ) ) ;
#172 = DIRECTION ( 'NONE',  ( -1.000000000000000000, 0.000000000000000000, 0.000000000000000000 ) ) ;
#173 =( GEOMETRIC_REPRESENTATION_CONTEXT ( 3 ) GLOBAL_UNCERTAINTY_ASSIGNED_CONTEXT ( ( #12 ) ) GLOBAL_UNIT_ASSIGNED_CONTEXT ( ( #278, #280, #69 ) ) REPRESENTATION_CONTEXT ( 'NONE', 'WORKASPACE' ) );
#174 = DIRECTION ( 'NONE',  ( 0.000000000000000000, 0.000000000000000000, -1.000000000000000000 ) ) ;
#175 = EDGE_CURVE ( 'NONE', #244, #17, #144, .T. ) ;
#176 = AXIS2_PLACEMENT_3D ( 'NONE', #52, #146, #288 ) ;
#177 = ORIENTED_EDGE ( 'NONE', *, *, #234, .F. ) ;
#178 = DIRECTION ( 'NONE',  ( -1.000000000000000000, 0.000000000000000000, 0.000000000000000000 ) ) ;
#179 = ORIENTED_EDGE ( 'NONE', *, *, #246, .F. ) ;
#180 = EDGE_CURVE ( 'NONE', #10, #19, #207, .T. ) ;
#181 = CARTESIAN_POINT ( 'NONE',  ( -0.1081592324999999938, 0.000000000000000000, 2.649137157587187296E-17 ) ) ;
#182 = CARTESIAN_POINT ( 'NONE',  ( -0.1181099999999999234, 0.000000000000000000, 0.6863546068139924072 ) ) ;
#183 = CARTESIAN_POINT ( 'NONE',  ( -0.1031100000000002570, 0.000000000000000000, 2.244094000000000033 ) ) ;
#184 = CARTESIAN_POINT ( 'NONE',  ( 0.000000000000000000, 0.000000000000000000, 2.229093999999999465 ) ) ;
#185 = DIRECTION ( 'NONE',  ( 0.000000000000000000, 0.000000000000000000, 1.000000000000000000 ) ) ;
#186 = CIRCLE ( 'NONE', #11, 0.1081592324999999938 ) ;
#187 =( LENGTH_UNIT ( ) NAMED_UNIT ( * ) SI_UNIT ( $, .METRE. ) );
#188 = CYLINDRICAL_SURFACE ( 'NONE', #226, 0.1181100000000000066 ) ;
#189 = DIRECTION ( 'NONE',  ( -1.224646799147353207E-16, -0.000000000000000000, -1.000000000000000000 ) ) ;
#190 = CARTESIAN_POINT ( 'NONE',  ( -0.1181100000000000066, 0.000000000000000000, 2.244094000000000033 ) ) ;
#191 = ADVANCED_FACE ( 'NONE', ( #282 ), #121, .T. ) ;
#192 = DIRECTION ( 'NONE',  ( -1.224646799147353207E-16, -0.000000000000000000, -1.000000000000000000 ) ) ;
#193 = ADVANCED_FACE ( 'NONE', ( #260 ), #46, .F. ) ;
#194 = EDGE_LOOP ( 'NONE', ( #253, #54 ) ) ;
#195 = AXIS2_PLACEMENT_3D ( 'NONE', #237, #44, #165 ) ;
#196 = DIRECTION ( 'NONE',  ( 1.000000000000000000, 0.000000000000000000, 0.000000000000000000 ) ) ;
#197 = EDGE_CURVE ( 'NONE', #155, #17, #98, .T. ) ;
#198 = ORIENTED_EDGE ( 'NONE', *, *, #238, .T. ) ;
#199 = EDGE_CURVE ( 'NONE', #10, #155, #110, .T. ) ;
#200 = ORIENTED_EDGE ( 'NONE', *, *, #161, .F. ) ;
#201 =( NAMED_UNIT ( * ) SI_UNIT ( $, .STERADIAN. ) SOLID_ANGLE_UNIT ( ) );
#202 = ORIENTED_EDGE ( 'NONE', *, *, #238, .F. ) ;
#203 = FILL_AREA_STYLE_COLOUR ( '', #232 ) ;
#204 = DIRECTION ( 'NONE',  ( -1.000000000000000000, 0.000000000000000000, 0.000000000000000000 ) ) ;
#205 = AXIS2_PLACEMENT_3D ( 'NONE', #6, #30, #204 ) ;
#206 = DIRECTION ( 'NONE',  ( 1.000000000000000000, 0.000000000000000000, 0.000000000000000000 ) ) ;
#207 = LINE ( 'NONE', #50, #81 ) ;
#208 = DIRECTION ( 'NONE',  ( -1.000000000000000000, 0.000000000000000000, 1.224646799147353207E-16 ) ) ;
#209 = CONICAL_SURFACE ( 'NONE', #169, 0.1081592325000000077, 0.1745329251994338360 ) ;
#210 = LINE ( 'NONE', #28, #285 ) ;
#211 = AXIS2_PLACEMENT_3D ( 'NONE', #162, #5, #120 ) ;
#212 = LINE ( 'NONE', #263, #158 ) ;
#213 = AXIS2_PLACEMENT_3D ( 'NONE', #63, #15, #172 ) ;
#214 = MECHANICAL_DESIGN_GEOMETRIC_PRESENTATION_REPRESENTATION (  '', ( #45 ), #173 ) ;
#215 = DIMENSIONAL_EXPONENTS ( 1.000000000000000000, 0.000000000000000000, 0.000000000000000000, 0.000000000000000000, 0.000000000000000000, 0.000000000000000000, 0.000000000000000000 ) ;
#216 = ORIENTED_EDGE ( 'NONE', *, *, #73, .T. ) ;
#217 = AXIS2_PLACEMENT_3D ( 'NONE', #227, #64, #157 ) ;
#218 = AXIS2_PLACEMENT_3D ( 'NONE', #7, #174, #220 ) ;
#219 = ADVANCED_FACE ( 'NONE', ( #116 ), #102, .T. ) ;
#220 = DIRECTION ( 'NONE',  ( 1.000000000000000000, 0.000000000000000000, 0.000000000000000000 ) ) ;
#221 = CARTESIAN_POINT ( 'NONE',  ( 0.1181100000000000066, 1.446430334472939084E-17, 2.229093999999999465 ) ) ;
#222 = CARTESIAN_POINT ( 'NONE',  ( 0.000000000000000000, 0.000000000000000000, 0.000000000000000000 ) ) ;
#223 = FACE_OUTER_BOUND ( 'NONE', #243, .T. ) ;
#224 = CARTESIAN_POINT ( 'NONE',  ( 8.405419723147960063E-17, 0.000000000000000000, 0.6863546068139924072 ) ) ;
#225 = ORIENTED_EDGE ( 'NONE', *, *, #236, .F. ) ;
#226 = AXIS2_PLACEMENT_3D ( 'NONE', #92, #233, #26 ) ;
#227 = CARTESIAN_POINT ( 'NONE',  ( 0.000000000000000000, 0.000000000000000000, 2.244094000000000033 ) ) ;
#228 = ORIENTED_EDGE ( 'NONE', *, *, #84, .F. ) ;
#229 = CARTESIAN_POINT ( 'NONE',  ( 7.714307363656999460E-17, 0.000000000000000000, 0.6299209999999999532 ) ) ;
#230 = CARTESIAN_POINT ( 'NONE',  ( 0.000000000000000000, 0.000000000000000000, 2.244094000000000033 ) ) ;
#231 = VERTEX_POINT ( 'NONE', #2 ) ;
#232 = COLOUR_RGB ( '',0.7921568627450980005, 0.8196078431372548767, 0.9333333333333333481 ) ;
#233 = DIRECTION ( 'NONE',  ( -0.000000000000000000, -0.000000000000000000, -1.000000000000000000 ) ) ;
#234 = EDGE_CURVE ( 'NONE', #244, #271, #212, .T. ) ;
#235 = DIRECTION ( 'NONE',  ( 0.000000000000000000, 0.000000000000000000, 1.000000000000000000 ) ) ;
#236 = EDGE_CURVE ( 'NONE', #231, #298, #292, .T. ) ;
#237 = CARTESIAN_POINT ( 'NONE',  ( 0.000000000000000000, 0.000000000000000000, 0.000000000000000000 ) ) ;
#238 = EDGE_CURVE ( 'NONE', #124, #14, #76, .T. ) ;
#239 = CARTESIAN_POINT ( 'NONE',  ( 7.714307363656999460E-17, 0.000000000000000000, 0.6299209999999999532 ) ) ;
#240 = CARTESIAN_POINT ( 'NONE',  ( 0.1081592324999999938, 1.324568578793593648E-17, -1.324568578793593648E-17 ) ) ;
#241 = DIMENSIONAL_EXPONENTS ( 1.000000000000000000, 0.000000000000000000, 0.000000000000000000, 0.000000000000000000, 0.000000000000000000, 0.000000000000000000, 0.000000000000000000 ) ;
#242 = AXIS2_PLACEMENT_3D ( 'NONE', #230, #185, #22 ) ;
#243 = EDGE_LOOP ( 'NONE', ( #251, #79, #55, #265 ) ) ;
#244 = VERTEX_POINT ( 'NONE', #168 ) ;
#245 = MANIFOLD_SOLID_BREP ( 'Cut-Revolve1', #33 ) ;
#246 = EDGE_CURVE ( 'NONE', #155, #10, #148, .T. ) ;
#247 =( GEOMETRIC_REPRESENTATION_CONTEXT ( 3 ) GLOBAL_UNCERTAINTY_ASSIGNED_CONTEXT ( ( #75 ) ) GLOBAL_UNIT_ASSIGNED_CONTEXT ( ( #135, #129, #201 ) ) REPRESENTATION_CONTEXT ( 'NONE', 'WORKASPACE' ) );
#248 = SURFACE_STYLE_USAGE ( .BOTH. , #82 ) ;
#249 = ORIENTED_EDGE ( 'NONE', *, *, #261, .T. ) ;
#250 = EDGE_CURVE ( 'NONE', #231, #155, #133, .T. ) ;
#251 = ORIENTED_EDGE ( 'NONE', *, *, #246, .T. ) ;
#252 = FILL_AREA_STYLE ('',( #99 ) ) ;
#253 = ORIENTED_EDGE ( 'NONE', *, *, #236, .T. ) ;
#254 = EDGE_CURVE ( 'NONE', #19, #17, #80, .T. ) ;
#255 = DIRECTION ( 'NONE',  ( 1.224646799147353207E-16, 0.000000000000000000, 1.000000000000000000 ) ) ;
#256 = UNCERTAINTY_MEASURE_WITH_UNIT (LENGTH_MEASURE( 1.000000000000000082E-05 ), #153, 'distance_accuracy_value', 'NONE');
#257 = FACE_OUTER_BOUND ( 'NONE', #34, .T. ) ;
#258 = AXIS2_PLACEMENT_3D ( 'NONE', #184, #262, #277 ) ;
#259 = CARTESIAN_POINT ( 'NONE',  ( 0.000000000000000000, 0.000000000000000000, 2.244094000000000033 ) ) ;
#260 = FACE_OUTER_BOUND ( 'NONE', #37, .T. ) ;
#261 = EDGE_CURVE ( 'NONE', #244, #124, #117, .T. ) ;
#262 = DIRECTION ( 'NONE',  ( 0.000000000000000000, 0.000000000000000000, -1.000000000000000000 ) ) ;
#263 = CARTESIAN_POINT ( 'NONE',  ( -0.1081592324999999938, 0.000000000000000000, 1.324568578793593648E-17 ) ) ;
#264 = AXIS2_PLACEMENT_3D ( 'NONE', #259, #235, #299 ) ;
#265 = ORIENTED_EDGE ( 'NONE', *, *, #197, .F. ) ;
#266 = AXIS2_PLACEMENT_3D ( 'NONE', #95, #47, #143 ) ;
#267 = ORIENTED_EDGE ( 'NONE', *, *, #254, .F. ) ;
#268 = LENGTH_MEASURE_WITH_UNIT ( LENGTH_MEASURE( 0.02539999999999999897 ), #108 );
#269 = DIRECTION ( 'NONE',  ( -1.224646799147353207E-16, -0.000000000000000000, -1.000000000000000000 ) ) ;
#270 = CIRCLE ( 'NONE', #126, 0.1081592325000000077 ) ;
#271 = VERTEX_POINT ( 'NONE', #181 ) ;
#272 = LENGTH_MEASURE_WITH_UNIT ( LENGTH_MEASURE( 0.02539999999999999897 ), #111 );
#273 = FACE_OUTER_BOUND ( 'NONE', #114, .T. ) ;
#274 = CARTESIAN_POINT ( 'NONE',  ( 1.622128670270733258E-33, 0.000000000000000000, 1.324568578793593648E-17 ) ) ;
#275 = FILL_AREA_STYLE ('',( #203 ) ) ;
#276 = PRESENTATION_LAYER_ASSIGNMENT (  '', '', ( #45 ) ) ;
#277 = DIRECTION ( 'NONE',  ( 1.000000000000000000, 0.000000000000000000, 0.000000000000000000 ) ) ;
#278 =( CONVERSION_BASED_UNIT ( 'INCH', #139 ) LENGTH_UNIT ( ) NAMED_UNIT ( #215 ) );
#279 = CYLINDRICAL_SURFACE ( 'NONE', #195, 0.1081592324999999938 ) ;
#280 =( NAMED_UNIT ( * ) PLANE_ANGLE_UNIT ( ) SI_UNIT ( $, .RADIAN. ) );
#281 = EDGE_CURVE ( 'NONE', #17, #19, #289, .T. ) ;
#282 = FACE_OUTER_BOUND ( 'NONE', #36, .T. ) ;
#283 = DIMENSIONAL_EXPONENTS ( 1.000000000000000000, 0.000000000000000000, 0.000000000000000000, 0.000000000000000000, 0.000000000000000000, 0.000000000000000000, 0.000000000000000000 ) ;
#284 = PRESENTATION_STYLE_ASSIGNMENT (( #48 ) ) ;
#285 = VECTOR ( 'NONE', #68, 39.37007874015748854 ) ;
#286 = CARTESIAN_POINT ( 'NONE',  ( 0.1081592325000000909, 0.000000000000000000, 0.6299209999999999532 ) ) ;
#287 = DIRECTION ( 'NONE',  ( 1.000000000000000000, 0.000000000000000000, 0.000000000000000000 ) ) ;
#288 = DIRECTION ( 'NONE',  ( 1.000000000000000000, 0.000000000000000000, 0.000000000000000000 ) ) ;
#289 = CIRCLE ( 'NONE', #56, 0.1181100000000000066 ) ;
#290 = ORIENTED_EDGE ( 'NONE', *, *, #115, .F. ) ;
#291 = ORIENTED_EDGE ( 'NONE', *, *, #8, .F. ) ;
#292 = CIRCLE ( 'NONE', #176, 0.1031100000000002570 ) ;
#293 = APPLICATION_CONTEXT ( 'automotive_design' ) ;
#294 = APPLICATION_PROTOCOL_DEFINITION ( 'draft international standard', 'automotive_design', 1998, #9 ) ;
#295 = ORIENTED_EDGE ( 'NONE', *, *, #199, .T. ) ;
#296 = PRESENTATION_LAYER_ASSIGNMENT (  '', '', ( #66 ) ) ;
#297 = CARTESIAN_POINT ( 'NONE',  ( 0.1081592325000000909, 0.000000000000000000, 0.6299209999999999532 ) ) ;
#298 = VERTEX_POINT ( 'NONE', #105 ) ;
#299 = DIRECTION ( 'NONE',  ( 1.000000000000000000, 0.000000000000000000, -0.000000000000000000 ) ) ;
ENDSEC;
END-ISO-10303-21;
