ISO-10303-21;
HEADER;
FILE_DESCRIPTION (( 'STEP AP214' ),
    '1' );
FILE_NAME ('Micro_BMS-023-2.STEP',
    '2021-09-03T14:59:58',
    ( '' ),
    ( '' ),
    'SwSTEP 2.0',
    'SolidWorks 2020',
    '' );
FILE_SCHEMA (( 'AUTOMOTIVE_DESIGN' ));
ENDSEC;

DATA;
#1 = LENGTH_MEASURE_WITH_UNIT ( LENGTH_MEASURE( 0.02539999999999999897 ), #129 );
#2 = PRESENTATION_STYLE_ASSIGNMENT (( #301 ) ) ;
#3 = VERTEX_POINT ( 'NONE', #90 ) ;
#4 = EDGE_LOOP ( 'NONE', ( #271, #288, #28, #307 ) ) ;
#5 = ORIENTED_EDGE ( 'NONE', *, *, #77, .F. ) ;
#6 =( GEOMETRIC_REPRESENTATION_CONTEXT ( 3 ) GLOBAL_UNCERTAINTY_ASSIGNED_CONTEXT ( ( #109 ) ) GLOBAL_UNIT_ASSIGNED_CONTEXT ( ( #87, #287, #93 ) ) REPRESENTATION_CONTEXT ( 'NONE', 'WORKASPACE' ) );
#7 = CIRCLE ( 'NONE', #121, 0.01148850000000000392 ) ;
#8 = DIRECTION ( 'NONE',  ( 1.224646799147353454E-16, 0.0000000000000000000, 1.000000000000000000 ) ) ;
#9 = FACE_OUTER_BOUND ( 'NONE', #308, .T. ) ;
#10 = PRODUCT_DEFINITION_CONTEXT ( 'detailed design', #105, 'design' ) ;
#11 = DIRECTION ( 'NONE',  ( -0.0000000000000000000, -0.0000000000000000000, -1.000000000000000000 ) ) ;
#12 = PRESENTATION_LAYER_ASSIGNMENT (  '', '', ( #173 ) ) ;
#13 = FACE_OUTER_BOUND ( 'NONE', #324, .T. ) ;
#14 = VECTOR ( 'NONE', #92, 39.37007874015748143 ) ;
#15 = EDGE_CURVE ( 'NONE', #20, #210, #203, .T. ) ;
#16 = DIRECTION ( 'NONE',  ( -1.000000000000000000, 0.0000000000000000000, 1.857732728424254500E-16 ) ) ;
#17 = CARTESIAN_POINT ( 'NONE',  ( 0.01148850000000000565, 0.0000000000000000000, 0.03400000000000000244 ) ) ;
#18 = CIRCLE ( 'NONE', #266, 0.01148850000000000392 ) ;
#19 = FACE_OUTER_BOUND ( 'NONE', #56, .T. ) ;
#20 = VERTEX_POINT ( 'NONE', #64 ) ;
#21 = PRODUCT_DEFINITION_FORMATION_WITH_SPECIFIED_SOURCE ( 'ANY', '', #300, .NOT_KNOWN. ) ;
#22 =( NAMED_UNIT ( * ) SI_UNIT ( $, .STERADIAN. ) SOLID_ANGLE_UNIT ( ) );
#23 = ORIENTED_EDGE ( 'NONE', *, *, #152, .F. ) ;
#24 = EDGE_CURVE ( 'NONE', #48, #157, #262, .T. ) ;
#25 = DIRECTION ( 'NONE',  ( 1.000000000000000000, 0.0000000000000000000, 0.0000000000000000000 ) ) ;
#26 = ORIENTED_EDGE ( 'NONE', *, *, #187, .F. ) ;
#27 = CARTESIAN_POINT ( 'NONE',  ( 1.406935475200437208E-18, 0.0000000000000000000, 0.01148850000000000218 ) ) ;
#28 = ORIENTED_EDGE ( 'NONE', *, *, #206, .F. ) ;
#29 = AXIS2_PLACEMENT_3D ( 'NONE', #213, #191, #62 ) ;
#30 = AXIS2_PLACEMENT_3D ( 'NONE', #148, #70, #72 ) ;
#31 = VERTEX_POINT ( 'NONE', #218 ) ;
#32 = FACE_OUTER_BOUND ( 'NONE', #219, .T. ) ;
#33 = PRODUCT_RELATED_PRODUCT_CATEGORY ( 'part', '', ( #300 ) ) ;
#34 = ADVANCED_FACE ( 'NONE', ( #9 ), #127, .T. ) ;
#35 = PRODUCT_CONTEXT ( 'NONE', #274, 'mechanical' ) ;
#36 = DIRECTION ( 'NONE',  ( 0.0000000000000000000, -1.000000000000000000, 0.0000000000000000000 ) ) ;
#37 = ADVANCED_FACE ( 'NONE', ( #32 ), #41, .T. ) ;
#38 = VECTOR ( 'NONE', #268, 39.37007874015748143 ) ;
#39 = DIRECTION ( 'NONE',  ( 1.224646799147353454E-16, 0.0000000000000000000, 1.000000000000000000 ) ) ;
#40 = CARTESIAN_POINT ( 'NONE',  ( 2.110403212800655716E-18, 0.0000000000000000000, 0.0000000000000000000 ) ) ;
#41 = CYLINDRICAL_SURFACE ( 'NONE', #116, 0.01148850000000000392 ) ;
#42 = AXIS2_PLACEMENT_3D ( 'NONE', #278, #298, #84 ) ;
#43 = SURFACE_SIDE_STYLE ('',( #314 ) ) ;
#44 = FACE_OUTER_BOUND ( 'NONE', #111, .T. ) ;
#45 = EDGE_CURVE ( 'NONE', #232, #3, #285, .T. ) ;
#46 = CARTESIAN_POINT ( 'NONE',  ( -0.01148850000000000392, 0.0000000000000000000, 1.406935475200437593E-18 ) ) ;
#47 = CARTESIAN_POINT ( 'NONE',  ( 0.0000000000000000000, 0.0000000000000000000, 1.500000000000000222 ) ) ;
#48 = VERTEX_POINT ( 'NONE', #40 ) ;
#49 = AXIS2_PLACEMENT_3D ( 'NONE', #96, #295, #199 ) ;
#50 = ORIENTED_EDGE ( 'NONE', *, *, #276, .F. ) ;
#51 = EDGE_CURVE ( 'NONE', #3, #31, #160, .T. ) ;
#52 = VECTOR ( 'NONE', #118, 39.37007874015748143 ) ;
#53 = CARTESIAN_POINT ( 'NONE',  ( -0.04750000000000064587, 0.0000000000000000000, 1.500000000000000222 ) ) ;
#54 = ORIENTED_EDGE ( 'NONE', *, *, #97, .T. ) ;
#55 = FACE_OUTER_BOUND ( 'NONE', #281, .T. ) ;
#56 = EDGE_LOOP ( 'NONE', ( #192, #194, #104 ) ) ;
#57 = COLOUR_RGB ( '',0.7921568627450980005, 0.8196078431372548767, 0.9333333333333333481 ) ;
#58 = DIRECTION ( 'NONE',  ( -1.224646799147353454E-16, -0.0000000000000000000, -1.000000000000000000 ) ) ;
#59 = DIRECTION ( 'NONE',  ( 1.224646799147353454E-16, 0.0000000000000000000, 1.000000000000000000 ) ) ;
#60 = EDGE_CURVE ( 'NONE', #157, #83, #7, .T. ) ;
#61 = CARTESIAN_POINT ( 'NONE',  ( 1.406935475200437208E-18, 0.0000000000000000000, 0.01148850000000000218 ) ) ;
#62 = DIRECTION ( 'NONE',  ( 1.000000000000000000, 0.0000000000000000000, 0.0000000000000000000 ) ) ;
#63 = CONICAL_SURFACE ( 'NONE', #138, 0.01148850000000000218, 0.1745329251994338915 ) ;
#64 = CARTESIAN_POINT ( 'NONE',  ( -0.04750000000000064587, 0.0000000000000000000, 1.500000000000000222 ) ) ;
#65 = ADVANCED_FACE ( 'NONE', ( #13 ), #238, .T. ) ;
#66 = CARTESIAN_POINT ( 'NONE',  ( 1.406935475200437208E-18, 0.0000000000000000000, 0.01148850000000000218 ) ) ;
#67 = DIRECTION ( 'NONE',  ( 1.000000000000000000, 0.0000000000000000000, 0.0000000000000000000 ) ) ;
#68 = AXIS2_PLACEMENT_3D ( 'NONE', #69, #155, #151 ) ;
#69 = CARTESIAN_POINT ( 'NONE',  ( 0.0000000000000000000, 0.0000000000000000000, 1.500000000000000222 ) ) ;
#70 = DIRECTION ( 'NONE',  ( 0.0000000000000000000, 0.0000000000000000000, -1.000000000000000000 ) ) ;
#71 = CARTESIAN_POINT ( 'NONE',  ( 0.06250000000000000000, 7.654042494670956004E-18, 1.500000000000000222 ) ) ;
#72 = DIRECTION ( 'NONE',  ( -1.000000000000000000, 0.0000000000000000000, 0.0000000000000000000 ) ) ;
#73 = CIRCLE ( 'NONE', #120, 0.01148850000000000218 ) ;
#74 = VECTOR ( 'NONE', #180, 39.37007874015748143 ) ;
#75 = DIRECTION ( 'NONE',  ( -1.000000000000000000, 0.0000000000000000000, 0.0000000000000000000 ) ) ;
#76 = EDGE_LOOP ( 'NONE', ( #304, #81, #208, #275 ) ) ;
#77 = EDGE_CURVE ( 'NONE', #210, #85, #258, .T. ) ;
#78 = CARTESIAN_POINT ( 'NONE',  ( 0.0000000000000000000, 0.0000000000000000000, 1.500000000000000222 ) ) ;
#79 = ORIENTED_EDGE ( 'NONE', *, *, #305, .F. ) ;
#80 = SURFACE_SIDE_STYLE ('',( #162 ) ) ;
#81 = ORIENTED_EDGE ( 'NONE', *, *, #190, .T. ) ;
#82 = CARTESIAN_POINT ( 'NONE',  ( 0.0000000000000000000, 0.0000000000000000000, 0.0000000000000000000 ) ) ;
#83 = VERTEX_POINT ( 'NONE', #142 ) ;
#84 = DIRECTION ( 'NONE',  ( -1.000000000000000000, 0.0000000000000000000, 0.0000000000000000000 ) ) ;
#85 = VERTEX_POINT ( 'NONE', #309 ) ;
#86 = UNCERTAINTY_MEASURE_WITH_UNIT (LENGTH_MEASURE( 1.000000000000000082E-05 ), #183, 'distance_accuracy_value', 'NONE');
#87 =( CONVERSION_BASED_UNIT ( 'INCH', #310 ) LENGTH_UNIT ( ) NAMED_UNIT ( #319 ) );
#88 = FACE_OUTER_BOUND ( 'NONE', #290, .T. ) ;
#89 = AXIS2_PLACEMENT_3D ( 'NONE', #82, #107, #250 ) ;
#90 = CARTESIAN_POINT ( 'NONE',  ( 0.06250000000000004163, 7.654042494670960626E-18, 0.3233005925414271786 ) ) ;
#91 = EDGE_CURVE ( 'NONE', #231, #31, #122, .T. ) ;
#92 = DIRECTION ( 'NONE',  ( 0.1736481776669313859, 0.0000000000000000000, 0.9848077530122077983 ) ) ;
#93 =( NAMED_UNIT ( * ) SI_UNIT ( $, .STERADIAN. ) SOLID_ANGLE_UNIT ( ) );
#94 = CARTESIAN_POINT ( 'NONE',  ( -0.06250000000000000000, 0.0000000000000000000, 1.500000000000000222 ) ) ;
#95 = CARTESIAN_POINT ( 'NONE',  ( 0.0000000000000000000, 0.0000000000000000000, 1.500000000000000222 ) ) ;
#96 = CARTESIAN_POINT ( 'NONE',  ( 1.406935475200437208E-18, 0.0000000000000000000, 0.01148850000000000218 ) ) ;
#97 = EDGE_CURVE ( 'NONE', #232, #189, #144, .T. ) ;
#98 =( NAMED_UNIT ( * ) PLANE_ANGLE_UNIT ( ) SI_UNIT ( $, .RADIAN. ) );
#99 = CARTESIAN_POINT ( 'NONE',  ( 1.406935475200437208E-18, 0.0000000000000000000, 0.01148850000000000218 ) ) ;
#100 =( CONVERSION_BASED_UNIT ( 'INCH', #245 ) LENGTH_UNIT ( ) NAMED_UNIT ( #181 ) );
#101 = DIRECTION ( 'NONE',  ( 1.000000000000000000, 0.0000000000000000000, 0.0000000000000000000 ) ) ;
#102 = APPLICATION_PROTOCOL_DEFINITION ( 'draft international standard', 'automotive_design', 1998, #274 ) ;
#103 = FILL_AREA_STYLE_COLOUR ( '', #57 ) ;
#104 = ORIENTED_EDGE ( 'NONE', *, *, #225, .F. ) ;
#105 = APPLICATION_CONTEXT ( 'automotive_design' ) ;
#106 = ORIENTED_EDGE ( 'NONE', *, *, #322, .T. ) ;
#107 = DIRECTION ( 'NONE',  ( -1.224646799147353454E-16, -0.0000000000000000000, -1.000000000000000000 ) ) ;
#108 = AXIS2_PLACEMENT_3D ( 'NONE', #230, #205, #254 ) ;
#109 = UNCERTAINTY_MEASURE_WITH_UNIT (LENGTH_MEASURE( 1.000000000000000082E-05 ), #87, 'distance_accuracy_value', 'NONE');
#110 = AXIS2_PLACEMENT_3D ( 'NONE', #195, #140, #236 ) ;
#111 = EDGE_LOOP ( 'NONE', ( #50, #182, #23, #302 ) ) ;
#112 = APPLICATION_PROTOCOL_DEFINITION ( 'draft international standard', 'automotive_design', 1998, #105 ) ;
#113 = ORIENTED_EDGE ( 'NONE', *, *, #187, .T. ) ;
#114 = ORIENTED_EDGE ( 'NONE', *, *, #276, .T. ) ;
#115 = MECHANICAL_DESIGN_GEOMETRIC_PRESENTATION_REPRESENTATION (  '', ( #136 ), #6 ) ;
#116 = AXIS2_PLACEMENT_3D ( 'NONE', #193, #220, #197 ) ;
#117 = ORIENTED_EDGE ( 'NONE', *, *, #51, .T. ) ;
#118 = DIRECTION ( 'NONE',  ( 0.7071067811865456854, 8.659560562354911904E-17, -0.7071067811865493491 ) ) ;
#119 = ORIENTED_EDGE ( 'NONE', *, *, #316, .T. ) ;
#120 = AXIS2_PLACEMENT_3D ( 'NONE', #27, #228, #273 ) ;
#121 = AXIS2_PLACEMENT_3D ( 'NONE', #61, #59, #240 ) ;
#122 = LINE ( 'NONE', #94, #277 ) ;
#123 = LINE ( 'NONE', #226, #255 ) ;
#124 = CARTESIAN_POINT ( 'NONE',  ( -0.06250000000000000000, 0.0000000000000000000, 1.485000000000000764 ) ) ;
#125 = VECTOR ( 'NONE', #158, 39.37007874015748143 ) ;
#126 = LINE ( 'NONE', #71, #38 ) ;
#127 = CONICAL_SURFACE ( 'NONE', #282, 0.01148850000000000218, 0.1745329251994338915 ) ;
#128 = CARTESIAN_POINT ( 'NONE',  ( 0.01148850000000000565, 1.406935475200437016E-18, 0.01148849999999999871 ) ) ;
#129 =( LENGTH_UNIT ( ) NAMED_UNIT ( * ) SI_UNIT ( $, .METRE. ) );
#130 = DIRECTION ( 'NONE',  ( -1.224646799147353454E-16, -0.0000000000000000000, -1.000000000000000000 ) ) ;
#131 = AXIS2_PLACEMENT_3D ( 'NONE', #66, #36, #265 ) ;
#132 = CARTESIAN_POINT ( 'NONE',  ( 4.163799117101002470E-18, 0.0000000000000000000, 0.03400000000000000244 ) ) ;
#133 = ORIENTED_EDGE ( 'NONE', *, *, #284, .F. ) ;
#134 = CARTESIAN_POINT ( 'NONE',  ( 0.01148850000000000392, 1.406935475200437016E-18, -1.406935475200437593E-18 ) ) ;
#135 = FILL_AREA_STYLE ('',( #103 ) ) ;
#136 = STYLED_ITEM ( 'NONE', ( #2 ), #196 ) ;
#137 = ORIENTED_EDGE ( 'NONE', *, *, #60, .F. ) ;
#138 = AXIS2_PLACEMENT_3D ( 'NONE', #264, #8, #306 ) ;
#139 = ORIENTED_EDGE ( 'NONE', *, *, #15, .T. ) ;
#140 = DIRECTION ( 'NONE',  ( -1.224646799147353454E-16, -0.0000000000000000000, -1.000000000000000000 ) ) ;
#141 = ADVANCED_FACE ( 'NONE', ( #170 ), #63, .T. ) ;
#142 = CARTESIAN_POINT ( 'NONE',  ( -0.01148850000000000218, 0.0000000000000000000, 0.01148850000000000392 ) ) ;
#143 = AXIS2_PLACEMENT_3D ( 'NONE', #47, #297, #161 ) ;
#144 = CIRCLE ( 'NONE', #110, 0.01148850000000000218 ) ;
#145 = ADVANCED_FACE ( 'NONE', ( #88 ), #289, .T. ) ;
#146 = CARTESIAN_POINT ( 'NONE',  ( 0.01148850000000000565, 0.0000000000000000000, 0.03400000000000000244 ) ) ;
#147 = UNCERTAINTY_MEASURE_WITH_UNIT (LENGTH_MEASURE( 1.000000000000000082E-05 ), #100, 'distance_accuracy_value', 'NONE');
#148 = CARTESIAN_POINT ( 'NONE',  ( 0.0000000000000000000, 0.0000000000000000000, 1.500000000000000222 ) ) ;
#149 = ORIENTED_EDGE ( 'NONE', *, *, #15, .F. ) ;
#150 = DIRECTION ( 'NONE',  ( 1.000000000000000000, 0.0000000000000000000, 0.0000000000000000000 ) ) ;
#151 = DIRECTION ( 'NONE',  ( -1.000000000000000000, 0.0000000000000000000, 0.0000000000000000000 ) ) ;
#152 = EDGE_CURVE ( 'NONE', #231, #85, #313, .T. ) ;
#153 = SURFACE_STYLE_USAGE ( .BOTH. , #43 ) ;
#154 = DIRECTION ( 'NONE',  ( 0.0000000000000000000, 0.0000000000000000000, -1.000000000000000000 ) ) ;
#155 = DIRECTION ( 'NONE',  ( 0.0000000000000000000, 0.0000000000000000000, -1.000000000000000000 ) ) ;
#156 =( NAMED_UNIT ( * ) PLANE_ANGLE_UNIT ( ) SI_UNIT ( $, .RADIAN. ) );
#157 = VERTEX_POINT ( 'NONE', #128 ) ;
#158 = DIRECTION ( 'NONE',  ( -0.7071067811865456854, 0.0000000000000000000, -0.7071067811865493491 ) ) ;
#159 = CIRCLE ( 'NONE', #200, 0.04750000000000064587 ) ;
#160 = CIRCLE ( 'NONE', #224, 0.06250000000000000000 ) ;
#161 = DIRECTION ( 'NONE',  ( -1.000000000000000000, 0.0000000000000000000, 0.0000000000000000000 ) ) ;
#162 = SURFACE_STYLE_FILL_AREA ( #135 ) ;
#163 = ORIENTED_EDGE ( 'NONE', *, *, #91, .T. ) ;
#164 = DIRECTION ( 'NONE',  ( 0.0000000000000000000, 0.0000000000000000000, 1.000000000000000000 ) ) ;
#165 = COLOUR_RGB ( '',0.7921568627450980005, 0.8196078431372548767, 0.9333333333333333481 ) ;
#166 = DIRECTION ( 'NONE',  ( 0.0000000000000000000, 0.0000000000000000000, 1.000000000000000000 ) ) ;
#167 = DIRECTION ( 'NONE',  ( 1.000000000000000000, 0.0000000000000000000, 0.0000000000000000000 ) ) ;
#168 = ADVANCED_FACE ( 'NONE', ( #172 ), #175, .T. ) ;
#169 = DIRECTION ( 'NONE',  ( 0.0000000000000000000, 0.0000000000000000000, 1.000000000000000000 ) ) ;
#170 = FACE_OUTER_BOUND ( 'NONE', #76, .T. ) ;
#171 = CARTESIAN_POINT ( 'NONE',  ( 4.163799117101002470E-18, 0.0000000000000000000, 0.03400000000000000244 ) ) ;
#172 = FACE_OUTER_BOUND ( 'NONE', #299, .T. ) ;
#173 = STYLED_ITEM ( 'NONE', ( #221 ), #198 ) ;
#174 = AXIS2_PLACEMENT_3D ( 'NONE', #239, #166, #167 ) ;
#175 = SPHERICAL_SURFACE ( 'NONE', #179, 0.01148850000000000218 ) ;
#176 = DIRECTION ( 'NONE',  ( 1.224646799147353454E-16, 0.0000000000000000000, 1.000000000000000000 ) ) ;
#177 = CARTESIAN_POINT ( 'NONE',  ( 0.0000000000000000000, 0.0000000000000000000, 1.485000000000000764 ) ) ;
#178 =( GEOMETRIC_REPRESENTATION_CONTEXT ( 3 ) GLOBAL_UNCERTAINTY_ASSIGNED_CONTEXT ( ( #147 ) ) GLOBAL_UNIT_ASSIGNED_CONTEXT ( ( #100, #98, #318 ) ) REPRESENTATION_CONTEXT ( 'NONE', 'WORKASPACE' ) );
#179 = AXIS2_PLACEMENT_3D ( 'NONE', #99, #267, #150 ) ;
#180 = DIRECTION ( 'NONE',  ( -1.224646799147353454E-16, -0.0000000000000000000, -1.000000000000000000 ) ) ;
#181 = DIMENSIONAL_EXPONENTS ( 1.000000000000000000, 0.0000000000000000000, 0.0000000000000000000, 0.0000000000000000000, 0.0000000000000000000, 0.0000000000000000000, 0.0000000000000000000 ) ;
#182 = ORIENTED_EDGE ( 'NONE', *, *, #77, .T. ) ;
#183 =( CONVERSION_BASED_UNIT ( 'INCH', #1 ) LENGTH_UNIT ( ) NAMED_UNIT ( #272 ) );
#184 = ORIENTED_EDGE ( 'NONE', *, *, #60, .T. ) ;
#185 = CIRCLE ( 'NONE', #223, 0.01148850000000000218 ) ;
#186 = ORIENTED_EDGE ( 'NONE', *, *, #293, .T. ) ;
#187 = EDGE_CURVE ( 'NONE', #189, #83, #291, .T. ) ;
#188 = CYLINDRICAL_SURFACE ( 'NONE', #89, 0.01148850000000000392 ) ;
#189 = VERTEX_POINT ( 'NONE', #315 ) ;
#190 = EDGE_CURVE ( 'NONE', #189, #31, #123, .T. ) ;
#191 = DIRECTION ( 'NONE',  ( 0.0000000000000000000, 0.0000000000000000000, 1.000000000000000000 ) ) ;
#192 = ORIENTED_EDGE ( 'NONE', *, *, #293, .F. ) ;
#193 = CARTESIAN_POINT ( 'NONE',  ( 0.0000000000000000000, 0.0000000000000000000, 0.0000000000000000000 ) ) ;
#194 = ORIENTED_EDGE ( 'NONE', *, *, #24, .T. ) ;
#195 = CARTESIAN_POINT ( 'NONE',  ( 4.163799117101002470E-18, 0.0000000000000000000, 0.03400000000000000244 ) ) ;
#196 = ADVANCED_BREP_SHAPE_REPRESENTATION ( 'Micro_BMS-023-2', ( #198, #29 ), #204 ) ;
#197 = DIRECTION ( 'NONE',  ( -1.000000000000000000, 0.0000000000000000000, 1.224646799147353454E-16 ) ) ;
#198 = MANIFOLD_SOLID_BREP ( 'Fillet1', #215 ) ;
#199 = DIRECTION ( 'NONE',  ( 1.000000000000000000, 0.0000000000000000000, 0.0000000000000000000 ) ) ;
#200 = AXIS2_PLACEMENT_3D ( 'NONE', #78, #164, #25 ) ;
#201 =( LENGTH_UNIT ( ) NAMED_UNIT ( * ) SI_UNIT ( $, .METRE. ) );
#202 = FACE_OUTER_BOUND ( 'NONE', #4, .T. ) ;
#203 = CIRCLE ( 'NONE', #174, 0.04750000000000064587 ) ;
#204 =( GEOMETRIC_REPRESENTATION_CONTEXT ( 3 ) GLOBAL_UNCERTAINTY_ASSIGNED_CONTEXT ( ( #86 ) ) GLOBAL_UNIT_ASSIGNED_CONTEXT ( ( #183, #156, #22 ) ) REPRESENTATION_CONTEXT ( 'NONE', 'WORKASPACE' ) );
#205 = DIRECTION ( 'NONE',  ( 0.0000000000000000000, 0.0000000000000000000, -1.000000000000000000 ) ) ;
#206 = EDGE_CURVE ( 'NONE', #31, #3, #246, .T. ) ;
#207 =( LENGTH_UNIT ( ) NAMED_UNIT ( * ) SI_UNIT ( $, .METRE. ) );
#208 = ORIENTED_EDGE ( 'NONE', *, *, #206, .T. ) ;
#209 = ADVANCED_FACE ( 'NONE', ( #44 ), #253, .T. ) ;
#210 = VERTEX_POINT ( 'NONE', #241 ) ;
#211 = PRESENTATION_LAYER_ASSIGNMENT (  '', '', ( #136 ) ) ;
#212 = ORIENTED_EDGE ( 'NONE', *, *, #97, .F. ) ;
#213 = CARTESIAN_POINT ( 'NONE',  ( 0.0000000000000000000, 0.0000000000000000000, 0.0000000000000000000 ) ) ;
#214 = EDGE_LOOP ( 'NONE', ( #133, #54, #113, #321 ) ) ;
#215 = CLOSED_SHELL ( 'NONE', ( #168, #37, #141, #209, #249, #263, #65, #145, #34, #259, #235 ) ) ;
#216 = SHAPE_DEFINITION_REPRESENTATION ( #248, #196 ) ;
#217 = ORIENTED_EDGE ( 'NONE', *, *, #51, .F. ) ;
#218 = CARTESIAN_POINT ( 'NONE',  ( -0.06249999999999995837, 0.0000000000000000000, 0.3233005925414271786 ) ) ;
#219 = EDGE_LOOP ( 'NONE', ( #119, #252, #184, #26 ) ) ;
#220 = DIRECTION ( 'NONE',  ( -1.224646799147353454E-16, -0.0000000000000000000, -1.000000000000000000 ) ) ;
#221 = PRESENTATION_STYLE_ASSIGNMENT (( #153 ) ) ;
#222 = FILL_AREA_STYLE ('',( #270 ) ) ;
#223 = AXIS2_PLACEMENT_3D ( 'NONE', #132, #247, #75 ) ;
#224 = AXIS2_PLACEMENT_3D ( 'NONE', #286, #58, #283 ) ;
#225 = EDGE_CURVE ( 'NONE', #83, #157, #18, .T. ) ;
#226 = CARTESIAN_POINT ( 'NONE',  ( -0.01148849999999999698, 1.406935475200436823E-18, 0.03400000000000000244 ) ) ;
#227 = DIRECTION ( 'NONE',  ( -1.224646799147353454E-16, -0.0000000000000000000, -1.000000000000000000 ) ) ;
#228 = DIRECTION ( 'NONE',  ( 1.224646799147353207E-16, 1.000000000000000000, -0.0000000000000000000 ) ) ;
#229 = ORIENTED_EDGE ( 'NONE', *, *, #24, .F. ) ;
#230 = CARTESIAN_POINT ( 'NONE',  ( 0.0000000000000000000, 0.0000000000000000000, 1.485000000000000764 ) ) ;
#231 = VERTEX_POINT ( 'NONE', #124 ) ;
#232 = VERTEX_POINT ( 'NONE', #17 ) ;
#233 = ORIENTED_EDGE ( 'NONE', *, *, #190, .F. ) ;
#234 = ORIENTED_EDGE ( 'NONE', *, *, #237, .F. ) ;
#235 = ADVANCED_FACE ( 'NONE', ( #19 ), #317, .T. ) ;
#236 = DIRECTION ( 'NONE',  ( -1.000000000000000000, 0.0000000000000000000, 0.0000000000000000000 ) ) ;
#237 = EDGE_CURVE ( 'NONE', #85, #3, #126, .T. ) ;
#238 = PLANE ( 'NONE',  #269 ) ;
#239 = CARTESIAN_POINT ( 'NONE',  ( 0.0000000000000000000, 0.0000000000000000000, 1.500000000000000222 ) ) ;
#240 = DIRECTION ( 'NONE',  ( -1.000000000000000000, 0.0000000000000000000, 1.857732728424254500E-16 ) ) ;
#241 = CARTESIAN_POINT ( 'NONE',  ( 0.04750000000000064587, 6.735557395310482421E-18, 1.500000000000000222 ) ) ;
#242 = CARTESIAN_POINT ( 'NONE',  ( 1.406935475200437208E-18, 0.0000000000000000000, 0.01148850000000000218 ) ) ;
#243 = VECTOR ( 'NONE', #130, 39.37007874015748143 ) ;
#244 = AXIS2_PLACEMENT_3D ( 'NONE', #177, #154, #67 ) ;
#245 = LENGTH_MEASURE_WITH_UNIT ( LENGTH_MEASURE( 0.02539999999999999897 ), #201 );
#246 = CIRCLE ( 'NONE', #311, 0.06250000000000000000 ) ;
#247 = DIRECTION ( 'NONE',  ( -1.224646799147353454E-16, -0.0000000000000000000, -1.000000000000000000 ) ) ;
#248 = PRODUCT_DEFINITION_SHAPE ( 'NONE', 'NONE',  #325 ) ;
#249 = ADVANCED_FACE ( 'NONE', ( #202 ), #251, .T. ) ;
#250 = DIRECTION ( 'NONE',  ( -1.000000000000000000, 0.0000000000000000000, 1.224646799147353454E-16 ) ) ;
#251 = CYLINDRICAL_SURFACE ( 'NONE', #143, 0.06250000000000000000 ) ;
#252 = ORIENTED_EDGE ( 'NONE', *, *, #284, .T. ) ;
#253 = CONICAL_SURFACE ( 'NONE', #68, 0.04750000000000064587, 0.7853981633974457255 ) ;
#254 = DIRECTION ( 'NONE',  ( 1.000000000000000000, 0.0000000000000000000, 0.0000000000000000000 ) ) ;
#255 = VECTOR ( 'NONE', #294, 39.37007874015747433 ) ;
#256 = ORIENTED_EDGE ( 'NONE', *, *, #45, .T. ) ;
#257 = DIRECTION ( 'NONE',  ( 1.000000000000000000, 0.0000000000000000000, 0.0000000000000000000 ) ) ;
#258 = LINE ( 'NONE', #312, #52 ) ;
#259 = ADVANCED_FACE ( 'NONE', ( #303 ), #188, .T. ) ;
#260 = MECHANICAL_DESIGN_GEOMETRIC_PRESENTATION_REPRESENTATION (  '', ( #173 ), #178 ) ;
#261 = DIRECTION ( 'NONE',  ( 1.000000000000000000, 0.0000000000000000000, -0.0000000000000000000 ) ) ;
#262 = CIRCLE ( 'NONE', #131, 0.01148850000000000218 ) ;
#263 = ADVANCED_FACE ( 'NONE', ( #55 ), #280, .T. ) ;
#264 = CARTESIAN_POINT ( 'NONE',  ( 4.163799117101002470E-18, 0.0000000000000000000, 0.03400000000000000244 ) ) ;
#265 = DIRECTION ( 'NONE',  ( 0.0000000000000000000, 0.0000000000000000000, -1.000000000000000000 ) ) ;
#266 = AXIS2_PLACEMENT_3D ( 'NONE', #242, #176, #16 ) ;
#267 = DIRECTION ( 'NONE',  ( 0.0000000000000000000, 1.000000000000000000, 0.0000000000000000000 ) ) ;
#268 = DIRECTION ( 'NONE',  ( -0.0000000000000000000, -0.0000000000000000000, -1.000000000000000000 ) ) ;
#269 = AXIS2_PLACEMENT_3D ( 'NONE', #95, #169, #261 ) ;
#270 = FILL_AREA_STYLE_COLOUR ( '', #165 ) ;
#271 = ORIENTED_EDGE ( 'NONE', *, *, #152, .T. ) ;
#272 = DIMENSIONAL_EXPONENTS ( 1.000000000000000000, 0.0000000000000000000, 0.0000000000000000000, 0.0000000000000000000, 0.0000000000000000000, 0.0000000000000000000, 0.0000000000000000000 ) ;
#273 = DIRECTION ( 'NONE',  ( -1.000000000000000000, 1.224646799147352961E-16, 0.0000000000000000000 ) ) ;
#274 = APPLICATION_CONTEXT ( 'automotive_design' ) ;
#275 = ORIENTED_EDGE ( 'NONE', *, *, #45, .F. ) ;
#276 = EDGE_CURVE ( 'NONE', #210, #20, #159, .T. ) ;
#277 = VECTOR ( 'NONE', #11, 39.37007874015748143 ) ;
#278 = CARTESIAN_POINT ( 'NONE',  ( 0.0000000000000000000, 0.0000000000000000000, 1.500000000000000222 ) ) ;
#279 = ORIENTED_EDGE ( 'NONE', *, *, #305, .T. ) ;
#280 = CYLINDRICAL_SURFACE ( 'NONE', #42, 0.06250000000000000000 ) ;
#281 = EDGE_LOOP ( 'NONE', ( #234, #279, #163, #217 ) ) ;
#282 = AXIS2_PLACEMENT_3D ( 'NONE', #171, #39, #257 ) ;
#283 = DIRECTION ( 'NONE',  ( 1.000000000000000000, 0.0000000000000000000, 0.0000000000000000000 ) ) ;
#284 = EDGE_CURVE ( 'NONE', #232, #157, #323, .T. ) ;
#285 = LINE ( 'NONE', #146, #14 ) ;
#286 = CARTESIAN_POINT ( 'NONE',  ( 3.959290358183015222E-17, 0.0000000000000000000, 0.3233005925414271786 ) ) ;
#287 =( NAMED_UNIT ( * ) PLANE_ANGLE_UNIT ( ) SI_UNIT ( $, .RADIAN. ) );
#288 = ORIENTED_EDGE ( 'NONE', *, *, #237, .T. ) ;
#289 = CONICAL_SURFACE ( 'NONE', #30, 0.04750000000000064587, 0.7853981633974457255 ) ;
#290 = EDGE_LOOP ( 'NONE', ( #5, #149, #106, #79 ) ) ;
#291 = LINE ( 'NONE', #46, #74 ) ;
#292 = CARTESIAN_POINT ( 'NONE',  ( 3.959290358183015222E-17, 0.0000000000000000000, 0.3233005925414271786 ) ) ;
#293 = EDGE_CURVE ( 'NONE', #48, #83, #73, .T. ) ;
#294 = DIRECTION ( 'NONE',  ( -0.1736481776669311916, 2.126576849575783316E-17, 0.9848077530122080203 ) ) ;
#295 = DIRECTION ( 'NONE',  ( 0.0000000000000000000, 1.000000000000000000, 0.0000000000000000000 ) ) ;
#296 = CIRCLE ( 'NONE', #108, 0.06250000000000000000 ) ;
#297 = DIRECTION ( 'NONE',  ( -0.0000000000000000000, -0.0000000000000000000, -1.000000000000000000 ) ) ;
#298 = DIRECTION ( 'NONE',  ( -0.0000000000000000000, -0.0000000000000000000, -1.000000000000000000 ) ) ;
#299 = EDGE_LOOP ( 'NONE', ( #229, #186, #137 ) ) ;
#300 = PRODUCT ( 'Micro_BMS-023-2', 'Micro_BMS-023-2', '', ( #35 ) ) ;
#301 = SURFACE_STYLE_USAGE ( .BOTH. , #80 ) ;
#302 = ORIENTED_EDGE ( 'NONE', *, *, #322, .F. ) ;
#303 = FACE_OUTER_BOUND ( 'NONE', #214, .T. ) ;
#304 = ORIENTED_EDGE ( 'NONE', *, *, #316, .F. ) ;
#305 = EDGE_CURVE ( 'NONE', #85, #231, #296, .T. ) ;
#306 = DIRECTION ( 'NONE',  ( 1.000000000000000000, 0.0000000000000000000, 0.0000000000000000000 ) ) ;
#307 = ORIENTED_EDGE ( 'NONE', *, *, #91, .F. ) ;
#308 = EDGE_LOOP ( 'NONE', ( #233, #212, #256, #117 ) ) ;
#309 = CARTESIAN_POINT ( 'NONE',  ( 0.06250000000000000000, 7.654042494670956004E-18, 1.485000000000000764 ) ) ;
#310 = LENGTH_MEASURE_WITH_UNIT ( LENGTH_MEASURE( 0.02539999999999999897 ), #207 );
#311 = AXIS2_PLACEMENT_3D ( 'NONE', #292, #227, #101 ) ;
#312 = CARTESIAN_POINT ( 'NONE',  ( 0.04750000000000064587, 5.817072295950006528E-18, 1.500000000000000222 ) ) ;
#313 = CIRCLE ( 'NONE', #244, 0.06250000000000000000 ) ;
#314 = SURFACE_STYLE_FILL_AREA ( #222 ) ;
#315 = CARTESIAN_POINT ( 'NONE',  ( -0.01148849999999999698, 4.530488984935697088E-18, 0.03400000000000000244 ) ) ;
#316 = EDGE_CURVE ( 'NONE', #189, #232, #185, .T. ) ;
#317 = SPHERICAL_SURFACE ( 'NONE', #49, 0.01148850000000000218 ) ;
#318 =( NAMED_UNIT ( * ) SI_UNIT ( $, .STERADIAN. ) SOLID_ANGLE_UNIT ( ) );
#319 = DIMENSIONAL_EXPONENTS ( 1.000000000000000000, 0.0000000000000000000, 0.0000000000000000000, 0.0000000000000000000, 0.0000000000000000000, 0.0000000000000000000, 0.0000000000000000000 ) ;
#320 = LINE ( 'NONE', #53, #125 ) ;
#321 = ORIENTED_EDGE ( 'NONE', *, *, #225, .T. ) ;
#322 = EDGE_CURVE ( 'NONE', #20, #231, #320, .T. ) ;
#323 = LINE ( 'NONE', #134, #243 ) ;
#324 = EDGE_LOOP ( 'NONE', ( #139, #114 ) ) ;
#325 = PRODUCT_DEFINITION ( 'UNKNOWN', '', #21, #10 ) ;
ENDSEC;
END-ISO-10303-21;
