ISO-10303-21;
HEADER;
FILE_DESCRIPTION (( 'STEP AP214' ),
    '1' );
FILE_NAME ('Micro_SBMM-030-215.STEP',
    '2021-09-02T17:06:23',
    ( '' ),
    ( '' ),
    'SwSTEP 2.0',
    'SolidWorks 2020',
    '' );
FILE_SCHEMA (( 'AUTOMOTIVE_DESIGN' ));
ENDSEC;

DATA;
#1 = CARTESIAN_POINT ( 'NONE',  ( -0.1181100000000000344, 0.0000000000000000000, 2.952755999999999936 ) ) ;
#2 = ADVANCED_FACE ( 'NONE', ( #332 ), #281, .T. ) ;
#3 = CIRCLE ( 'NONE', #241, 0.03936999999999992589 ) ;
#4 = STYLED_ITEM ( 'NONE', ( #77 ), #61 ) ;
#5 = ADVANCED_FACE ( 'NONE', ( #303 ), #337, .T. ) ;
#6 = AXIS2_PLACEMENT_3D ( 'NONE', #109, #220, #195 ) ;
#7 = AXIS2_PLACEMENT_3D ( 'NONE', #236, #48, #22 ) ;
#8 = ORIENTED_EDGE ( 'NONE', *, *, #51, .T. ) ;
#9 = AXIS2_PLACEMENT_3D ( 'NONE', #139, #55, #197 ) ;
#10 = CARTESIAN_POINT ( 'NONE',  ( 0.0000000000000000000, 0.0000000000000000000, 1.456693000000000016 ) ) ;
#11 = CARTESIAN_POINT ( 'NONE',  ( 0.1031099999999991745, 1.354581824536882559E-17, 2.952755999999999936 ) ) ;
#12 = ORIENTED_EDGE ( 'NONE', *, *, #64, .F. ) ;
#13 = EDGE_CURVE ( 'NONE', #334, #46, #38, .T. ) ;
#14 = ORIENTED_EDGE ( 'NONE', *, *, #107, .T. ) ;
#15 =( LENGTH_UNIT ( ) NAMED_UNIT ( * ) SI_UNIT ( $, .METRE. ) );
#16 = FACE_OUTER_BOUND ( 'NONE', #123, .T. ) ;
#17 = LINE ( 'NONE', #267, #86 ) ;
#18 = VERTEX_POINT ( 'NONE', #11 ) ;
#19 = DIRECTION ( 'NONE',  ( -1.000000000000000000, 0.0000000000000000000, 0.0000000000000000000 ) ) ;
#20 = CARTESIAN_POINT ( 'NONE',  ( 0.0000000000000000000, 0.0000000000000000000, 2.937755999999999368 ) ) ;
#21 = VECTOR ( 'NONE', #199, 39.37007874015748143 ) ;
#22 = DIRECTION ( 'NONE',  ( 1.000000000000000000, 0.0000000000000000000, 0.0000000000000000000 ) ) ;
#23 = AXIS2_PLACEMENT_3D ( 'NONE', #20, #127, #240 ) ;
#24 = EDGE_CURVE ( 'NONE', #204, #308, #150, .T. ) ;
#25 = SURFACE_STYLE_USAGE ( .BOTH. , #272 ) ;
#26 = LENGTH_MEASURE_WITH_UNIT ( LENGTH_MEASURE( 0.02539999999999999897 ), #52 );
#27 = DIRECTION ( 'NONE',  ( -1.000000000000000000, 0.0000000000000000000, 0.0000000000000000000 ) ) ;
#28 = FILL_AREA_STYLE_COLOUR ( '', #219 ) ;
#29 = CARTESIAN_POINT ( 'NONE',  ( 0.0000000000000000000, 0.0000000000000000000, 0.1030719981370833843 ) ) ;
#30 = UNCERTAINTY_MEASURE_WITH_UNIT (LENGTH_MEASURE( 1.000000000000000082E-05 ), #270, 'distance_accuracy_value', 'NONE');
#31 = DIRECTION ( 'NONE',  ( -0.0000000000000000000, -0.0000000000000000000, -1.000000000000000000 ) ) ;
#32 = CIRCLE ( 'NONE', #23, 0.1181100000000000344 ) ;
#33 = CIRCLE ( 'NONE', #122, 0.03936999999999998140 ) ;
#34 = EDGE_LOOP ( 'NONE', ( #333, #264, #129, #229 ) ) ;
#35 = ORIENTED_EDGE ( 'NONE', *, *, #275, .F. ) ;
#36 = ORIENTED_EDGE ( 'NONE', *, *, #114, .T. ) ;
#37 = DIRECTION ( 'NONE',  ( 0.0000000000000000000, 0.0000000000000000000, 1.000000000000000000 ) ) ;
#38 = LINE ( 'NONE', #89, #138 ) ;
#39 = EDGE_CURVE ( 'NONE', #153, #255, #276, .T. ) ;
#40 = VERTEX_POINT ( 'NONE', #285 ) ;
#41 = CONICAL_SURFACE ( 'NONE', #57, 0.1299209999999997589, 0.09065967900408432312 ) ;
#42 = EDGE_LOOP ( 'NONE', ( #210, #305, #119, #182 ) ) ;
#43 =( NAMED_UNIT ( * ) SI_UNIT ( $, .STERADIAN. ) SOLID_ANGLE_UNIT ( ) );
#44 = DIRECTION ( 'NONE',  ( -1.224646799147353207E-16, 1.000000000000000000, 0.0000000000000000000 ) ) ;
#45 = CARTESIAN_POINT ( 'NONE',  ( 0.03936999999999998140, 4.821434448243127714E-18, 0.1030719981370833843 ) ) ;
#46 = VERTEX_POINT ( 'NONE', #45 ) ;
#47 = PRODUCT ( 'Micro_SBMM-030-215', 'Micro_SBMM-030-215', '', ( #101 ) ) ;
#48 = DIRECTION ( 'NONE',  ( 0.0000000000000000000, 0.0000000000000000000, 1.000000000000000000 ) ) ;
#49 = CARTESIAN_POINT ( 'NONE',  ( 0.0000000000000000000, 0.0000000000000000000, 1.586614299999997035 ) ) ;
#50 =( CONVERSION_BASED_UNIT ( 'INCH', #97 ) LENGTH_UNIT ( ) NAMED_UNIT ( #177 ) );
#51 = EDGE_CURVE ( 'NONE', #18, #67, #17, .T. ) ;
#52 =( LENGTH_UNIT ( ) NAMED_UNIT ( * ) SI_UNIT ( $, .METRE. ) );
#53 = CIRCLE ( 'NONE', #311, 0.1181100000000000344 ) ;
#54 = DIRECTION ( 'NONE',  ( -0.0000000000000000000, -0.0000000000000000000, -1.000000000000000000 ) ) ;
#55 = DIRECTION ( 'NONE',  ( 0.0000000000000000000, 0.0000000000000000000, 1.000000000000000000 ) ) ;
#56 = FACE_OUTER_BOUND ( 'NONE', #304, .T. ) ;
#57 = AXIS2_PLACEMENT_3D ( 'NONE', #49, #315, #132 ) ;
#58 = CARTESIAN_POINT ( 'NONE',  ( 0.0000000000000000000, 0.0000000000000000000, 0.0000000000000000000 ) ) ;
#59 = EDGE_CURVE ( 'NONE', #40, #213, #253, .T. ) ;
#60 = EDGE_CURVE ( 'NONE', #116, #255, #160, .T. ) ;
#61 = ADVANCED_BREP_SHAPE_REPRESENTATION ( 'Micro_SBMM-030-215', ( #118, #203 ), #84 ) ;
#62 = ORIENTED_EDGE ( 'NONE', *, *, #64, .T. ) ;
#63 = EDGE_LOOP ( 'NONE', ( #302, #234, #254, #201 ) ) ;
#64 = EDGE_CURVE ( 'NONE', #308, #67, #32, .T. ) ;
#65 = CARTESIAN_POINT ( 'NONE',  ( 0.0000000000000000000, 0.0000000000000000000, 0.5905510000000000481 ) ) ;
#66 = DIRECTION ( 'NONE',  ( 0.0000000000000000000, 1.000000000000000000, 0.0000000000000000000 ) ) ;
#67 = VERTEX_POINT ( 'NONE', #340 ) ;
#68 = ORIENTED_EDGE ( 'NONE', *, *, #200, .T. ) ;
#69 = DIRECTION ( 'NONE',  ( -1.000000000000000000, 0.0000000000000000000, 0.0000000000000000000 ) ) ;
#70 = DIRECTION ( 'NONE',  ( -1.000000000000000000, 0.0000000000000000000, 0.0000000000000000000 ) ) ;
#71 = ORIENTED_EDGE ( 'NONE', *, *, #277, .T. ) ;
#72 = FILL_AREA_STYLE ('',( #262 ) ) ;
#73 = CARTESIAN_POINT ( 'NONE',  ( 0.0000000000000000000, 0.0000000000000000000, 0.05905500000000000332 ) ) ;
#74 =( NAMED_UNIT ( * ) SI_UNIT ( $, .STERADIAN. ) SOLID_ANGLE_UNIT ( ) );
#75 = DIRECTION ( 'NONE',  ( 1.000000000000000000, 0.0000000000000000000, 0.0000000000000000000 ) ) ;
#76 = LINE ( 'NONE', #289, #323 ) ;
#77 = PRESENTATION_STYLE_ASSIGNMENT (( #25 ) ) ;
#78 = AXIS2_PLACEMENT_3D ( 'NONE', #329, #259, #66 ) ;
#79 = CARTESIAN_POINT ( 'NONE',  ( 0.0000000000000000000, 0.0000000000000000000, 2.952755999999999936 ) ) ;
#80 = VECTOR ( 'NONE', #112, 39.37007874015748143 ) ;
#81 = CARTESIAN_POINT ( 'NONE',  ( -0.1181100000000000344, 0.0000000000000000000, 2.937755999999999368 ) ) ;
#82 = EDGE_CURVE ( 'NONE', #334, #116, #3, .T. ) ;
#83 = CYLINDRICAL_SURFACE ( 'NONE', #318, 0.03936999999999996058 ) ;
#84 =( GEOMETRIC_REPRESENTATION_CONTEXT ( 3 ) GLOBAL_UNCERTAINTY_ASSIGNED_CONTEXT ( ( #30 ) ) GLOBAL_UNIT_ASSIGNED_CONTEXT ( ( #270, #216, #74 ) ) REPRESENTATION_CONTEXT ( 'NONE', 'WORKASPACE' ) );
#85 = CARTESIAN_POINT ( 'NONE',  ( 0.1181100000000000344, 1.446430334472939084E-17, 2.952755999999999936 ) ) ;
#86 = VECTOR ( 'NONE', #336, 39.37007874015748854 ) ;
#87 = ORIENTED_EDGE ( 'NONE', *, *, #295, .F. ) ;
#88 = CIRCLE ( 'NONE', #151, 0.03936999999999992589 ) ;
#89 = CARTESIAN_POINT ( 'NONE',  ( 0.03936999999999996058, 4.821434448243124632E-18, 0.0000000000000000000 ) ) ;
#90 = ORIENTED_EDGE ( 'NONE', *, *, #13, .T. ) ;
#91 = DIRECTION ( 'NONE',  ( 1.000000000000000000, 0.0000000000000000000, -0.0000000000000000000 ) ) ;
#92 = CARTESIAN_POINT ( 'NONE',  ( 0.0000000000000000000, 0.0000000000000000000, 0.1030719981370833843 ) ) ;
#93 = EDGE_LOOP ( 'NONE', ( #147, #298, #185, #325 ) ) ;
#94 = ORIENTED_EDGE ( 'NONE', *, *, #243, .F. ) ;
#95 = DIRECTION ( 'NONE',  ( -1.000000000000000000, 0.0000000000000000000, 0.0000000000000000000 ) ) ;
#96 = CARTESIAN_POINT ( 'NONE',  ( 0.0000000000000000000, 0.0000000000000000000, 0.05905500000000000332 ) ) ;
#97 = LENGTH_MEASURE_WITH_UNIT ( LENGTH_MEASURE( 0.02539999999999999897 ), #245 );
#98 = CIRCLE ( 'NONE', #6, 0.1031099999999991745 ) ;
#99 = DIRECTION ( 'NONE',  ( -0.0000000000000000000, -0.0000000000000000000, -1.000000000000000000 ) ) ;
#100 = DIRECTION ( 'NONE',  ( -0.0000000000000000000, -0.0000000000000000000, -1.000000000000000000 ) ) ;
#101 = PRODUCT_CONTEXT ( 'NONE', #111, 'mechanical' ) ;
#102 = EDGE_CURVE ( 'NONE', #153, #213, #324, .T. ) ;
#103 = CARTESIAN_POINT ( 'NONE',  ( 0.1181100000000000344, 1.446430334472939084E-17, 1.456693000000000016 ) ) ;
#104 = PRODUCT_DEFINITION ( 'UNKNOWN', '', #120, #250 ) ;
#105 = CARTESIAN_POINT ( 'NONE',  ( 0.03936999999999992589, 0.0000000000000000000, 0.5905510000000000481 ) ) ;
#106 = CLOSED_SHELL ( 'NONE', ( #223, #5, #198, #297, #117, #256, #131, #141, #115, #299, #2 ) ) ;
#107 = EDGE_CURVE ( 'NONE', #67, #308, #279, .T. ) ;
#108 = CONICAL_SURFACE ( 'NONE', #301, 0.1031099999999991745, 0.7853981633974500554 ) ;
#109 = CARTESIAN_POINT ( 'NONE',  ( 0.0000000000000000000, 0.0000000000000000000, 2.952755999999999936 ) ) ;
#110 =( NAMED_UNIT ( * ) PLANE_ANGLE_UNIT ( ) SI_UNIT ( $, .RADIAN. ) );
#111 = APPLICATION_CONTEXT ( 'automotive_design' ) ;
#112 = DIRECTION ( 'NONE',  ( -0.09053553870087648059, 1.108740576791096967E-17, 0.9958932253169222593 ) ) ;
#113 = DIRECTION ( 'NONE',  ( -0.0000000000000000000, -0.0000000000000000000, -1.000000000000000000 ) ) ;
#114 = EDGE_CURVE ( 'NONE', #334, #148, #76, .T. ) ;
#115 = ADVANCED_FACE ( 'NONE', ( #16 ), #326, .T. ) ;
#116 = VERTEX_POINT ( 'NONE', #335 ) ;
#117 = ADVANCED_FACE ( 'NONE', ( #163 ), #310, .T. ) ;
#118 = MANIFOLD_SOLID_BREP ( 'Cut-Revolve3', #106 ) ;
#119 = ORIENTED_EDGE ( 'NONE', *, *, #200, .F. ) ;
#120 = PRODUCT_DEFINITION_FORMATION_WITH_SPECIFIED_SOURCE ( 'ANY', '', #47, .NOT_KNOWN. ) ;
#121 = AXIS2_PLACEMENT_3D ( 'NONE', #96, #133, #215 ) ;
#122 = AXIS2_PLACEMENT_3D ( 'NONE', #29, #54, #244 ) ;
#123 = EDGE_LOOP ( 'NONE', ( #309, #265, #36, #208 ) ) ;
#124 = DIRECTION ( 'NONE',  ( -0.7071067811865486830, 0.0000000000000000000, -0.7071067811865462405 ) ) ;
#125 = EDGE_LOOP ( 'NONE', ( #152, #90, #157, #94, #130 ) ) ;
#126 = ORIENTED_EDGE ( 'NONE', *, *, #228, .F. ) ;
#127 = DIRECTION ( 'NONE',  ( 0.0000000000000000000, 0.0000000000000000000, -1.000000000000000000 ) ) ;
#128 = DIRECTION ( 'NONE',  ( 1.000000000000000000, 0.0000000000000000000, 0.0000000000000000000 ) ) ;
#129 = ORIENTED_EDGE ( 'NONE', *, *, #24, .T. ) ;
#130 = ORIENTED_EDGE ( 'NONE', *, *, #60, .F. ) ;
#131 = ADVANCED_FACE ( 'NONE', ( #154 ), #232, .T. ) ;
#132 = DIRECTION ( 'NONE',  ( 1.000000000000000000, 0.0000000000000000000, 0.0000000000000000000 ) ) ;
#133 = DIRECTION ( 'NONE',  ( -1.000000000000000000, 0.0000000000000000000, 0.0000000000000000000 ) ) ;
#134 = AXIS2_PLACEMENT_3D ( 'NONE', #189, #187, #155 ) ;
#135 = CARTESIAN_POINT ( 'NONE',  ( 0.0000000000000000000, 0.0000000000000000000, 2.952755999999999936 ) ) ;
#136 = DIRECTION ( 'NONE',  ( 0.0000000000000000000, 0.0000000000000000000, 1.000000000000000000 ) ) ;
#137 = LINE ( 'NONE', #140, #80 ) ;
#138 = VECTOR ( 'NONE', #156, 39.37007874015748143 ) ;
#139 = CARTESIAN_POINT ( 'NONE',  ( 0.0000000000000000000, 0.0000000000000000000, 2.952755999999999936 ) ) ;
#140 = CARTESIAN_POINT ( 'NONE',  ( -0.1299209999999997589, 1.591073367920229727E-17, 1.586614299999997035 ) ) ;
#141 = ADVANCED_FACE ( 'NONE', ( #257 ), #108, .T. ) ;
#142 =( GEOMETRIC_REPRESENTATION_CONTEXT ( 3 ) GLOBAL_UNCERTAINTY_ASSIGNED_CONTEXT ( ( #273 ) ) GLOBAL_UNIT_ASSIGNED_CONTEXT ( ( #50, #110, #192 ) ) REPRESENTATION_CONTEXT ( 'NONE', 'WORKASPACE' ) );
#143 = CIRCLE ( 'NONE', #327, 0.1181100000000000344 ) ;
#144 = CIRCLE ( 'NONE', #9, 0.1031099999999991745 ) ;
#145 = PRODUCT_DEFINITION_SHAPE ( 'NONE', 'NONE',  #104 ) ;
#146 = CONICAL_SURFACE ( 'NONE', #247, 0.1031099999999991745, 0.7853981633974500554 ) ;
#147 = ORIENTED_EDGE ( 'NONE', *, *, #102, .F. ) ;
#148 = VERTEX_POINT ( 'NONE', #103 ) ;
#149 = CARTESIAN_POINT ( 'NONE',  ( 0.0000000000000000000, 0.0000000000000000000, 2.952755999999999936 ) ) ;
#150 = LINE ( 'NONE', #237, #296 ) ;
#151 = AXIS2_PLACEMENT_3D ( 'NONE', #65, #186, #69 ) ;
#152 = ORIENTED_EDGE ( 'NONE', *, *, #175, .T. ) ;
#153 = VERTEX_POINT ( 'NONE', #341 ) ;
#154 = FACE_OUTER_BOUND ( 'NONE', #238, .T. ) ;
#155 = DIRECTION ( 'NONE',  ( 1.000000000000000000, 0.0000000000000000000, 0.0000000000000000000 ) ) ;
#156 = DIRECTION ( 'NONE',  ( -0.0000000000000000000, -0.0000000000000000000, -1.000000000000000000 ) ) ;
#157 = ORIENTED_EDGE ( 'NONE', *, *, #158, .F. ) ;
#158 = EDGE_CURVE ( 'NONE', #40, #46, #258, .T. ) ;
#159 =( NAMED_UNIT ( * ) PLANE_ANGLE_UNIT ( ) SI_UNIT ( $, .RADIAN. ) );
#160 = LINE ( 'NONE', #263, #193 ) ;
#161 = SHAPE_DEFINITION_REPRESENTATION ( #145, #61 ) ;
#162 = DIMENSIONAL_EXPONENTS ( 1.000000000000000000, 0.0000000000000000000, 0.0000000000000000000, 0.0000000000000000000, 0.0000000000000000000, 0.0000000000000000000, 0.0000000000000000000 ) ;
#163 = FACE_OUTER_BOUND ( 'NONE', #209, .T. ) ;
#164 = FILL_AREA_STYLE ('',( #28 ) ) ;
#165 = APPLICATION_PROTOCOL_DEFINITION ( 'draft international standard', 'automotive_design', 1998, #227 ) ;
#166 = FACE_OUTER_BOUND ( 'NONE', #125, .T. ) ;
#167 = DIRECTION ( 'NONE',  ( -1.000000000000000000, 0.0000000000000000000, 0.0000000000000000000 ) ) ;
#168 = CARTESIAN_POINT ( 'NONE',  ( 0.0000000000000000000, 0.0000000000000000000, 2.952755999999999936 ) ) ;
#169 = DIRECTION ( 'NONE',  ( 1.000000000000000000, 0.0000000000000000000, 0.0000000000000000000 ) ) ;
#170 = PRESENTATION_LAYER_ASSIGNMENT (  '', '', ( #4 ) ) ;
#171 = STYLED_ITEM ( 'NONE', ( #268 ), #118 ) ;
#172 = CIRCLE ( 'NONE', #322, 0.03936999999999998140 ) ;
#173 = EDGE_CURVE ( 'NONE', #261, #148, #53, .T. ) ;
#174 =( GEOMETRIC_REPRESENTATION_CONTEXT ( 3 ) GLOBAL_UNCERTAINTY_ASSIGNED_CONTEXT ( ( #221 ) ) GLOBAL_UNIT_ASSIGNED_CONTEXT ( ( #207, #159, #43 ) ) REPRESENTATION_CONTEXT ( 'NONE', 'WORKASPACE' ) );
#175 = EDGE_CURVE ( 'NONE', #116, #334, #88, .T. ) ;
#176 = EDGE_LOOP ( 'NONE', ( #181, #300, #286, #282, #35 ) ) ;
#177 = DIMENSIONAL_EXPONENTS ( 1.000000000000000000, 0.0000000000000000000, 0.0000000000000000000, 0.0000000000000000000, 0.0000000000000000000, 0.0000000000000000000, 0.0000000000000000000 ) ;
#178 = CARTESIAN_POINT ( 'NONE',  ( 0.0000000000000000000, 0.0000000000000000000, 1.456693000000000016 ) ) ;
#179 = DIMENSIONAL_EXPONENTS ( 1.000000000000000000, 0.0000000000000000000, 0.0000000000000000000, 0.0000000000000000000, 0.0000000000000000000, 0.0000000000000000000, 0.0000000000000000000 ) ;
#180 = CARTESIAN_POINT ( 'NONE',  ( 0.0000000000000000000, 0.0000000000000000000, 0.0000000000000000000 ) ) ;
#181 = ORIENTED_EDGE ( 'NONE', *, *, #13, .F. ) ;
#182 = ORIENTED_EDGE ( 'NONE', *, *, #114, .F. ) ;
#183 = SURFACE_STYLE_FILL_AREA ( #72 ) ;
#184 = AXIS2_PLACEMENT_3D ( 'NONE', #73, #312, #44 ) ;
#185 = ORIENTED_EDGE ( 'NONE', *, *, #243, .T. ) ;
#186 = DIRECTION ( 'NONE',  ( -0.0000000000000000000, -0.0000000000000000000, -1.000000000000000000 ) ) ;
#187 = DIRECTION ( 'NONE',  ( 0.0000000000000000000, 0.0000000000000000000, -1.000000000000000000 ) ) ;
#188 = DIRECTION ( 'NONE',  ( 1.000000000000000000, 0.0000000000000000000, 0.0000000000000000000 ) ) ;
#189 = CARTESIAN_POINT ( 'NONE',  ( 0.0000000000000000000, 0.0000000000000000000, 2.937755999999999368 ) ) ;
#190 = SURFACE_STYLE_FILL_AREA ( #164 ) ;
#191 = DIRECTION ( 'NONE',  ( 0.0000000000000000000, 1.000000000000000000, 0.0000000000000000000 ) ) ;
#192 =( NAMED_UNIT ( * ) SI_UNIT ( $, .STERADIAN. ) SOLID_ANGLE_UNIT ( ) );
#193 = VECTOR ( 'NONE', #284, 39.37007874015748143 ) ;
#194 = VECTOR ( 'NONE', #113, 39.37007874015748143 ) ;
#195 = DIRECTION ( 'NONE',  ( 1.000000000000000000, 0.0000000000000000000, 0.0000000000000000000 ) ) ;
#196 = DIRECTION ( 'NONE',  ( -1.000000000000000000, 0.0000000000000000000, 0.0000000000000000000 ) ) ;
#197 = DIRECTION ( 'NONE',  ( 1.000000000000000000, 0.0000000000000000000, 0.0000000000000000000 ) ) ;
#198 = ADVANCED_FACE ( 'NONE', ( #287 ), #41, .T. ) ;
#199 = DIRECTION ( 'NONE',  ( -0.0000000000000000000, -0.0000000000000000000, -1.000000000000000000 ) ) ;
#200 = EDGE_CURVE ( 'NONE', #148, #261, #143, .T. ) ;
#201 = ORIENTED_EDGE ( 'NONE', *, *, #59, .F. ) ;
#202 = EDGE_CURVE ( 'NONE', #116, #261, #137, .T. ) ;
#203 = AXIS2_PLACEMENT_3D ( 'NONE', #290, #136, #128 ) ;
#204 = VERTEX_POINT ( 'NONE', #251 ) ;
#205 = AXIS2_PLACEMENT_3D ( 'NONE', #266, #214, #211 ) ;
#206 = PRODUCT_RELATED_PRODUCT_CATEGORY ( 'part', '', ( #47 ) ) ;
#207 =( CONVERSION_BASED_UNIT ( 'INCH', #313 ) LENGTH_UNIT ( ) NAMED_UNIT ( #162 ) );
#208 = ORIENTED_EDGE ( 'NONE', *, *, #173, .F. ) ;
#209 = EDGE_LOOP ( 'NONE', ( #62, #330, #68, #126 ) ) ;
#210 = ORIENTED_EDGE ( 'NONE', *, *, #175, .F. ) ;
#211 = DIRECTION ( 'NONE',  ( -1.000000000000000000, 0.0000000000000000000, 0.0000000000000000000 ) ) ;
#212 = DIRECTION ( 'NONE',  ( -0.0000000000000000000, -0.0000000000000000000, -1.000000000000000000 ) ) ;
#213 = VERTEX_POINT ( 'NONE', #222 ) ;
#214 = DIRECTION ( 'NONE',  ( -0.0000000000000000000, -0.0000000000000000000, -1.000000000000000000 ) ) ;
#215 = DIRECTION ( 'NONE',  ( 0.0000000000000000000, 0.0000000000000000000, 1.000000000000000000 ) ) ;
#216 =( NAMED_UNIT ( * ) PLANE_ANGLE_UNIT ( ) SI_UNIT ( $, .RADIAN. ) );
#217 = CARTESIAN_POINT ( 'NONE',  ( 0.0000000000000000000, 0.0000000000000000000, 0.5905510000000000481 ) ) ;
#218 = CYLINDRICAL_SURFACE ( 'NONE', #291, 0.1181100000000000344 ) ;
#219 = COLOUR_RGB ( '',0.7921568627450980005, 0.8196078431372548767, 0.9333333333333333481 ) ;
#220 = DIRECTION ( 'NONE',  ( 0.0000000000000000000, 0.0000000000000000000, 1.000000000000000000 ) ) ;
#221 = UNCERTAINTY_MEASURE_WITH_UNIT (LENGTH_MEASURE( 1.000000000000000082E-05 ), #207, 'distance_accuracy_value', 'NONE');
#222 = CARTESIAN_POINT ( 'NONE',  ( 0.0000000000000000000, 3.616075836182346941E-18, 8.537024980200822558E-18 ) ) ;
#223 = ADVANCED_FACE ( 'NONE', ( #166 ), #83, .T. ) ;
#224 = CARTESIAN_POINT ( 'NONE',  ( 0.0000000000000000000, 0.0000000000000000000, 0.1030719981370833843 ) ) ;
#225 = AXIS2_PLACEMENT_3D ( 'NONE', #180, #233, #70 ) ;
#226 = PRESENTATION_LAYER_ASSIGNMENT (  '', '', ( #171 ) ) ;
#227 = APPLICATION_CONTEXT ( 'automotive_design' ) ;
#228 = EDGE_CURVE ( 'NONE', #308, #261, #293, .T. ) ;
#229 = ORIENTED_EDGE ( 'NONE', *, *, #107, .F. ) ;
#230 = EDGE_LOOP ( 'NONE', ( #283, #8, #12, #235 ) ) ;
#231 = AXIS2_PLACEMENT_3D ( 'NONE', #328, #99, #19 ) ;
#232 = PLANE ( 'NONE',  #269 ) ;
#233 = DIRECTION ( 'NONE',  ( -0.0000000000000000000, -0.0000000000000000000, -1.000000000000000000 ) ) ;
#234 = ORIENTED_EDGE ( 'NONE', *, *, #275, .T. ) ;
#235 = ORIENTED_EDGE ( 'NONE', *, *, #24, .F. ) ;
#236 = CARTESIAN_POINT ( 'NONE',  ( 0.0000000000000000000, 0.0000000000000000000, 1.586614299999997035 ) ) ;
#237 = CARTESIAN_POINT ( 'NONE',  ( -0.1031099999999991745, 0.0000000000000000000, 2.952755999999999936 ) ) ;
#238 = EDGE_LOOP ( 'NONE', ( #280, #71 ) ) ;
#239 = SURFACE_STYLE_USAGE ( .BOTH. , #339 ) ;
#240 = DIRECTION ( 'NONE',  ( 1.000000000000000000, 0.0000000000000000000, 0.0000000000000000000 ) ) ;
#241 = AXIS2_PLACEMENT_3D ( 'NONE', #217, #100, #314 ) ;
#242 = DIRECTION ( 'NONE',  ( 0.0000000000000000000, 0.0000000000000000000, -1.000000000000000000 ) ) ;
#243 = EDGE_CURVE ( 'NONE', #255, #40, #33, .T. ) ;
#244 = DIRECTION ( 'NONE',  ( -1.000000000000000000, 0.0000000000000000000, 0.0000000000000000000 ) ) ;
#245 =( LENGTH_UNIT ( ) NAMED_UNIT ( * ) SI_UNIT ( $, .METRE. ) );
#246 = CARTESIAN_POINT ( 'NONE',  ( -0.1181100000000000344, 0.0000000000000000000, 1.456693000000000016 ) ) ;
#247 = AXIS2_PLACEMENT_3D ( 'NONE', #79, #345, #27 ) ;
#248 = MECHANICAL_DESIGN_GEOMETRIC_PRESENTATION_REPRESENTATION (  '', ( #171 ), #174 ) ;
#249 = EDGE_CURVE ( 'NONE', #204, #18, #144, .T. ) ;
#250 = PRODUCT_DEFINITION_CONTEXT ( 'detailed design', #227, 'design' ) ;
#251 = CARTESIAN_POINT ( 'NONE',  ( -0.1031099999999991745, 0.0000000000000000000, 2.952755999999999936 ) ) ;
#252 = AXIS2_PLACEMENT_3D ( 'NONE', #292, #169, #191 ) ;
#253 = CIRCLE ( 'NONE', #121, 0.05905499999999998945 ) ;
#254 = ORIENTED_EDGE ( 'NONE', *, *, #102, .T. ) ;
#255 = VERTEX_POINT ( 'NONE', #343 ) ;
#256 = ADVANCED_FACE ( 'NONE', ( #56 ), #218, .T. ) ;
#257 = FACE_OUTER_BOUND ( 'NONE', #34, .T. ) ;
#258 = CIRCLE ( 'NONE', #205, 0.03936999999999998140 ) ;
#259 = DIRECTION ( 'NONE',  ( 1.000000000000000000, 0.0000000000000000000, 0.0000000000000000000 ) ) ;
#260 = ORIENTED_EDGE ( 'NONE', *, *, #173, .T. ) ;
#261 = VERTEX_POINT ( 'NONE', #246 ) ;
#262 = FILL_AREA_STYLE_COLOUR ( '', #317 ) ;
#263 = CARTESIAN_POINT ( 'NONE',  ( -0.03936999999999996058, 0.0000000000000000000, 0.0000000000000000000 ) ) ;
#264 = ORIENTED_EDGE ( 'NONE', *, *, #249, .F. ) ;
#265 = ORIENTED_EDGE ( 'NONE', *, *, #82, .F. ) ;
#266 = CARTESIAN_POINT ( 'NONE',  ( 0.0000000000000000000, 0.0000000000000000000, 0.1030719981370833843 ) ) ;
#267 = CARTESIAN_POINT ( 'NONE',  ( 0.1031099999999991745, 1.262733314600825725E-17, 2.952755999999999936 ) ) ;
#268 = PRESENTATION_STYLE_ASSIGNMENT (( #239 ) ) ;
#269 = AXIS2_PLACEMENT_3D ( 'NONE', #149, #331, #91 ) ;
#270 =( CONVERSION_BASED_UNIT ( 'INCH', #26 ) LENGTH_UNIT ( ) NAMED_UNIT ( #179 ) );
#271 = LINE ( 'NONE', #85, #21 ) ;
#272 = SURFACE_SIDE_STYLE ('',( #190 ) ) ;
#273 = UNCERTAINTY_MEASURE_WITH_UNIT (LENGTH_MEASURE( 1.000000000000000082E-05 ), #50, 'distance_accuracy_value', 'NONE');
#274 = DIRECTION ( 'NONE',  ( -1.000000000000000000, 0.0000000000000000000, 0.0000000000000000000 ) ) ;
#275 = EDGE_CURVE ( 'NONE', #46, #153, #172, .T. ) ;
#276 = CIRCLE ( 'NONE', #344, 0.03936999999999998140 ) ;
#277 = EDGE_CURVE ( 'NONE', #18, #204, #98, .T. ) ;
#278 = MECHANICAL_DESIGN_GEOMETRIC_PRESENTATION_REPRESENTATION (  '', ( #4 ), #142 ) ;
#279 = CIRCLE ( 'NONE', #134, 0.1181100000000000344 ) ;
#280 = ORIENTED_EDGE ( 'NONE', *, *, #249, .T. ) ;
#281 = CYLINDRICAL_SURFACE ( 'NONE', #225, 0.03936999999999996058 ) ;
#282 = ORIENTED_EDGE ( 'NONE', *, *, #39, .F. ) ;
#283 = ORIENTED_EDGE ( 'NONE', *, *, #277, .F. ) ;
#284 = DIRECTION ( 'NONE',  ( -0.0000000000000000000, -0.0000000000000000000, -1.000000000000000000 ) ) ;
#285 = CARTESIAN_POINT ( 'NONE',  ( 0.0000000000000000000, 0.03936999999999998140, 0.1030719981370833843 ) ) ;
#286 = ORIENTED_EDGE ( 'NONE', *, *, #60, .T. ) ;
#287 = FACE_OUTER_BOUND ( 'NONE', #42, .T. ) ;
#288 = DIRECTION ( 'NONE',  ( 0.09053553870087648059, 0.0000000000000000000, 0.9958932253169222593 ) ) ;
#289 = CARTESIAN_POINT ( 'NONE',  ( 0.1299209999999997589, 0.0000000000000000000, 1.586614299999997035 ) ) ;
#290 = CARTESIAN_POINT ( 'NONE',  ( 0.0000000000000000000, 0.0000000000000000000, 0.0000000000000000000 ) ) ;
#291 = AXIS2_PLACEMENT_3D ( 'NONE', #168, #31, #274 ) ;
#292 = CARTESIAN_POINT ( 'NONE',  ( 0.0000000000000000000, 0.0000000000000000000, 0.05905500000000000332 ) ) ;
#293 = LINE ( 'NONE', #1, #194 ) ;
#294 = SPHERICAL_SURFACE ( 'NONE', #252, 0.05905499999999999639 ) ;
#295 = EDGE_CURVE ( 'NONE', #67, #148, #271, .T. ) ;
#296 = VECTOR ( 'NONE', #124, 39.37007874015748854 ) ;
#297 = ADVANCED_FACE ( 'NONE', ( #316 ), #146, .T. ) ;
#298 = ORIENTED_EDGE ( 'NONE', *, *, #39, .T. ) ;
#299 = ADVANCED_FACE ( 'NONE', ( #319 ), #294, .T. ) ;
#300 = ORIENTED_EDGE ( 'NONE', *, *, #82, .T. ) ;
#301 = AXIS2_PLACEMENT_3D ( 'NONE', #135, #242, #95 ) ;
#302 = ORIENTED_EDGE ( 'NONE', *, *, #158, .T. ) ;
#303 = FACE_OUTER_BOUND ( 'NONE', #63, .T. ) ;
#304 = EDGE_LOOP ( 'NONE', ( #87, #14, #338, #260 ) ) ;
#305 = ORIENTED_EDGE ( 'NONE', *, *, #202, .T. ) ;
#306 = DIRECTION ( 'NONE',  ( 0.0000000000000000000, 0.0000000000000000000, 1.000000000000000000 ) ) ;
#307 = DIRECTION ( 'NONE',  ( -1.000000000000000000, 0.0000000000000000000, 0.0000000000000000000 ) ) ;
#308 = VERTEX_POINT ( 'NONE', #81 ) ;
#309 = ORIENTED_EDGE ( 'NONE', *, *, #202, .F. ) ;
#310 = CYLINDRICAL_SURFACE ( 'NONE', #231, 0.1181100000000000344 ) ;
#311 = AXIS2_PLACEMENT_3D ( 'NONE', #10, #306, #75 ) ;
#312 = DIRECTION ( 'NONE',  ( 1.000000000000000000, 1.224646799147353207E-16, -0.0000000000000000000 ) ) ;
#313 = LENGTH_MEASURE_WITH_UNIT ( LENGTH_MEASURE( 0.02539999999999999897 ), #15 );
#314 = DIRECTION ( 'NONE',  ( -1.000000000000000000, 0.0000000000000000000, 0.0000000000000000000 ) ) ;
#315 = DIRECTION ( 'NONE',  ( 0.0000000000000000000, 0.0000000000000000000, 1.000000000000000000 ) ) ;
#316 = FACE_OUTER_BOUND ( 'NONE', #230, .T. ) ;
#317 = COLOUR_RGB ( '',0.7921568627450980005, 0.8196078431372548767, 0.9333333333333333481 ) ;
#318 = AXIS2_PLACEMENT_3D ( 'NONE', #58, #321, #196 ) ;
#319 = FACE_OUTER_BOUND ( 'NONE', #93, .T. ) ;
#320 = DIRECTION ( 'NONE',  ( -0.0000000000000000000, -0.0000000000000000000, -1.000000000000000000 ) ) ;
#321 = DIRECTION ( 'NONE',  ( -0.0000000000000000000, -0.0000000000000000000, -1.000000000000000000 ) ) ;
#322 = AXIS2_PLACEMENT_3D ( 'NONE', #224, #320, #167 ) ;
#323 = VECTOR ( 'NONE', #288, 39.37007874015748143 ) ;
#324 = CIRCLE ( 'NONE', #184, 0.05905499999999999639 ) ;
#325 = ORIENTED_EDGE ( 'NONE', *, *, #59, .T. ) ;
#326 = CONICAL_SURFACE ( 'NONE', #7, 0.1299209999999997589, 0.09065967900408432312 ) ;
#327 = AXIS2_PLACEMENT_3D ( 'NONE', #178, #37, #188 ) ;
#328 = CARTESIAN_POINT ( 'NONE',  ( 0.0000000000000000000, 0.0000000000000000000, 2.952755999999999936 ) ) ;
#329 = CARTESIAN_POINT ( 'NONE',  ( 0.0000000000000000000, 0.0000000000000000000, 0.05905500000000000332 ) ) ;
#330 = ORIENTED_EDGE ( 'NONE', *, *, #295, .T. ) ;
#331 = DIRECTION ( 'NONE',  ( 0.0000000000000000000, 0.0000000000000000000, 1.000000000000000000 ) ) ;
#332 = FACE_OUTER_BOUND ( 'NONE', #176, .T. ) ;
#333 = ORIENTED_EDGE ( 'NONE', *, *, #51, .F. ) ;
#334 = VERTEX_POINT ( 'NONE', #105 ) ;
#335 = CARTESIAN_POINT ( 'NONE',  ( -0.03936999999999992589, 9.642868896486255427E-18, 0.5905510000000000481 ) ) ;
#336 = DIRECTION ( 'NONE',  ( 0.7071067811865486830, 8.659560562354947649E-17, -0.7071067811865462405 ) ) ;
#337 = SPHERICAL_SURFACE ( 'NONE', #78, 0.05905499999999999639 ) ;
#338 = ORIENTED_EDGE ( 'NONE', *, *, #228, .T. ) ;
#339 = SURFACE_SIDE_STYLE ('',( #183 ) ) ;
#340 = CARTESIAN_POINT ( 'NONE',  ( 0.1181100000000000344, 1.446430334472939084E-17, 2.937755999999999368 ) ) ;
#341 = CARTESIAN_POINT ( 'NONE',  ( 4.821434448243127714E-18, -0.03936999999999998140, 0.1030719981370833843 ) ) ;
#342 = APPLICATION_PROTOCOL_DEFINITION ( 'draft international standard', 'automotive_design', 1998, #111 ) ;
#343 = CARTESIAN_POINT ( 'NONE',  ( -0.03936999999999998140, 0.0000000000000000000, 0.1030719981370833843 ) ) ;
#344 = AXIS2_PLACEMENT_3D ( 'NONE', #92, #212, #307 ) ;
#345 = DIRECTION ( 'NONE',  ( 0.0000000000000000000, 0.0000000000000000000, -1.000000000000000000 ) ) ;
ENDSEC;
END-ISO-10303-21;
