ISO-10303-21;
HEADER;
FILE_DESCRIPTION (( 'STEP AP214' ),
    '1' );
FILE_NAME ('Micro_SFL-250-43.STEP',
    '2021-09-02T04:58:57',
    ( '' ),
    ( '' ),
    'SwSTEP 2.0',
    'SolidWorks 2020',
    '' );
FILE_SCHEMA (( 'AUTOMOTIVE_DESIGN' ));
ENDSEC;

DATA;
#1 = DIRECTION ( 'NONE',  ( -1.000000000000000000, 0.0000000000000000000, 0.0000000000000000000 ) ) ;
#2 = CARTESIAN_POINT ( 'NONE',  ( 0.1250000000000000555, 1.530808498934192125E-17, 0.3757089102274520087 ) ) ;
#3 = ORIENTED_EDGE ( 'NONE', *, *, #256, .F. ) ;
#4 = DIRECTION ( 'NONE',  ( -0.0000000000000000000, -0.0000000000000000000, -1.000000000000000000 ) ) ;
#5 = LENGTH_MEASURE_WITH_UNIT ( LENGTH_MEASURE( 0.02539999999999999897 ), #230 );
#6 = ADVANCED_FACE ( 'NONE', ( #8 ), #65, .T. ) ;
#7 = ORIENTED_EDGE ( 'NONE', *, *, #273, .F. ) ;
#8 = FACE_OUTER_BOUND ( 'NONE', #251, .T. ) ;
#9 = AXIS2_PLACEMENT_3D ( 'NONE', #223, #254, #294 ) ;
#10 = DIRECTION ( 'NONE',  ( -1.224646799147353207E-16, -0.0000000000000000000, -1.000000000000000000 ) ) ;
#11 =( NAMED_UNIT ( * ) SI_UNIT ( $, .STERADIAN. ) SOLID_ANGLE_UNIT ( ) );
#12 = CARTESIAN_POINT ( 'NONE',  ( 0.1100000000000001948, 1.438959988998141146E-17, 2.500000000000000000 ) ) ;
#13 = DIRECTION ( 'NONE',  ( 1.224646799147353207E-16, 0.0000000000000000000, 1.000000000000000000 ) ) ;
#14 = DIRECTION ( 'NONE',  ( -1.000000000000000000, 0.0000000000000000000, 0.0000000000000000000 ) ) ;
#15 = EDGE_CURVE ( 'NONE', #260, #214, #48, .T. ) ;
#16 = FACE_OUTER_BOUND ( 'NONE', #116, .T. ) ;
#17 = ORIENTED_EDGE ( 'NONE', *, *, #218, .T. ) ;
#18 = CIRCLE ( 'NONE', #227, 0.1250000000000000000 ) ;
#19 = AXIS2_PLACEMENT_3D ( 'NONE', #104, #236, #148 ) ;
#20 = CARTESIAN_POINT ( 'NONE',  ( 4.592425496802573602E-17, 0.0000000000000000000, 0.3749999999999999445 ) ) ;
#21 = ORIENTED_EDGE ( 'NONE', *, *, #78, .F. ) ;
#22 =( NAMED_UNIT ( * ) SI_UNIT ( $, .STERADIAN. ) SOLID_ANGLE_UNIT ( ) );
#23 = ORIENTED_EDGE ( 'NONE', *, *, #15, .T. ) ;
#24 = SURFACE_STYLE_FILL_AREA ( #157 ) ;
#25 = ORIENTED_EDGE ( 'NONE', *, *, #206, .T. ) ;
#26 = DIRECTION ( 'NONE',  ( -1.224646799147353207E-16, -0.0000000000000000000, -1.000000000000000000 ) ) ;
#27 = ORIENTED_EDGE ( 'NONE', *, *, #133, .T. ) ;
#28 = FACE_OUTER_BOUND ( 'NONE', #275, .T. ) ;
#29 = VERTEX_POINT ( 'NONE', #258 ) ;
#30 = VECTOR ( 'NONE', #266, 39.37007874015748143 ) ;
#31 = DIRECTION ( 'NONE',  ( 1.000000000000000000, 0.0000000000000000000, 0.0000000000000000000 ) ) ;
#32 = CYLINDRICAL_SURFACE ( 'NONE', #19, 0.1248750000000000276 ) ;
#33 = CARTESIAN_POINT ( 'NONE',  ( 0.0000000000000000000, 0.0000000000000000000, 2.500000000000000000 ) ) ;
#34 = AXIS2_PLACEMENT_3D ( 'NONE', #243, #60, #85 ) ;
#35 = DIRECTION ( 'NONE',  ( -0.0000000000000000000, -0.0000000000000000000, -1.000000000000000000 ) ) ;
#36 = AXIS2_PLACEMENT_3D ( 'NONE', #47, #178, #131 ) ;
#37 = PRODUCT_DEFINITION_FORMATION_WITH_SPECIFIED_SOURCE ( 'ANY', '', #55, .NOT_KNOWN. ) ;
#38 = DIRECTION ( 'NONE',  ( -1.224646799147353207E-16, -0.0000000000000000000, -1.000000000000000000 ) ) ;
#39 = LINE ( 'NONE', #119, #241 ) ;
#40 = ORIENTED_EDGE ( 'NONE', *, *, #206, .F. ) ;
#41 =( GEOMETRIC_REPRESENTATION_CONTEXT ( 3 ) GLOBAL_UNCERTAINTY_ASSIGNED_CONTEXT ( ( #90 ) ) GLOBAL_UNIT_ASSIGNED_CONTEXT ( ( #98, #261, #11 ) ) REPRESENTATION_CONTEXT ( 'NONE', 'WORKASPACE' ) );
#42 = DIMENSIONAL_EXPONENTS ( 1.000000000000000000, 0.0000000000000000000, 0.0000000000000000000, 0.0000000000000000000, 0.0000000000000000000, 0.0000000000000000000, 0.0000000000000000000 ) ;
#43 = VECTOR ( 'NONE', #26, 39.37007874015748143 ) ;
#44 = LINE ( 'NONE', #82, #202 ) ;
#45 = PRESENTATION_STYLE_ASSIGNMENT (( #252 ) ) ;
#46 = CARTESIAN_POINT ( 'NONE',  ( 4.601107143211894218E-17, 0.0000000000000000000, 0.3757089102274520087 ) ) ;
#47 = CARTESIAN_POINT ( 'NONE',  ( 0.0000000000000000000, 0.0000000000000000000, 2.485000000000000320 ) ) ;
#48 = LINE ( 'NONE', #184, #268 ) ;
#49 = CIRCLE ( 'NONE', #80, 0.1248749999999999999 ) ;
#50 = EDGE_CURVE ( 'NONE', #248, #214, #198, .T. ) ;
#51 = ORIENTED_EDGE ( 'NONE', *, *, #121, .F. ) ;
#52 = VERTEX_POINT ( 'NONE', #233 ) ;
#53 = DIRECTION ( 'NONE',  ( 0.0000000000000000000, 0.0000000000000000000, -1.000000000000000000 ) ) ;
#54 = DIRECTION ( 'NONE',  ( 0.0000000000000000000, 0.0000000000000000000, 1.000000000000000000 ) ) ;
#55 = PRODUCT ( 'Micro_SFL-250-43', 'Micro_SFL-250-43', '', ( #282 ) ) ;
#56 = CARTESIAN_POINT ( 'NONE',  ( 0.0000000000000000000, 0.0000000000000000000, 2.500000000000000000 ) ) ;
#57 = DIRECTION ( 'NONE',  ( -0.7071067811865499042, 0.0000000000000000000, -0.7071067811865451302 ) ) ;
#58 = FACE_OUTER_BOUND ( 'NONE', #154, .T. ) ;
#59 = ADVANCED_FACE ( 'NONE', ( #28 ), #122, .T. ) ;
#60 = DIRECTION ( 'NONE',  ( 0.0000000000000000000, 0.0000000000000000000, 1.000000000000000000 ) ) ;
#61 = DIRECTION ( 'NONE',  ( 0.1736481776669313026, 0.0000000000000000000, 0.9848077530122077983 ) ) ;
#62 = EDGE_LOOP ( 'NONE', ( #93, #140, #165, #160 ) ) ;
#63 = MANIFOLD_SOLID_BREP ( 'Cut-Revolve1', #128 ) ;
#64 = ORIENTED_EDGE ( 'NONE', *, *, #50, .T. ) ;
#65 = CONICAL_SURFACE ( 'NONE', #293, 0.1100000000000001948, 0.7853981633974517207 ) ;
#66 = DIRECTION ( 'NONE',  ( 1.224646799147353207E-16, 0.0000000000000000000, 1.000000000000000000 ) ) ;
#67 = EDGE_CURVE ( 'NONE', #103, #52, #44, .T. ) ;
#68 = CIRCLE ( 'NONE', #237, 0.1248749999999999999 ) ;
#69 = PRESENTATION_STYLE_ASSIGNMENT (( #180 ) ) ;
#70 = CARTESIAN_POINT ( 'NONE',  ( -0.1248749999999999721, 1.530043094684724646E-17, 0.3749999999999999445 ) ) ;
#71 = ORIENTED_EDGE ( 'NONE', *, *, #185, .T. ) ;
#72 = VERTEX_POINT ( 'NONE', #127 ) ;
#73 = VECTOR ( 'NONE', #57, 39.37007874015748143 ) ;
#74 = CARTESIAN_POINT ( 'NONE',  ( 0.0000000000000000000, 0.0000000000000000000, 0.0000000000000000000 ) ) ;
#75 = DIRECTION ( 'NONE',  ( -0.0000000000000000000, -0.0000000000000000000, -1.000000000000000000 ) ) ;
#76 = DIRECTION ( 'NONE',  ( 1.000000000000000000, 0.0000000000000000000, 0.0000000000000000000 ) ) ;
#77 = CARTESIAN_POINT ( 'NONE',  ( -0.1100000000000001948, 0.0000000000000000000, 2.500000000000000000 ) ) ;
#78 = EDGE_CURVE ( 'NONE', #225, #132, #68, .T. ) ;
#79 = DIRECTION ( 'NONE',  ( 0.0000000000000000000, 0.0000000000000000000, 1.000000000000000000 ) ) ;
#80 = AXIS2_PLACEMENT_3D ( 'NONE', #197, #169, #194 ) ;
#81 = FACE_OUTER_BOUND ( 'NONE', #186, .T. ) ;
#82 = CARTESIAN_POINT ( 'NONE',  ( 0.1100000000000001948, 1.347111479062090784E-17, 2.500000000000000000 ) ) ;
#83 = DIRECTION ( 'NONE',  ( -1.224646799147353207E-16, -0.0000000000000000000, -1.000000000000000000 ) ) ;
#84 = AXIS2_PLACEMENT_3D ( 'NONE', #111, #66, #179 ) ;
#85 = DIRECTION ( 'NONE',  ( 1.000000000000000000, 0.0000000000000000000, 0.0000000000000000000 ) ) ;
#86 = DIRECTION ( 'NONE',  ( -1.224646799147353207E-16, -0.0000000000000000000, -1.000000000000000000 ) ) ;
#87 = APPLICATION_CONTEXT ( 'automotive_design' ) ;
#88 = ORIENTED_EDGE ( 'NONE', *, *, #164, .F. ) ;
#89 = DIMENSIONAL_EXPONENTS ( 1.000000000000000000, 0.0000000000000000000, 0.0000000000000000000, 0.0000000000000000000, 0.0000000000000000000, 0.0000000000000000000, 0.0000000000000000000 ) ;
#90 = UNCERTAINTY_MEASURE_WITH_UNIT (LENGTH_MEASURE( 1.000000000000000082E-05 ), #98, 'distance_accuracy_value', 'NONE');
#91 = ORIENTED_EDGE ( 'NONE', *, *, #185, .F. ) ;
#92 = FILL_AREA_STYLE_COLOUR ( '', #299 ) ;
#93 = ORIENTED_EDGE ( 'NONE', *, *, #298, .T. ) ;
#94 = DIRECTION ( 'NONE',  ( 1.000000000000000000, 0.0000000000000000000, 0.0000000000000000000 ) ) ;
#95 = CARTESIAN_POINT ( 'NONE',  ( 0.0000000000000000000, 0.0000000000000000000, 2.500000000000000000 ) ) ;
#96 = CIRCLE ( 'NONE', #118, 0.1100000000000001948 ) ;
#97 = FACE_OUTER_BOUND ( 'NONE', #190, .T. ) ;
#98 =( CONVERSION_BASED_UNIT ( 'INCH', #5 ) LENGTH_UNIT ( ) NAMED_UNIT ( #89 ) );
#99 = APPLICATION_PROTOCOL_DEFINITION ( 'draft international standard', 'automotive_design', 1998, #146 ) ;
#100 = DIRECTION ( 'NONE',  ( -1.000000000000000000, 0.0000000000000000000, 0.0000000000000000000 ) ) ;
#101 = ORIENTED_EDGE ( 'NONE', *, *, #15, .F. ) ;
#102 = CONICAL_SURFACE ( 'NONE', #208, 0.1248750000000000276, 0.1745329251994338082 ) ;
#103 = VERTEX_POINT ( 'NONE', #12 ) ;
#104 = CARTESIAN_POINT ( 'NONE',  ( 0.0000000000000000000, 0.0000000000000000000, 0.0000000000000000000 ) ) ;
#105 = CARTESIAN_POINT ( 'NONE',  ( 1.872825028598994811E-33, 0.0000000000000000000, 1.529277690435257475E-17 ) ) ;
#106 = UNCERTAINTY_MEASURE_WITH_UNIT (LENGTH_MEASURE( 1.000000000000000082E-05 ), #209, 'distance_accuracy_value', 'NONE');
#107 = LINE ( 'NONE', #292, #134 ) ;
#108 = CARTESIAN_POINT ( 'NONE',  ( -0.1248749999999999999, 0.0000000000000000000, 3.058555380870514950E-17 ) ) ;
#109 = LINE ( 'NONE', #265, #30 ) ;
#110 = AXIS2_PLACEMENT_3D ( 'NONE', #46, #10, #76 ) ;
#111 = CARTESIAN_POINT ( 'NONE',  ( 4.592425496802573602E-17, 0.0000000000000000000, 0.3749999999999999445 ) ) ;
#112 =( GEOMETRIC_REPRESENTATION_CONTEXT ( 3 ) GLOBAL_UNCERTAINTY_ASSIGNED_CONTEXT ( ( #106 ) ) GLOBAL_UNIT_ASSIGNED_CONTEXT ( ( #209, #244, #22 ) ) REPRESENTATION_CONTEXT ( 'NONE', 'WORKASPACE' ) );
#113 = ORIENTED_EDGE ( 'NONE', *, *, #121, .T. ) ;
#114 = ADVANCED_FACE ( 'NONE', ( #150 ), #102, .T. ) ;
#115 = ORIENTED_EDGE ( 'NONE', *, *, #247, .F. ) ;
#116 = EDGE_LOOP ( 'NONE', ( #253, #23, #25, #7 ) ) ;
#117 = SURFACE_STYLE_FILL_AREA ( #228 ) ;
#118 = AXIS2_PLACEMENT_3D ( 'NONE', #139, #231, #94 ) ;
#119 = CARTESIAN_POINT ( 'NONE',  ( 0.1248750000000000693, 0.0000000000000000000, 0.3749999999999999445 ) ) ;
#120 = ORIENTED_EDGE ( 'NONE', *, *, #67, .F. ) ;
#121 = EDGE_CURVE ( 'NONE', #29, #214, #107, .T. ) ;
#122 = CYLINDRICAL_SURFACE ( 'NONE', #257, 0.1250000000000000000 ) ;
#123 = DIRECTION ( 'NONE',  ( -0.1736481776669311083, 2.126576849575782084E-17, 0.9848077530122080203 ) ) ;
#124 = CIRCLE ( 'NONE', #250, 0.1248750000000000276 ) ;
#125 = CARTESIAN_POINT ( 'NONE',  ( 0.0000000000000000000, 0.0000000000000000000, 0.0000000000000000000 ) ) ;
#126 = DIRECTION ( 'NONE',  ( 1.000000000000000000, 0.0000000000000000000, -0.0000000000000000000 ) ) ;
#127 = CARTESIAN_POINT ( 'NONE',  ( 0.1248750000000000693, 0.0000000000000000000, 0.3749999999999999445 ) ) ;
#128 = CLOSED_SHELL ( 'NONE', ( #177, #289, #6, #158, #59, #170, #281, #114, #193, #211 ) ) ;
#129 = COLOUR_RGB ( '',0.7921568627450980005, 0.8196078431372548767, 0.9333333333333333481 ) ;
#130 = FACE_OUTER_BOUND ( 'NONE', #161, .T. ) ;
#131 = DIRECTION ( 'NONE',  ( 1.000000000000000000, 0.0000000000000000000, 0.0000000000000000000 ) ) ;
#132 = VERTEX_POINT ( 'NONE', #108 ) ;
#133 = EDGE_CURVE ( 'NONE', #132, #225, #49, .T. ) ;
#134 = VECTOR ( 'NONE', #35, 39.37007874015748143 ) ;
#135 = DIMENSIONAL_EXPONENTS ( 1.000000000000000000, 0.0000000000000000000, 0.0000000000000000000, 0.0000000000000000000, 0.0000000000000000000, 0.0000000000000000000, 0.0000000000000000000 ) ;
#136 = CONICAL_SURFACE ( 'NONE', #9, 0.1100000000000001948, 0.7853981633974517207 ) ;
#137 = FILL_AREA_STYLE_COLOUR ( '', #129 ) ;
#138 = CARTESIAN_POINT ( 'NONE',  ( -0.1248750000000000276, 0.0000000000000000000, 1.529277690435257783E-17 ) ) ;
#139 = CARTESIAN_POINT ( 'NONE',  ( 0.0000000000000000000, 0.0000000000000000000, 2.500000000000000000 ) ) ;
#140 = ORIENTED_EDGE ( 'NONE', *, *, #164, .T. ) ;
#141 = DIRECTION ( 'NONE',  ( 0.0000000000000000000, 0.0000000000000000000, -1.000000000000000000 ) ) ;
#142 = DIRECTION ( 'NONE',  ( -1.000000000000000000, 0.0000000000000000000, 0.0000000000000000000 ) ) ;
#143 = PRODUCT_RELATED_PRODUCT_CATEGORY ( 'part', '', ( #55 ) ) ;
#144 = PLANE ( 'NONE',  #297 ) ;
#145 = AXIS2_PLACEMENT_3D ( 'NONE', #74, #79, #262 ) ;
#146 = APPLICATION_CONTEXT ( 'automotive_design' ) ;
#147 = DIRECTION ( 'NONE',  ( 1.000000000000000000, 0.0000000000000000000, 0.0000000000000000000 ) ) ;
#148 = DIRECTION ( 'NONE',  ( -1.000000000000000000, 0.0000000000000000000, 1.224646799147353207E-16 ) ) ;
#149 = STYLED_ITEM ( 'NONE', ( #69 ), #63 ) ;
#150 = FACE_OUTER_BOUND ( 'NONE', #245, .T. ) ;
#151 = LINE ( 'NONE', #174, #276 ) ;
#152 = CIRCLE ( 'NONE', #36, 0.1250000000000000000 ) ;
#153 = PRODUCT_DEFINITION_CONTEXT ( 'detailed design', #146, 'design' ) ;
#154 = EDGE_LOOP ( 'NONE', ( #88, #234, #285, #21 ) ) ;
#155 = CARTESIAN_POINT ( 'NONE',  ( 4.592425496802573602E-17, 0.0000000000000000000, 0.3749999999999999445 ) ) ;
#156 = PRESENTATION_LAYER_ASSIGNMENT (  '', '', ( #149 ) ) ;
#157 = FILL_AREA_STYLE ('',( #92 ) ) ;
#158 = ADVANCED_FACE ( 'NONE', ( #81 ), #191, .T. ) ;
#159 = DIRECTION ( 'NONE',  ( -1.224646799147353207E-16, -0.0000000000000000000, -1.000000000000000000 ) ) ;
#160 = ORIENTED_EDGE ( 'NONE', *, *, #295, .F. ) ;
#161 = EDGE_LOOP ( 'NONE', ( #176, #17 ) ) ;
#162 = CIRCLE ( 'NONE', #288, 0.1248750000000000276 ) ;
#163 = MECHANICAL_DESIGN_GEOMETRIC_PRESENTATION_REPRESENTATION (  '', ( #277 ), #188 ) ;
#164 = EDGE_CURVE ( 'NONE', #72, #225, #109, .T. ) ;
#165 = ORIENTED_EDGE ( 'NONE', *, *, #133, .F. ) ;
#166 = CARTESIAN_POINT ( 'NONE',  ( 4.592425496802573602E-17, 0.0000000000000000000, 0.3749999999999999445 ) ) ;
#167 =( NAMED_UNIT ( * ) SI_UNIT ( $, .STERADIAN. ) SOLID_ANGLE_UNIT ( ) );
#168 = CARTESIAN_POINT ( 'NONE',  ( 0.0000000000000000000, 0.0000000000000000000, 2.485000000000000320 ) ) ;
#169 = DIRECTION ( 'NONE',  ( -1.224646799147353207E-16, -0.0000000000000000000, -1.000000000000000000 ) ) ;
#170 = ADVANCED_FACE ( 'NONE', ( #130 ), #291, .T. ) ;
#171 = DIRECTION ( 'NONE',  ( -1.000000000000000000, 0.0000000000000000000, 1.224646799147353207E-16 ) ) ;
#172 = LINE ( 'NONE', #77, #73 ) ;
#173 = CARTESIAN_POINT ( 'NONE',  ( -0.1249999999999999445, 0.0000000000000000000, 0.3757089102274520087 ) ) ;
#174 = CARTESIAN_POINT ( 'NONE',  ( 0.1250000000000000000, 1.530808498934191509E-17, 2.500000000000000000 ) ) ;
#175 = ORIENTED_EDGE ( 'NONE', *, *, #78, .T. ) ;
#176 = ORIENTED_EDGE ( 'NONE', *, *, #256, .T. ) ;
#177 = ADVANCED_FACE ( 'NONE', ( #239 ), #267, .T. ) ;
#178 = DIRECTION ( 'NONE',  ( 0.0000000000000000000, 0.0000000000000000000, -1.000000000000000000 ) ) ;
#179 = DIRECTION ( 'NONE',  ( 1.000000000000000000, 0.0000000000000000000, 0.0000000000000000000 ) ) ;
#180 = SURFACE_STYLE_USAGE ( .BOTH. , #207 ) ;
#181 = PRESENTATION_LAYER_ASSIGNMENT (  '', '', ( #277 ) ) ;
#182 = EDGE_CURVE ( 'NONE', #29, #52, #269, .T. ) ;
#183 =( CONVERSION_BASED_UNIT ( 'INCH', #216 ) LENGTH_UNIT ( ) NAMED_UNIT ( #42 ) );
#184 = CARTESIAN_POINT ( 'NONE',  ( -0.1248749999999999721, 1.529277690435257783E-17, 0.3749999999999999445 ) ) ;
#185 = EDGE_CURVE ( 'NONE', #212, #29, #172, .T. ) ;
#186 = EDGE_LOOP ( 'NONE', ( #284, #204, #40, #51 ) ) ;
#187 = AXIS2_PLACEMENT_3D ( 'NONE', #125, #83, #171 ) ;
#188 =( GEOMETRIC_REPRESENTATION_CONTEXT ( 3 ) GLOBAL_UNCERTAINTY_ASSIGNED_CONTEXT ( ( #272 ) ) GLOBAL_UNIT_ASSIGNED_CONTEXT ( ( #183, #189, #167 ) ) REPRESENTATION_CONTEXT ( 'NONE', 'WORKASPACE' ) );
#189 =( NAMED_UNIT ( * ) PLANE_ANGLE_UNIT ( ) SI_UNIT ( $, .RADIAN. ) );
#190 = EDGE_LOOP ( 'NONE', ( #120, #3, #71, #115 ) ) ;
#191 = CYLINDRICAL_SURFACE ( 'NONE', #220, 0.1250000000000000000 ) ;
#192 = DIRECTION ( 'NONE',  ( 0.0000000000000000000, 0.0000000000000000000, 1.000000000000000000 ) ) ;
#193 = ADVANCED_FACE ( 'NONE', ( #58 ), #32, .T. ) ;
#194 = DIRECTION ( 'NONE',  ( -1.000000000000000000, 0.0000000000000000000, 1.224646799147353454E-16 ) ) ;
#195 = DIRECTION ( 'NONE',  ( 1.000000000000000000, 0.0000000000000000000, -0.0000000000000000000 ) ) ;
#196 = PRODUCT_DEFINITION ( 'UNKNOWN', '', #37, #153 ) ;
#197 = CARTESIAN_POINT ( 'NONE',  ( 1.872825028598994811E-33, 0.0000000000000000000, 1.529277690435257475E-17 ) ) ;
#198 = CIRCLE ( 'NONE', #110, 0.1250000000000000000 ) ;
#199 = LINE ( 'NONE', #138, #43 ) ;
#200 = ORIENTED_EDGE ( 'NONE', *, *, #247, .T. ) ;
#201 = ORIENTED_EDGE ( 'NONE', *, *, #218, .F. ) ;
#202 = VECTOR ( 'NONE', #221, 39.37007874015748143 ) ;
#203 = CIRCLE ( 'NONE', #34, 0.1100000000000001948 ) ;
#204 = ORIENTED_EDGE ( 'NONE', *, *, #271, .T. ) ;
#205 = SURFACE_SIDE_STYLE ('',( #24 ) ) ;
#206 = EDGE_CURVE ( 'NONE', #214, #248, #18, .T. ) ;
#207 = SURFACE_SIDE_STYLE ('',( #117 ) ) ;
#208 = AXIS2_PLACEMENT_3D ( 'NONE', #166, #13, #31 ) ;
#209 =( CONVERSION_BASED_UNIT ( 'INCH', #229 ) LENGTH_UNIT ( ) NAMED_UNIT ( #135 ) );
#210 = ORIENTED_EDGE ( 'NONE', *, *, #273, .T. ) ;
#211 = ADVANCED_FACE ( 'NONE', ( #219 ), #144, .F. ) ;
#212 = VERTEX_POINT ( 'NONE', #287 ) ;
#213 =( LENGTH_UNIT ( ) NAMED_UNIT ( * ) SI_UNIT ( $, .METRE. ) );
#214 = VERTEX_POINT ( 'NONE', #173 ) ;
#215 = CONICAL_SURFACE ( 'NONE', #84, 0.1248750000000000276, 0.1745329251994338082 ) ;
#216 = LENGTH_MEASURE_WITH_UNIT ( LENGTH_MEASURE( 0.02539999999999999897 ), #213 );
#217 = ADVANCED_BREP_SHAPE_REPRESENTATION ( 'Micro_SFL-250-43', ( #63, #145 ), #112 ) ;
#218 = EDGE_CURVE ( 'NONE', #103, #212, #96, .T. ) ;
#219 = FACE_OUTER_BOUND ( 'NONE', #296, .T. ) ;
#220 = AXIS2_PLACEMENT_3D ( 'NONE', #33, #290, #14 ) ;
#221 = DIRECTION ( 'NONE',  ( 0.7071067811865499042, 8.659560562354961208E-17, -0.7071067811865451302 ) ) ;
#222 = EDGE_CURVE ( 'NONE', #72, #260, #162, .T. ) ;
#223 = CARTESIAN_POINT ( 'NONE',  ( 0.0000000000000000000, 0.0000000000000000000, 2.500000000000000000 ) ) ;
#224 = AXIS2_PLACEMENT_3D ( 'NONE', #56, #192, #195 ) ;
#225 = VERTEX_POINT ( 'NONE', #274 ) ;
#226 = ORIENTED_EDGE ( 'NONE', *, *, #182, .F. ) ;
#227 = AXIS2_PLACEMENT_3D ( 'NONE', #286, #242, #240 ) ;
#228 = FILL_AREA_STYLE ('',( #137 ) ) ;
#229 = LENGTH_MEASURE_WITH_UNIT ( LENGTH_MEASURE( 0.02539999999999999897 ), #249 );
#230 =( LENGTH_UNIT ( ) NAMED_UNIT ( * ) SI_UNIT ( $, .METRE. ) );
#231 = DIRECTION ( 'NONE',  ( 0.0000000000000000000, 0.0000000000000000000, 1.000000000000000000 ) ) ;
#232 = ORIENTED_EDGE ( 'NONE', *, *, #67, .T. ) ;
#233 = CARTESIAN_POINT ( 'NONE',  ( 0.1250000000000000000, 1.530808498934191509E-17, 2.485000000000000320 ) ) ;
#234 = ORIENTED_EDGE ( 'NONE', *, *, #222, .T. ) ;
#235 = SHAPE_DEFINITION_REPRESENTATION ( #259, #217 ) ;
#236 = DIRECTION ( 'NONE',  ( -1.224646799147353207E-16, -0.0000000000000000000, -1.000000000000000000 ) ) ;
#237 = AXIS2_PLACEMENT_3D ( 'NONE', #105, #38, #238 ) ;
#238 = DIRECTION ( 'NONE',  ( -1.000000000000000000, 0.0000000000000000000, 1.224646799147353454E-16 ) ) ;
#239 = FACE_OUTER_BOUND ( 'NONE', #62, .T. ) ;
#240 = DIRECTION ( 'NONE',  ( 1.000000000000000000, 0.0000000000000000000, 0.0000000000000000000 ) ) ;
#241 = VECTOR ( 'NONE', #61, 39.37007874015748143 ) ;
#242 = DIRECTION ( 'NONE',  ( -1.224646799147353207E-16, -0.0000000000000000000, -1.000000000000000000 ) ) ;
#243 = CARTESIAN_POINT ( 'NONE',  ( 0.0000000000000000000, 0.0000000000000000000, 2.500000000000000000 ) ) ;
#244 =( NAMED_UNIT ( * ) PLANE_ANGLE_UNIT ( ) SI_UNIT ( $, .RADIAN. ) );
#245 = EDGE_LOOP ( 'NONE', ( #101, #283, #210, #64 ) ) ;
#246 = AXIS2_PLACEMENT_3D ( 'NONE', #168, #53, #147 ) ;
#247 = EDGE_CURVE ( 'NONE', #52, #29, #152, .T. ) ;
#248 = VERTEX_POINT ( 'NONE', #2 ) ;
#249 =( LENGTH_UNIT ( ) NAMED_UNIT ( * ) SI_UNIT ( $, .METRE. ) );
#250 = AXIS2_PLACEMENT_3D ( 'NONE', #20, #159, #1 ) ;
#251 = EDGE_LOOP ( 'NONE', ( #201, #232, #226, #91 ) ) ;
#252 = SURFACE_STYLE_USAGE ( .BOTH. , #205 ) ;
#253 = ORIENTED_EDGE ( 'NONE', *, *, #298, .F. ) ;
#254 = DIRECTION ( 'NONE',  ( 0.0000000000000000000, 0.0000000000000000000, -1.000000000000000000 ) ) ;
#255 = ORIENTED_EDGE ( 'NONE', *, *, #50, .F. ) ;
#256 = EDGE_CURVE ( 'NONE', #212, #103, #203, .T. ) ;
#257 = AXIS2_PLACEMENT_3D ( 'NONE', #95, #75, #142 ) ;
#258 = CARTESIAN_POINT ( 'NONE',  ( -0.1250000000000000000, 0.0000000000000000000, 2.485000000000000320 ) ) ;
#259 = PRODUCT_DEFINITION_SHAPE ( 'NONE', 'NONE',  #196 ) ;
#260 = VERTEX_POINT ( 'NONE', #70 ) ;
#261 =( NAMED_UNIT ( * ) PLANE_ANGLE_UNIT ( ) SI_UNIT ( $, .RADIAN. ) );
#262 = DIRECTION ( 'NONE',  ( 1.000000000000000000, 0.0000000000000000000, 0.0000000000000000000 ) ) ;
#263 = CARTESIAN_POINT ( 'NONE',  ( 0.0000000000000000000, 0.0000000000000000000, 0.0000000000000000000 ) ) ;
#264 = MECHANICAL_DESIGN_GEOMETRIC_PRESENTATION_REPRESENTATION (  '', ( #149 ), #41 ) ;
#265 = CARTESIAN_POINT ( 'NONE',  ( 0.1248750000000000276, 1.529277690435257783E-17, -1.529277690435257783E-17 ) ) ;
#266 = DIRECTION ( 'NONE',  ( -1.224646799147353207E-16, -0.0000000000000000000, -1.000000000000000000 ) ) ;
#267 = CYLINDRICAL_SURFACE ( 'NONE', #187, 0.1248750000000000276 ) ;
#268 = VECTOR ( 'NONE', #123, 39.37007874015747433 ) ;
#269 = CIRCLE ( 'NONE', #246, 0.1250000000000000000 ) ;
#270 = DIRECTION ( 'NONE',  ( -1.000000000000000000, 0.0000000000000000000, 0.0000000000000000000 ) ) ;
#271 = EDGE_CURVE ( 'NONE', #52, #248, #151, .T. ) ;
#272 = UNCERTAINTY_MEASURE_WITH_UNIT (LENGTH_MEASURE( 1.000000000000000082E-05 ), #183, 'distance_accuracy_value', 'NONE');
#273 = EDGE_CURVE ( 'NONE', #72, #248, #39, .T. ) ;
#274 = CARTESIAN_POINT ( 'NONE',  ( 0.1248749999999999999, 1.529277690435257475E-17, 1.895600338963814870E-33 ) ) ;
#275 = EDGE_LOOP ( 'NONE', ( #280, #200, #113, #255 ) ) ;
#276 = VECTOR ( 'NONE', #4, 39.37007874015748143 ) ;
#277 = STYLED_ITEM ( 'NONE', ( #45 ), #217 ) ;
#278 = CARTESIAN_POINT ( 'NONE',  ( 0.0000000000000000000, 0.0000000000000000000, 2.500000000000000000 ) ) ;
#279 = APPLICATION_PROTOCOL_DEFINITION ( 'draft international standard', 'automotive_design', 1998, #87 ) ;
#280 = ORIENTED_EDGE ( 'NONE', *, *, #271, .F. ) ;
#281 = ADVANCED_FACE ( 'NONE', ( #97 ), #136, .T. ) ;
#282 = PRODUCT_CONTEXT ( 'NONE', #87, 'mechanical' ) ;
#283 = ORIENTED_EDGE ( 'NONE', *, *, #222, .F. ) ;
#284 = ORIENTED_EDGE ( 'NONE', *, *, #182, .T. ) ;
#285 = ORIENTED_EDGE ( 'NONE', *, *, #295, .T. ) ;
#286 = CARTESIAN_POINT ( 'NONE',  ( 4.601107143211894218E-17, 0.0000000000000000000, 0.3757089102274520087 ) ) ;
#287 = CARTESIAN_POINT ( 'NONE',  ( -0.1100000000000001948, 0.0000000000000000000, 2.500000000000000000 ) ) ;
#288 = AXIS2_PLACEMENT_3D ( 'NONE', #155, #86, #270 ) ;
#289 = ADVANCED_FACE ( 'NONE', ( #16 ), #215, .T. ) ;
#290 = DIRECTION ( 'NONE',  ( -0.0000000000000000000, -0.0000000000000000000, -1.000000000000000000 ) ) ;
#291 = PLANE ( 'NONE',  #224 ) ;
#292 = CARTESIAN_POINT ( 'NONE',  ( -0.1250000000000000000, 0.0000000000000000000, 2.500000000000000000 ) ) ;
#293 = AXIS2_PLACEMENT_3D ( 'NONE', #278, #141, #100 ) ;
#294 = DIRECTION ( 'NONE',  ( -1.000000000000000000, 0.0000000000000000000, 0.0000000000000000000 ) ) ;
#295 = EDGE_CURVE ( 'NONE', #260, #132, #199, .T. ) ;
#296 = EDGE_LOOP ( 'NONE', ( #27, #175 ) ) ;
#297 = AXIS2_PLACEMENT_3D ( 'NONE', #263, #54, #126 ) ;
#298 = EDGE_CURVE ( 'NONE', #260, #72, #124, .T. ) ;
#299 = COLOUR_RGB ( '',0.7921568627450980005, 0.8196078431372548767, 0.9333333333333333481 ) ;
ENDSEC;
END-ISO-10303-21;
