ISO-10303-21;
HEADER;
FILE_DESCRIPTION (( 'STEP AP214' ),
    '1' );
FILE_NAME ('59528.STEP',
    '2023-07-24T15:48:29',
    ( '' ),
    ( '' ),
    'SwSTEP 2.0',
    'SolidWorks 2023',
    '' );
FILE_SCHEMA (( 'AUTOMOTIVE_DESIGN' ));
ENDSEC;

DATA;
#1 = PRESENTATION_STYLE_ASSIGNMENT (( #254 ) ) ;
#2 = APPLICATION_PROTOCOL_DEFINITION ( 'draft international standard', 'automotive_design', 1998, #154 ) ;
#3 =( NAMED_UNIT ( * ) SI_UNIT ( $, .STERADIAN. ) SOLID_ANGLE_UNIT ( ) );
#4 = VERTEX_POINT ( 'NONE', #44 ) ;
#5 = CLOSED_SHELL ( 'NONE', ( #34, #217, #261, #97 ) ) ;
#6 = AXIS2_PLACEMENT_3D ( 'NONE', #208, #21, #78 ) ;
#7 = SURFACE_STYLE_USAGE ( .BOTH. , #152 ) ;
#8 = PRODUCT_DEFINITION_CONTEXT ( 'detailed design', #239, 'design' ) ;
#9 = DIRECTION ( 'NONE',  ( -0.000000000000000000, -1.000000000000000000, -0.000000000000000000 ) ) ;
#10 = CIRCLE ( 'NONE', #160, 8.000000000000000000 ) ;
#11 = ADVANCED_BREP_SHAPE_REPRESENTATION ( '59528', ( #166, #170, #173 ), #20 ) ;
#12 = PRODUCT_DEFINITION_FORMATION_WITH_SPECIFIED_SOURCE ( 'ANY', '', #258, .NOT_KNOWN. ) ;
#13 = EDGE_CURVE ( 'NONE', #57, #207, #253, .T. ) ;
#14 = FILL_AREA_STYLE_COLOUR ( '', #35 ) ;
#15 = ORIENTED_EDGE ( 'NONE', *, *, #171, .T. ) ;
#16 = DIRECTION ( 'NONE',  ( -1.000000000000000000, 0.000000000000000000, 0.000000000000000000 ) ) ;
#17 = EDGE_CURVE ( 'NONE', #4, #54, #183, .T. ) ;
#18 = ORIENTED_EDGE ( 'NONE', *, *, #17, .F. ) ;
#19 = AXIS2_PLACEMENT_3D ( 'NONE', #121, #212, #23 ) ;
#20 =( GEOMETRIC_REPRESENTATION_CONTEXT ( 3 ) GLOBAL_UNCERTAINTY_ASSIGNED_CONTEXT ( ( #149 ) ) GLOBAL_UNIT_ASSIGNED_CONTEXT ( ( #169, #268, #191 ) ) REPRESENTATION_CONTEXT ( 'NONE', 'WORKASPACE' ) );
#21 = DIRECTION ( 'NONE',  ( -0.000000000000000000, -1.000000000000000000, -0.000000000000000000 ) ) ;
#22 = DIRECTION ( 'NONE',  ( -0.000000000000000000, -1.000000000000000000, -0.000000000000000000 ) ) ;
#23 = DIRECTION ( 'NONE',  ( -1.000000000000000000, 0.000000000000000000, 0.000000000000000000 ) ) ;
#24 = MECHANICAL_DESIGN_GEOMETRIC_PRESENTATION_REPRESENTATION (  '', ( #284 ), #134 ) ;
#25 = SURFACE_STYLE_USAGE ( .BOTH. , #236 ) ;
#26 = DIRECTION ( 'NONE',  ( -1.000000000000000000, 0.000000000000000000, 0.000000000000000000 ) ) ;
#27 = FILL_AREA_STYLE ('',( #161 ) ) ;
#28 = DIRECTION ( 'NONE',  ( -2.637700798163528719E-17, 1.000000000000000000, -0.000000000000000000 ) ) ;
#29 = DIRECTION ( 'NONE',  ( 0.000000000000000000, 1.000000000000000000, 0.000000000000000000 ) ) ;
#30 = PRESENTATION_LAYER_ASSIGNMENT (  '', '', ( #141 ) ) ;
#31 = CIRCLE ( 'NONE', #247, 8.000000000000000000 ) ;
#32 = UNCERTAINTY_MEASURE_WITH_UNIT (LENGTH_MEASURE( 1.000000000000000082E-05 ), #148, 'distance_accuracy_value', 'NONE');
#33 = PLANE ( 'NONE',  #128 ) ;
#34 = ADVANCED_FACE ( 'NONE', ( #219 ), #188, .T. ) ;
#35 = COLOUR_RGB ( '',0.7921568627450980005, 0.8196078431372548767, 0.9333333333333333481 ) ;
#36 = FILL_AREA_STYLE ('',( #266 ) ) ;
#37 = EDGE_CURVE ( 'NONE', #265, #57, #255, .T. ) ;
#38 = COLOUR_RGB ( '',1.000000000000000000, 0.000000000000000000, 0.000000000000000000 ) ;
#39 = DIRECTION ( 'NONE',  ( -2.637700798163528719E-17, 1.000000000000000000, -0.000000000000000000 ) ) ;
#40 = DIRECTION ( 'NONE',  ( 0.000000000000000000, -1.000000000000000000, -0.000000000000000000 ) ) ;
#41 = VERTEX_POINT ( 'NONE', #83 ) ;
#42 = SURFACE_STYLE_USAGE ( .BOTH. , #184 ) ;
#43 = FILL_AREA_STYLE ('',( #112 ) ) ;
#44 = CARTESIAN_POINT ( 'NONE',  ( -8.000000000000000000, 23.99999999999999289, 0.000000000000000000 ) ) ;
#45 = DIRECTION ( 'NONE',  ( -0.000000000000000000, -1.000000000000000000, -0.000000000000000000 ) ) ;
#46 = EDGE_CURVE ( 'NONE', #265, #41, #271, .T. ) ;
#47 = CARTESIAN_POINT ( 'NONE',  ( -8.000000000000001776, 89.00000000000000000, 0.000000000000000000 ) ) ;
#48 = PRESENTATION_LAYER_ASSIGNMENT (  '', '', ( #86 ) ) ;
#49 = DIRECTION ( 'NONE',  ( 0.000000000000000000, -0.000000000000000000, 1.000000000000000000 ) ) ;
#50 = CIRCLE ( 'NONE', #240, 8.000000000000000000 ) ;
#51 = COLOUR_RGB ( '',1.000000000000000000, 0.000000000000000000, 0.000000000000000000 ) ;
#52 = DIRECTION ( 'NONE',  ( 0.000000000000000000, 0.000000000000000000, -1.000000000000000000 ) ) ;
#53 = AXIS2_PLACEMENT_3D ( 'NONE', #107, #45, #80 ) ;
#54 = VERTEX_POINT ( 'NONE', #237 ) ;
#55 = SURFACE_STYLE_FILL_AREA ( #43 ) ;
#56 = VERTEX_POINT ( 'NONE', #288 ) ;
#57 = VERTEX_POINT ( 'NONE', #168 ) ;
#58 = EDGE_LOOP ( 'NONE', ( #144, #62, #181, #136 ) ) ;
#59 = PRODUCT_DEFINITION ( 'UNKNOWN', '', #12, #8 ) ;
#60 = CARTESIAN_POINT ( 'NONE',  ( 0.000000000000000000, 23.99999999999999289, 0.000000000000000000 ) ) ;
#61 = DIRECTION ( 'NONE',  ( 0.000000000000000000, 0.000000000000000000, -1.000000000000000000 ) ) ;
#62 = ORIENTED_EDGE ( 'NONE', *, *, #264, .T. ) ;
#63 = SURFACE_STYLE_FILL_AREA ( #36 ) ;
#64 = FACE_OUTER_BOUND ( 'NONE', #225, .T. ) ;
#65 = CARTESIAN_POINT ( 'NONE',  ( 0.000000000000000000, 0.000000000000000000, 0.000000000000000000 ) ) ;
#66 = EDGE_CURVE ( 'NONE', #140, #54, #133, .T. ) ;
#67 = AXIS2_PLACEMENT_3D ( 'NONE', #210, #22, #99 ) ;
#68 = COLOUR_RGB ( '',0.7921568627450980005, 0.8196078431372548767, 0.9333333333333333481 ) ;
#69 = CARTESIAN_POINT ( 'NONE',  ( 0.000000000000000000, 0.000000000000000000, 0.000000000000000000 ) ) ;
#70 = PRESENTATION_LAYER_ASSIGNMENT (  '', '', ( #185 ) ) ;
#71 = ORIENTED_EDGE ( 'NONE', *, *, #46, .F. ) ;
#72 = DIRECTION ( 'NONE',  ( 0.000000000000000000, 0.000000000000000000, -1.000000000000000000 ) ) ;
#73 = FILL_AREA_STYLE ('',( #135 ) ) ;
#74 = DIRECTION ( 'NONE',  ( 0.000000000000000000, 0.000000000000000000, -1.000000000000000000 ) ) ;
#75 = DIRECTION ( 'NONE',  ( -0.000000000000000000, -1.000000000000000000, -0.000000000000000000 ) ) ;
#76 = SURFACE_STYLE_FILL_AREA ( #27 ) ;
#77 = MECHANICAL_DESIGN_GEOMETRIC_PRESENTATION_REPRESENTATION (  '', ( #141 ), #88 ) ;
#78 = DIRECTION ( 'NONE',  ( 0.000000000000000000, 0.000000000000000000, -1.000000000000000000 ) ) ;
#79 = MECHANICAL_DESIGN_GEOMETRIC_PRESENTATION_REPRESENTATION (  '', ( #185 ), #117 ) ;
#80 = DIRECTION ( 'NONE',  ( 0.000000000000000000, 0.000000000000000000, -1.000000000000000000 ) ) ;
#81 = DIRECTION ( 'NONE',  ( -2.637700798163528719E-17, 1.000000000000000000, -0.000000000000000000 ) ) ;
#82 = SURFACE_SIDE_STYLE ('',( #286 ) ) ;
#83 = CARTESIAN_POINT ( 'NONE',  ( 9.797174393178825657E-16, 24.00000000000000000, 8.000000000000000000 ) ) ;
#84 = APPLICATION_PROTOCOL_DEFINITION ( 'draft international standard', 'automotive_design', 1998, #239 ) ;
#85 = DIRECTION ( 'NONE',  ( 2.637700798163528719E-17, -1.000000000000000000, 0.000000000000000000 ) ) ;
#86 = STYLED_ITEM ( 'NONE', ( #234 ), #246 ) ;
#87 = UNCERTAINTY_MEASURE_WITH_UNIT (LENGTH_MEASURE( 1.000000000000000082E-05 ), #256, 'distance_accuracy_value', 'NONE');
#88 =( GEOMETRIC_REPRESENTATION_CONTEXT ( 3 ) GLOBAL_UNCERTAINTY_ASSIGNED_CONTEXT ( ( #172 ) ) GLOBAL_UNIT_ASSIGNED_CONTEXT ( ( #193, #94, #142 ) ) REPRESENTATION_CONTEXT ( 'NONE', 'WORKASPACE' ) );
#89 =( LENGTH_UNIT ( ) NAMED_UNIT ( * ) SI_UNIT ( .MILLI., .METRE. ) );
#90 = CARTESIAN_POINT ( 'NONE',  ( 8.000000000000000000, 89.00000000000000000, 9.797174393178825657E-16 ) ) ;
#91 = ORIENTED_EDGE ( 'NONE', *, *, #171, .F. ) ;
#92 = VECTOR ( 'NONE', #123, 1000.000000000000000 ) ;
#93 = EDGE_LOOP ( 'NONE', ( #71, #198 ) ) ;
#94 =( NAMED_UNIT ( * ) PLANE_ANGLE_UNIT ( ) SI_UNIT ( $, .RADIAN. ) );
#95 = EDGE_LOOP ( 'NONE', ( #245, #175, #274, #91 ) ) ;
#96 = CYLINDRICAL_SURFACE ( 'NONE', #108, 8.000000000000000000 ) ;
#97 = ADVANCED_FACE ( 'NONE', ( #187 ), #164, .F. ) ;
#98 = FACE_OUTER_BOUND ( 'NONE', #93, .T. ) ;
#99 = DIRECTION ( 'NONE',  ( 0.000000000000000000, 0.000000000000000000, -1.000000000000000000 ) ) ;
#100 = CARTESIAN_POINT ( 'NONE',  ( -1.714505518806293849E-15, 89.00000000000000000, 0.000000000000000000 ) ) ;
#101 = PLANE ( 'NONE',  #155 ) ;
#102 = CYLINDRICAL_SURFACE ( 'NONE', #6, 8.000000000000000000 ) ;
#103 = PRESENTATION_LAYER_ASSIGNMENT (  '', '', ( #284 ) ) ;
#104 =( NAMED_UNIT ( * ) PLANE_ANGLE_UNIT ( ) SI_UNIT ( $, .RADIAN. ) );
#105 = ADVANCED_FACE ( 'NONE', ( #64 ), #33, .T. ) ;
#106 = DIRECTION ( 'NONE',  ( -0.000000000000000000, -1.000000000000000000, -0.000000000000000000 ) ) ;
#107 = CARTESIAN_POINT ( 'NONE',  ( 0.000000000000000000, 0.000000000000000000, 0.000000000000000000 ) ) ;
#108 = AXIS2_PLACEMENT_3D ( 'NONE', #100, #81, #182 ) ;
#109 = DIRECTION ( 'NONE',  ( 1.000000000000000000, 2.637700798163528719E-17, 0.000000000000000000 ) ) ;
#110 = AXIS2_PLACEMENT_3D ( 'NONE', #147, #29, #49 ) ;
#111 = CIRCLE ( 'NONE', #150, 8.000000000000001776 ) ;
#112 = FILL_AREA_STYLE_COLOUR ( '', #38 ) ;
#113 = EDGE_LOOP ( 'NONE', ( #139, #248, #252, #18 ) ) ;
#114 = CARTESIAN_POINT ( 'NONE',  ( 0.000000000000000000, 23.99999999999999289, 0.000000000000000000 ) ) ;
#115 = SURFACE_STYLE_USAGE ( .BOTH. , #159 ) ;
#116 = EDGE_LOOP ( 'NONE', ( #278, #250 ) ) ;
#117 =( GEOMETRIC_REPRESENTATION_CONTEXT ( 3 ) GLOBAL_UNCERTAINTY_ASSIGNED_CONTEXT ( ( #129 ) ) GLOBAL_UNIT_ASSIGNED_CONTEXT ( ( #89, #176, #206 ) ) REPRESENTATION_CONTEXT ( 'NONE', 'WORKASPACE' ) );
#118 = PRESENTATION_STYLE_ASSIGNMENT (( #115 ) ) ;
#119 = CARTESIAN_POINT ( 'NONE',  ( 0.000000000000000000, 24.00000000000000000, -8.000000000000000000 ) ) ;
#120 =( NAMED_UNIT ( * ) SI_UNIT ( $, .STERADIAN. ) SOLID_ANGLE_UNIT ( ) );
#121 = CARTESIAN_POINT ( 'NONE',  ( -1.714505518806293849E-15, 89.00000000000000000, 0.000000000000000000 ) ) ;
#122 = SURFACE_STYLE_FILL_AREA ( #163 ) ;
#123 = DIRECTION ( 'NONE',  ( -2.637700798163528719E-17, 1.000000000000000000, -0.000000000000000000 ) ) ;
#124 = DIRECTION ( 'NONE',  ( 0.000000000000000000, 0.000000000000000000, 1.000000000000000000 ) ) ;
#125 = COLOUR_RGB ( '',1.000000000000000000, 0.000000000000000000, 0.000000000000000000 ) ;
#126 = SURFACE_STYLE_USAGE ( .BOTH. , #82 ) ;
#127 = CARTESIAN_POINT ( 'NONE',  ( 9.797174393178825657E-16, 0.000000000000000000, 8.000000000000000000 ) ) ;
#128 = AXIS2_PLACEMENT_3D ( 'NONE', #279, #40, #72 ) ;
#129 = UNCERTAINTY_MEASURE_WITH_UNIT (LENGTH_MEASURE( 1.000000000000000082E-05 ), #89, 'distance_accuracy_value', 'NONE');
#130 =( GEOMETRIC_REPRESENTATION_CONTEXT ( 3 ) GLOBAL_UNCERTAINTY_ASSIGNED_CONTEXT ( ( #195 ) ) GLOBAL_UNIT_ASSIGNED_CONTEXT ( ( #259, #232, #120 ) ) REPRESENTATION_CONTEXT ( 'NONE', 'WORKASPACE' ) );
#131 = PRESENTATION_STYLE_ASSIGNMENT (( #7 ) ) ;
#132 = EDGE_CURVE ( 'NONE', #56, #4, #10, .T. ) ;
#133 = CIRCLE ( 'NONE', #19, 8.000000000000001776 ) ;
#134 =( GEOMETRIC_REPRESENTATION_CONTEXT ( 3 ) GLOBAL_UNCERTAINTY_ASSIGNED_CONTEXT ( ( #267 ) ) GLOBAL_UNIT_ASSIGNED_CONTEXT ( ( #263, #189, #145 ) ) REPRESENTATION_CONTEXT ( 'NONE', 'WORKASPACE' ) );
#135 = FILL_AREA_STYLE_COLOUR ( '', #125 ) ;
#136 = ORIENTED_EDGE ( 'NONE', *, *, #37, .F. ) ;
#137 = COLOUR_RGB ( '',1.000000000000000000, 0.000000000000000000, 0.000000000000000000 ) ;
#138 = EDGE_LOOP ( 'NONE', ( #158, #281, #200, #223 ) ) ;
#139 = ORIENTED_EDGE ( 'NONE', *, *, #287, .T. ) ;
#140 = VERTEX_POINT ( 'NONE', #90 ) ;
#141 = STYLED_ITEM ( 'NONE', ( #131 ), #105 ) ;
#142 =( NAMED_UNIT ( * ) SI_UNIT ( $, .STERADIAN. ) SOLID_ANGLE_UNIT ( ) );
#143 = PRESENTATION_LAYER_ASSIGNMENT (  '', '', ( #214 ) ) ;
#144 = ORIENTED_EDGE ( 'NONE', *, *, #46, .T. ) ;
#145 =( NAMED_UNIT ( * ) SI_UNIT ( $, .STERADIAN. ) SOLID_ANGLE_UNIT ( ) );
#146 = EDGE_CURVE ( 'NONE', #41, #265, #50, .T. ) ;
#147 = CARTESIAN_POINT ( 'NONE',  ( 0.000000000000000000, 24.00000000000000000, 0.000000000000000000 ) ) ;
#148 =( LENGTH_UNIT ( ) NAMED_UNIT ( * ) SI_UNIT ( .MILLI., .METRE. ) );
#149 = UNCERTAINTY_MEASURE_WITH_UNIT (LENGTH_MEASURE( 1.000000000000000082E-05 ), #169, 'distance_accuracy_value', 'NONE');
#150 = AXIS2_PLACEMENT_3D ( 'NONE', #199, #277, #157 ) ;
#151 = MECHANICAL_DESIGN_GEOMETRIC_PRESENTATION_REPRESENTATION (  '', ( #192 ), #241 ) ;
#152 = SURFACE_SIDE_STYLE ('',( #63 ) ) ;
#153 = EDGE_CURVE ( 'NONE', #54, #140, #111, .T. ) ;
#154 = APPLICATION_CONTEXT ( 'automotive_design' ) ;
#155 = AXIS2_PLACEMENT_3D ( 'NONE', #221, #197, #178 ) ;
#156 = ADVANCED_FACE ( 'NONE', ( #229 ), #249, .T. ) ;
#157 = DIRECTION ( 'NONE',  ( -1.000000000000000000, 0.000000000000000000, 0.000000000000000000 ) ) ;
#158 = ORIENTED_EDGE ( 'NONE', *, *, #242, .F. ) ;
#159 = SURFACE_SIDE_STYLE ('',( #55 ) ) ;
#160 = AXIS2_PLACEMENT_3D ( 'NONE', #114, #180, #222 ) ;
#161 = FILL_AREA_STYLE_COLOUR ( '', #137 ) ;
#162 = DIRECTION ( 'NONE',  ( -0.000000000000000000, -1.000000000000000000, -0.000000000000000000 ) ) ;
#163 = FILL_AREA_STYLE ('',( #14 ) ) ;
#164 = PLANE ( 'NONE',  #167 ) ;
#165 = FILL_AREA_STYLE_COLOUR ( '', #68 ) ;
#166 = MANIFOLD_SOLID_BREP ( 'Revolve - Cutting Edge', #235 ) ;
#167 = AXIS2_PLACEMENT_3D ( 'NONE', #269, #85, #109 ) ;
#168 = CARTESIAN_POINT ( 'NONE',  ( 0.000000000000000000, 0.000000000000000000, -8.000000000000000000 ) ) ;
#169 =( LENGTH_UNIT ( ) NAMED_UNIT ( * ) SI_UNIT ( .MILLI., .METRE. ) );
#170 = MANIFOLD_SOLID_BREP ( 'Revolve - Tool Body (Straight Shanked)', #5 ) ;
#171 = EDGE_CURVE ( 'NONE', #207, #57, #272, .T. ) ;
#172 = UNCERTAINTY_MEASURE_WITH_UNIT (LENGTH_MEASURE( 1.000000000000000082E-05 ), #193, 'distance_accuracy_value', 'NONE');
#173 = AXIS2_PLACEMENT_3D ( 'NONE', #65, #124, #220 ) ;
#174 = CARTESIAN_POINT ( 'NONE',  ( 0.000000000000000000, 24.00000000000000000, 0.000000000000000000 ) ) ;
#175 = ORIENTED_EDGE ( 'NONE', *, *, #146, .T. ) ;
#176 =( NAMED_UNIT ( * ) PLANE_ANGLE_UNIT ( ) SI_UNIT ( $, .RADIAN. ) );
#177 = ORIENTED_EDGE ( 'NONE', *, *, #132, .F. ) ;
#178 = DIRECTION ( 'NONE',  ( -1.000000000000000000, -2.637700798163528719E-17, 0.000000000000000000 ) ) ;
#179 = ORIENTED_EDGE ( 'NONE', *, *, #13, .T. ) ;
#180 = DIRECTION ( 'NONE',  ( -2.637700798163528719E-17, 1.000000000000000000, -0.000000000000000000 ) ) ;
#181 = ORIENTED_EDGE ( 'NONE', *, *, #13, .F. ) ;
#182 = DIRECTION ( 'NONE',  ( -1.000000000000000000, 0.000000000000000000, 0.000000000000000000 ) ) ;
#183 = LINE ( 'NONE', #47, #92 ) ;
#184 = SURFACE_SIDE_STYLE ('',( #226 ) ) ;
#185 = STYLED_ITEM ( 'NONE', ( #118 ), #156 ) ;
#186 = VECTOR ( 'NONE', #39, 1000.000000000000000 ) ;
#187 = FACE_OUTER_BOUND ( 'NONE', #116, .T. ) ;
#188 = CYLINDRICAL_SURFACE ( 'NONE', #283, 8.000000000000000000 ) ;
#189 =( NAMED_UNIT ( * ) PLANE_ANGLE_UNIT ( ) SI_UNIT ( $, .RADIAN. ) );
#190 = FILL_AREA_STYLE ('',( #165 ) ) ;
#191 =( NAMED_UNIT ( * ) SI_UNIT ( $, .STERADIAN. ) SOLID_ANGLE_UNIT ( ) );
#192 = STYLED_ITEM ( 'NONE', ( #285 ), #166 ) ;
#193 =( LENGTH_UNIT ( ) NAMED_UNIT ( * ) SI_UNIT ( .MILLI., .METRE. ) );
#194 = SHAPE_DEFINITION_REPRESENTATION ( #213, #11 ) ;
#195 = UNCERTAINTY_MEASURE_WITH_UNIT (LENGTH_MEASURE( 1.000000000000000082E-05 ), #259, 'distance_accuracy_value', 'NONE');
#196 = AXIS2_PLACEMENT_3D ( 'NONE', #69, #244, #52 ) ;
#197 = DIRECTION ( 'NONE',  ( -2.637700798163528719E-17, 1.000000000000000000, 0.000000000000000000 ) ) ;
#198 = ORIENTED_EDGE ( 'NONE', *, *, #146, .F. ) ;
#199 = CARTESIAN_POINT ( 'NONE',  ( -1.714505518806293849E-15, 89.00000000000000000, 0.000000000000000000 ) ) ;
#200 = ORIENTED_EDGE ( 'NONE', *, *, #17, .T. ) ;
#201 = DIRECTION ( 'NONE',  ( -2.637700798163528719E-17, 1.000000000000000000, -0.000000000000000000 ) ) ;
#202 = FACE_OUTER_BOUND ( 'NONE', #95, .T. ) ;
#203 = ADVANCED_FACE ( 'NONE', ( #98 ), #216, .T. ) ;
#204 = EDGE_LOOP ( 'NONE', ( #230, #177 ) ) ;
#205 = PRESENTATION_LAYER_ASSIGNMENT (  '', '', ( #192 ) ) ;
#206 =( NAMED_UNIT ( * ) SI_UNIT ( $, .STERADIAN. ) SOLID_ANGLE_UNIT ( ) );
#207 = VERTEX_POINT ( 'NONE', #127 ) ;
#208 = CARTESIAN_POINT ( 'NONE',  ( 0.000000000000000000, 0.000000000000000000, 0.000000000000000000 ) ) ;
#209 = PRESENTATION_STYLE_ASSIGNMENT (( #126 ) ) ;
#210 = CARTESIAN_POINT ( 'NONE',  ( 0.000000000000000000, 0.000000000000000000, 0.000000000000000000 ) ) ;
#211 = FACE_OUTER_BOUND ( 'NONE', #204, .T. ) ;
#212 = DIRECTION ( 'NONE',  ( -2.637700798163528719E-17, 1.000000000000000000, -0.000000000000000000 ) ) ;
#213 = PRODUCT_DEFINITION_SHAPE ( 'NONE', 'NONE',  #59 ) ;
#214 = STYLED_ITEM ( 'NONE', ( #1 ), #203 ) ;
#215 = CARTESIAN_POINT ( 'NONE',  ( 0.000000000000000000, 0.000000000000000000, -8.000000000000000000 ) ) ;
#216 = PLANE ( 'NONE',  #110 ) ;
#217 = ADVANCED_FACE ( 'NONE', ( #211 ), #101, .F. ) ;
#218 = CARTESIAN_POINT ( 'NONE',  ( -1.714505518806293849E-15, 89.00000000000000000, 0.000000000000000000 ) ) ;
#219 = FACE_OUTER_BOUND ( 'NONE', #113, .T. ) ;
#220 = DIRECTION ( 'NONE',  ( 1.000000000000000000, 0.000000000000000000, 0.000000000000000000 ) ) ;
#221 = CARTESIAN_POINT ( 'NONE',  ( 2.782986200253006795E-33, 24.00000000000000000, 0.000000000000000000 ) ) ;
#222 = DIRECTION ( 'NONE',  ( -1.000000000000000000, 0.000000000000000000, 0.000000000000000000 ) ) ;
#223 = ORIENTED_EDGE ( 'NONE', *, *, #66, .F. ) ;
#224 = LINE ( 'NONE', #276, #186 ) ;
#225 = EDGE_LOOP ( 'NONE', ( #179, #15 ) ) ;
#226 = SURFACE_STYLE_FILL_AREA ( #73 ) ;
#227 = VECTOR ( 'NONE', #106, 1000.000000000000000 ) ;
#228 = MECHANICAL_DESIGN_GEOMETRIC_PRESENTATION_REPRESENTATION (  '', ( #86 ), #275 ) ;
#229 = FACE_OUTER_BOUND ( 'NONE', #58, .T. ) ;
#230 = ORIENTED_EDGE ( 'NONE', *, *, #287, .F. ) ;
#231 = FACE_OUTER_BOUND ( 'NONE', #138, .T. ) ;
#232 =( NAMED_UNIT ( * ) PLANE_ANGLE_UNIT ( ) SI_UNIT ( $, .RADIAN. ) );
#233 =( NAMED_UNIT ( * ) PLANE_ANGLE_UNIT ( ) SI_UNIT ( $, .RADIAN. ) );
#234 = PRESENTATION_STYLE_ASSIGNMENT (( #42 ) ) ;
#235 = CLOSED_SHELL ( 'NONE', ( #156, #203, #246, #105 ) ) ;
#236 = SURFACE_SIDE_STYLE ('',( #122 ) ) ;
#237 = CARTESIAN_POINT ( 'NONE',  ( -8.000000000000003553, 89.00000000000000000, 0.000000000000000000 ) ) ;
#238 = CARTESIAN_POINT ( 'NONE',  ( 0.000000000000000000, 24.00000000000000000, 0.000000000000000000 ) ) ;
#239 = APPLICATION_CONTEXT ( 'automotive_design' ) ;
#240 = AXIS2_PLACEMENT_3D ( 'NONE', #174, #9, #74 ) ;
#241 =( GEOMETRIC_REPRESENTATION_CONTEXT ( 3 ) GLOBAL_UNCERTAINTY_ASSIGNED_CONTEXT ( ( #32 ) ) GLOBAL_UNIT_ASSIGNED_CONTEXT ( ( #148, #104, #3 ) ) REPRESENTATION_CONTEXT ( 'NONE', 'WORKASPACE' ) );
#242 = EDGE_CURVE ( 'NONE', #56, #140, #224, .T. ) ;
#243 = MECHANICAL_DESIGN_GEOMETRIC_PRESENTATION_REPRESENTATION (  '', ( #214 ), #130 ) ;
#244 = DIRECTION ( 'NONE',  ( -0.000000000000000000, -1.000000000000000000, -0.000000000000000000 ) ) ;
#245 = ORIENTED_EDGE ( 'NONE', *, *, #264, .F. ) ;
#246 = ADVANCED_FACE ( 'NONE', ( #202 ), #102, .T. ) ;
#247 = AXIS2_PLACEMENT_3D ( 'NONE', #60, #201, #16 ) ;
#248 = ORIENTED_EDGE ( 'NONE', *, *, #242, .T. ) ;
#249 = CYLINDRICAL_SURFACE ( 'NONE', #196, 8.000000000000000000 ) ;
#250 = ORIENTED_EDGE ( 'NONE', *, *, #66, .T. ) ;
#251 =( NAMED_UNIT ( * ) SI_UNIT ( $, .STERADIAN. ) SOLID_ANGLE_UNIT ( ) );
#252 = ORIENTED_EDGE ( 'NONE', *, *, #153, .F. ) ;
#253 = CIRCLE ( 'NONE', #67, 8.000000000000000000 ) ;
#254 = SURFACE_STYLE_USAGE ( .BOTH. , #257 ) ;
#255 = LINE ( 'NONE', #215, #227 ) ;
#256 =( LENGTH_UNIT ( ) NAMED_UNIT ( * ) SI_UNIT ( .MILLI., .METRE. ) );
#257 = SURFACE_SIDE_STYLE ('',( #76 ) ) ;
#258 = PRODUCT ( '59528', '59528', '', ( #260 ) ) ;
#259 =( LENGTH_UNIT ( ) NAMED_UNIT ( * ) SI_UNIT ( .MILLI., .METRE. ) );
#260 = PRODUCT_CONTEXT ( 'NONE', #154, 'mechanical' ) ;
#261 = ADVANCED_FACE ( 'NONE', ( #231 ), #96, .T. ) ;
#262 = AXIS2_PLACEMENT_3D ( 'NONE', #238, #162, #61 ) ;
#263 =( LENGTH_UNIT ( ) NAMED_UNIT ( * ) SI_UNIT ( .MILLI., .METRE. ) );
#264 = EDGE_CURVE ( 'NONE', #41, #207, #280, .T. ) ;
#265 = VERTEX_POINT ( 'NONE', #119 ) ;
#266 = FILL_AREA_STYLE_COLOUR ( '', #51 ) ;
#267 = UNCERTAINTY_MEASURE_WITH_UNIT (LENGTH_MEASURE( 1.000000000000000082E-05 ), #263, 'distance_accuracy_value', 'NONE');
#268 =( NAMED_UNIT ( * ) PLANE_ANGLE_UNIT ( ) SI_UNIT ( $, .RADIAN. ) );
#269 = CARTESIAN_POINT ( 'NONE',  ( 8.000000000000000000, 89.00000000000000000, 0.000000000000000000 ) ) ;
#270 = PRODUCT_RELATED_PRODUCT_CATEGORY ( 'part', '', ( #258 ) ) ;
#271 = CIRCLE ( 'NONE', #262, 8.000000000000000000 ) ;
#272 = CIRCLE ( 'NONE', #53, 8.000000000000000000 ) ;
#273 = VECTOR ( 'NONE', #75, 1000.000000000000000 ) ;
#274 = ORIENTED_EDGE ( 'NONE', *, *, #37, .T. ) ;
#275 =( GEOMETRIC_REPRESENTATION_CONTEXT ( 3 ) GLOBAL_UNCERTAINTY_ASSIGNED_CONTEXT ( ( #87 ) ) GLOBAL_UNIT_ASSIGNED_CONTEXT ( ( #256, #233, #251 ) ) REPRESENTATION_CONTEXT ( 'NONE', 'WORKASPACE' ) );
#276 = CARTESIAN_POINT ( 'NONE',  ( 7.999999999999998224, 89.00000000000000000, 9.797174393178825657E-16 ) ) ;
#277 = DIRECTION ( 'NONE',  ( -2.637700798163528719E-17, 1.000000000000000000, -0.000000000000000000 ) ) ;
#278 = ORIENTED_EDGE ( 'NONE', *, *, #153, .T. ) ;
#279 = CARTESIAN_POINT ( 'NONE',  ( 0.000000000000000000, 0.000000000000000000, 0.000000000000000000 ) ) ;
#280 = LINE ( 'NONE', #282, #273 ) ;
#281 = ORIENTED_EDGE ( 'NONE', *, *, #132, .T. ) ;
#282 = CARTESIAN_POINT ( 'NONE',  ( 9.797174393178825657E-16, 0.000000000000000000, 8.000000000000000000 ) ) ;
#283 = AXIS2_PLACEMENT_3D ( 'NONE', #218, #28, #26 ) ;
#284 = STYLED_ITEM ( 'NONE', ( #209 ), #170 ) ;
#285 = PRESENTATION_STYLE_ASSIGNMENT (( #25 ) ) ;
#286 = SURFACE_STYLE_FILL_AREA ( #190 ) ;
#287 = EDGE_CURVE ( 'NONE', #4, #56, #31, .T. ) ;
#288 = CARTESIAN_POINT ( 'NONE',  ( 8.000000000000000000, 23.99999999999999289, 9.797174393178825657E-16 ) ) ;
ENDSEC;
END-ISO-10303-21;
