ISO-10303-21;
HEADER;
FILE_DESCRIPTION (( 'STEP AP214' ),
    '1' );
FILE_NAME ('Micro_RSC-187-23.STEP',
    '2021-09-03T17:46:03',
    ( '' ),
    ( '' ),
    'SwSTEP 2.0',
    'SolidWorks 2020',
    '' );
FILE_SCHEMA (( 'AUTOMOTIVE_DESIGN' ));
ENDSEC;

DATA;
#1 = VERTEX_POINT ( 'NONE', #118 ) ;
#2 = SURFACE_STYLE_USAGE ( .BOTH. , #188 ) ;
#3 = ORIENTED_EDGE ( 'NONE', *, *, #148, .T. ) ;
#4 = CARTESIAN_POINT ( 'NONE',  ( 0.0000000000000000000, 0.0000000000000000000, 0.0000000000000000000 ) ) ;
#5 = LINE ( 'NONE', #17, #87 ) ;
#6 = DIRECTION ( 'NONE',  ( -1.000000000000000000, 0.0000000000000000000, 0.0000000000000000000 ) ) ;
#7 = EDGE_CURVE ( 'NONE', #137, #214, #69, .T. ) ;
#8 = ORIENTED_EDGE ( 'NONE', *, *, #19, .T. ) ;
#9 = CARTESIAN_POINT ( 'NONE',  ( 0.0000000000000000000, 0.0000000000000000000, 0.0000000000000000000 ) ) ;
#10 = CONICAL_SURFACE ( 'NONE', #79, 0.003999999999999999216, 0.5235987755983003700 ) ;
#11 = DIRECTION ( 'NONE',  ( -0.5000000000000012212, -6.123233995736780827E-17, -0.8660254037844377084 ) ) ;
#12 = PRODUCT_DEFINITION_CONTEXT ( 'detailed design', #59, 'design' ) ;
#13 = DIRECTION ( 'NONE',  ( 0.0000000000000000000, 0.0000000000000000000, -1.000000000000000000 ) ) ;
#14 = UNCERTAINTY_MEASURE_WITH_UNIT (LENGTH_MEASURE( 1.000000000000000082E-05 ), #123, 'distance_accuracy_value', 'NONE');
#15 = ADVANCED_BREP_SHAPE_REPRESENTATION ( 'Micro_RSC-187-23', ( #126, #89 ), #37 ) ;
#16 = CARTESIAN_POINT ( 'NONE',  ( 0.0000000000000000000, 0.0000000000000000000, 0.1554515599793062086 ) ) ;
#17 = CARTESIAN_POINT ( 'NONE',  ( 0.003999999999999999216, 0.0000000000000000000, 3.000000000000000444 ) ) ;
#18 = CARTESIAN_POINT ( 'NONE',  ( -0.09375000000000001388, 0.0000000000000000000, 0.1554515599793062086 ) ) ;
#19 = EDGE_CURVE ( 'NONE', #142, #138, #68, .T. ) ;
#20 = ORIENTED_EDGE ( 'NONE', *, *, #151, .F. ) ;
#21 = VERTEX_POINT ( 'NONE', #18 ) ;
#22 = CARTESIAN_POINT ( 'NONE',  ( 0.0000000000000000000, 0.0000000000000000000, 3.000000000000000444 ) ) ;
#23 = LENGTH_MEASURE_WITH_UNIT ( LENGTH_MEASURE( 0.02539999999999999897 ), #200 );
#24 = VECTOR ( 'NONE', #35, 39.37007874015748854 ) ;
#25 = STYLED_ITEM ( 'NONE', ( #175 ), #15 ) ;
#26 = DIRECTION ( 'NONE',  ( 0.0000000000000000000, 0.0000000000000000000, -1.000000000000000000 ) ) ;
#27 = COLOUR_RGB ( '',0.7921568627450980005, 0.8196078431372548767, 0.9333333333333333481 ) ;
#28 = EDGE_CURVE ( 'NONE', #21, #36, #234, .T. ) ;
#29 = CIRCLE ( 'NONE', #42, 0.003999999999999999216 ) ;
#30 = DIRECTION ( 'NONE',  ( -1.000000000000000000, 0.0000000000000000000, 0.0000000000000000000 ) ) ;
#31 = EDGE_CURVE ( 'NONE', #36, #21, #84, .T. ) ;
#32 =( NAMED_UNIT ( * ) PLANE_ANGLE_UNIT ( ) SI_UNIT ( $, .RADIAN. ) );
#33 = CONICAL_SURFACE ( 'NONE', #183, 0.003999999999999999216, 0.5235987755983003700 ) ;
#34 = DIRECTION ( 'NONE',  ( -1.000000000000000000, 0.0000000000000000000, 0.0000000000000000000 ) ) ;
#35 = DIRECTION ( 'NONE',  ( 0.5000000000000012212, 0.0000000000000000000, 0.8660254037844377084 ) ) ;
#36 = VERTEX_POINT ( 'NONE', #99 ) ;
#37 =( GEOMETRIC_REPRESENTATION_CONTEXT ( 3 ) GLOBAL_UNCERTAINTY_ASSIGNED_CONTEXT ( ( #246 ) ) GLOBAL_UNIT_ASSIGNED_CONTEXT ( ( #156, #46, #86 ) ) REPRESENTATION_CONTEXT ( 'NONE', 'WORKASPACE' ) );
#38 = CARTESIAN_POINT ( 'NONE',  ( 0.0000000000000000000, 0.0000000000000000000, 3.000000000000000444 ) ) ;
#39 = ORIENTED_EDGE ( 'NONE', *, *, #130, .F. ) ;
#40 = ORIENTED_EDGE ( 'NONE', *, *, #230, .F. ) ;
#41 = DIRECTION ( 'NONE',  ( -0.0000000000000000000, -0.0000000000000000000, -1.000000000000000000 ) ) ;
#42 = AXIS2_PLACEMENT_3D ( 'NONE', #182, #128, #66 ) ;
#43 = FACE_OUTER_BOUND ( 'NONE', #121, .T. ) ;
#44 = EDGE_CURVE ( 'NONE', #138, #214, #5, .T. ) ;
#45 = LINE ( 'NONE', #242, #113 ) ;
#46 =( NAMED_UNIT ( * ) PLANE_ANGLE_UNIT ( ) SI_UNIT ( $, .RADIAN. ) );
#47 =( LENGTH_UNIT ( ) NAMED_UNIT ( * ) SI_UNIT ( $, .METRE. ) );
#48 = AXIS2_PLACEMENT_3D ( 'NONE', #80, #163, #184 ) ;
#49 = CARTESIAN_POINT ( 'NONE',  ( 0.0000000000000000000, 0.0000000000000000000, 0.0000000000000000000 ) ) ;
#50 = ORIENTED_EDGE ( 'NONE', *, *, #130, .T. ) ;
#51 = LENGTH_MEASURE_WITH_UNIT ( LENGTH_MEASURE( 0.02539999999999999897 ), #91 );
#52 = VECTOR ( 'NONE', #67, 39.37007874015748854 ) ;
#53 = EDGE_LOOP ( 'NONE', ( #212, #177 ) ) ;
#54 = ORIENTED_EDGE ( 'NONE', *, *, #65, .F. ) ;
#55 = MECHANICAL_DESIGN_GEOMETRIC_PRESENTATION_REPRESENTATION (  '', ( #25 ), #131 ) ;
#56 = ORIENTED_EDGE ( 'NONE', *, *, #7, .T. ) ;
#57 = AXIS2_PLACEMENT_3D ( 'NONE', #209, #154, #6 ) ;
#58 = VERTEX_POINT ( 'NONE', #235 ) ;
#59 = APPLICATION_CONTEXT ( 'automotive_design' ) ;
#60 = DIMENSIONAL_EXPONENTS ( 1.000000000000000000, 0.0000000000000000000, 0.0000000000000000000, 0.0000000000000000000, 0.0000000000000000000, 0.0000000000000000000, 0.0000000000000000000 ) ;
#61 = CYLINDRICAL_SURFACE ( 'NONE', #221, 0.09375000000000001388 ) ;
#62 = DIRECTION ( 'NONE',  ( 1.000000000000000000, 0.0000000000000000000, 0.0000000000000000000 ) ) ;
#63 = EDGE_CURVE ( 'NONE', #214, #137, #124, .T. ) ;
#64 = FACE_OUTER_BOUND ( 'NONE', #216, .T. ) ;
#65 = EDGE_CURVE ( 'NONE', #58, #1, #29, .T. ) ;
#66 = DIRECTION ( 'NONE',  ( -1.000000000000000000, 0.0000000000000000000, 0.0000000000000000000 ) ) ;
#67 = DIRECTION ( 'NONE',  ( -0.5000000000000012212, 6.123233995736780827E-17, 0.8660254037844377084 ) ) ;
#68 = CIRCLE ( 'NONE', #201, 0.003999999999999999216 ) ;
#69 = CIRCLE ( 'NONE', #57, 0.09375000000000001388 ) ;
#70 = LINE ( 'NONE', #71, #24 ) ;
#71 = CARTESIAN_POINT ( 'NONE',  ( 0.003999999999999999216, 0.0000000000000000000, 0.0000000000000000000 ) ) ;
#72 = ORIENTED_EDGE ( 'NONE', *, *, #148, .F. ) ;
#73 = ORIENTED_EDGE ( 'NONE', *, *, #63, .F. ) ;
#74 = ORIENTED_EDGE ( 'NONE', *, *, #225, .F. ) ;
#75 =( NAMED_UNIT ( * ) SI_UNIT ( $, .STERADIAN. ) SOLID_ANGLE_UNIT ( ) );
#76 = ORIENTED_EDGE ( 'NONE', *, *, #28, .F. ) ;
#77 = CARTESIAN_POINT ( 'NONE',  ( 0.0000000000000000000, 0.0000000000000000000, 0.0000000000000000000 ) ) ;
#78 = ORIENTED_EDGE ( 'NONE', *, *, #219, .F. ) ;
#79 = AXIS2_PLACEMENT_3D ( 'NONE', #9, #203, #62 ) ;
#80 = CARTESIAN_POINT ( 'NONE',  ( 0.0000000000000000000, 0.0000000000000000000, 3.000000000000000444 ) ) ;
#81 = SURFACE_STYLE_FILL_AREA ( #83 ) ;
#82 = DIRECTION ( 'NONE',  ( -0.0000000000000000000, -0.0000000000000000000, -1.000000000000000000 ) ) ;
#83 = FILL_AREA_STYLE ('',( #125 ) ) ;
#84 = CIRCLE ( 'NONE', #110, 0.09375000000000001388 ) ;
#85 = CARTESIAN_POINT ( 'NONE',  ( 0.0000000000000000000, 0.0000000000000000000, 3.000000000000000444 ) ) ;
#86 =( NAMED_UNIT ( * ) SI_UNIT ( $, .STERADIAN. ) SOLID_ANGLE_UNIT ( ) );
#87 = VECTOR ( 'NONE', #157, 39.37007874015748854 ) ;
#88 = ADVANCED_FACE ( 'NONE', ( #144 ), #189, .T. ) ;
#89 = AXIS2_PLACEMENT_3D ( 'NONE', #77, #139, #213 ) ;
#90 = ADVANCED_FACE ( 'NONE', ( #64 ), #10, .T. ) ;
#91 =( LENGTH_UNIT ( ) NAMED_UNIT ( * ) SI_UNIT ( $, .METRE. ) );
#92 = AXIS2_PLACEMENT_3D ( 'NONE', #122, #26, #240 ) ;
#93 = FILL_AREA_STYLE_COLOUR ( '', #27 ) ;
#94 = DIRECTION ( 'NONE',  ( -1.000000000000000000, 0.0000000000000000000, 0.0000000000000000000 ) ) ;
#95 = DIRECTION ( 'NONE',  ( 1.000000000000000000, 0.0000000000000000000, 0.0000000000000000000 ) ) ;
#96 = ORIENTED_EDGE ( 'NONE', *, *, #63, .T. ) ;
#97 = ADVANCED_FACE ( 'NONE', ( #222 ), #61, .T. ) ;
#98 = DIRECTION ( 'NONE',  ( 1.000000000000000000, 0.0000000000000000000, -0.0000000000000000000 ) ) ;
#99 = CARTESIAN_POINT ( 'NONE',  ( 0.09375000000000001388, 1.148106374200643401E-17, 0.1554515599793062086 ) ) ;
#100 = EDGE_LOOP ( 'NONE', ( #193, #238 ) ) ;
#101 = ORIENTED_EDGE ( 'NONE', *, *, #44, .F. ) ;
#102 = DIMENSIONAL_EXPONENTS ( 1.000000000000000000, 0.0000000000000000000, 0.0000000000000000000, 0.0000000000000000000, 0.0000000000000000000, 0.0000000000000000000, 0.0000000000000000000 ) ;
#103 = PRODUCT_DEFINITION ( 'UNKNOWN', '', #241, #12 ) ;
#104 = LINE ( 'NONE', #185, #192 ) ;
#105 = AXIS2_PLACEMENT_3D ( 'NONE', #49, #211, #98 ) ;
#106 =( NAMED_UNIT ( * ) SI_UNIT ( $, .STERADIAN. ) SOLID_ANGLE_UNIT ( ) );
#107 = ADVANCED_FACE ( 'NONE', ( #43 ), #145, .T. ) ;
#108 = CARTESIAN_POINT ( 'NONE',  ( 0.003999999999999999216, 0.0000000000000000000, 3.000000000000000444 ) ) ;
#109 = DIRECTION ( 'NONE',  ( 1.000000000000000000, 0.0000000000000000000, 0.0000000000000000000 ) ) ;
#110 = AXIS2_PLACEMENT_3D ( 'NONE', #179, #231, #34 ) ;
#111 = PRODUCT ( 'Micro_RSC-187-23', 'Micro_RSC-187-23', '', ( #215 ) ) ;
#112 = LINE ( 'NONE', #190, #52 ) ;
#113 = VECTOR ( 'NONE', #82, 39.37007874015748143 ) ;
#114 = DIRECTION ( 'NONE',  ( 0.0000000000000000000, 0.0000000000000000000, 1.000000000000000000 ) ) ;
#115 = DIRECTION ( 'NONE',  ( -0.0000000000000000000, -0.0000000000000000000, -1.000000000000000000 ) ) ;
#116 = PLANE ( 'NONE',  #153 ) ;
#117 = ORIENTED_EDGE ( 'NONE', *, *, #31, .F. ) ;
#118 = CARTESIAN_POINT ( 'NONE',  ( 0.003999999999999999216, 0.0000000000000000000, 0.0000000000000000000 ) ) ;
#119 = APPLICATION_PROTOCOL_DEFINITION ( 'draft international standard', 'automotive_design', 1998, #59 ) ;
#120 = CIRCLE ( 'NONE', #210, 0.003999999999999999216 ) ;
#121 = EDGE_LOOP ( 'NONE', ( #56, #3, #76, #20 ) ) ;
#122 = CARTESIAN_POINT ( 'NONE',  ( 0.0000000000000000000, 0.0000000000000000000, 2.844548440020694180 ) ) ;
#123 =( CONVERSION_BASED_UNIT ( 'INCH', #23 ) LENGTH_UNIT ( ) NAMED_UNIT ( #102 ) );
#124 = CIRCLE ( 'NONE', #92, 0.09375000000000001388 ) ;
#125 = FILL_AREA_STYLE_COLOUR ( '', #162 ) ;
#126 = MANIFOLD_SOLID_BREP ( 'Mirror1', #205 ) ;
#127 = DIRECTION ( 'NONE',  ( -1.000000000000000000, 0.0000000000000000000, 0.0000000000000000000 ) ) ;
#128 = DIRECTION ( 'NONE',  ( -0.0000000000000000000, -0.0000000000000000000, -1.000000000000000000 ) ) ;
#129 = PRESENTATION_LAYER_ASSIGNMENT (  '', '', ( #141 ) ) ;
#130 = EDGE_CURVE ( 'NONE', #142, #137, #245, .T. ) ;
#131 =( GEOMETRIC_REPRESENTATION_CONTEXT ( 3 ) GLOBAL_UNCERTAINTY_ASSIGNED_CONTEXT ( ( #152 ) ) GLOBAL_UNIT_ASSIGNED_CONTEXT ( ( #169, #32, #75 ) ) REPRESENTATION_CONTEXT ( 'NONE', 'WORKASPACE' ) );
#132 = LENGTH_MEASURE_WITH_UNIT ( LENGTH_MEASURE( 0.02539999999999999897 ), #47 );
#133 = PLANE ( 'NONE',  #105 ) ;
#134 = ORIENTED_EDGE ( 'NONE', *, *, #225, .T. ) ;
#135 = CONICAL_SURFACE ( 'NONE', #248, 0.003999999999999999216, 0.5235987755983003700 ) ;
#136 = DIRECTION ( 'NONE',  ( -0.0000000000000000000, -0.0000000000000000000, -1.000000000000000000 ) ) ;
#137 = VERTEX_POINT ( 'NONE', #244 ) ;
#138 = VERTEX_POINT ( 'NONE', #108 ) ;
#139 = DIRECTION ( 'NONE',  ( 0.0000000000000000000, 0.0000000000000000000, 1.000000000000000000 ) ) ;
#140 = ORIENTED_EDGE ( 'NONE', *, *, #7, .F. ) ;
#141 = STYLED_ITEM ( 'NONE', ( #202 ), #126 ) ;
#142 = VERTEX_POINT ( 'NONE', #164 ) ;
#143 = SHAPE_DEFINITION_REPRESENTATION ( #149, #15 ) ;
#144 = FACE_OUTER_BOUND ( 'NONE', #197, .T. ) ;
#145 = CYLINDRICAL_SURFACE ( 'NONE', #48, 0.09375000000000001388 ) ;
#146 = DIRECTION ( 'NONE',  ( 1.000000000000000000, 0.0000000000000000000, 0.0000000000000000000 ) ) ;
#147 = DIRECTION ( 'NONE',  ( -0.0000000000000000000, -0.0000000000000000000, -1.000000000000000000 ) ) ;
#148 = EDGE_CURVE ( 'NONE', #214, #36, #104, .T. ) ;
#149 = PRODUCT_DEFINITION_SHAPE ( 'NONE', 'NONE',  #103 ) ;
#150 = CARTESIAN_POINT ( 'NONE',  ( 0.0000000000000000000, 0.0000000000000000000, 0.0000000000000000000 ) ) ;
#151 = EDGE_CURVE ( 'NONE', #137, #21, #45, .T. ) ;
#152 = UNCERTAINTY_MEASURE_WITH_UNIT (LENGTH_MEASURE( 1.000000000000000082E-05 ), #169, 'distance_accuracy_value', 'NONE');
#153 = AXIS2_PLACEMENT_3D ( 'NONE', #178, #228, #172 ) ;
#154 = DIRECTION ( 'NONE',  ( 0.0000000000000000000, 0.0000000000000000000, -1.000000000000000000 ) ) ;
#155 = CIRCLE ( 'NONE', #198, 0.003999999999999999216 ) ;
#156 =( CONVERSION_BASED_UNIT ( 'INCH', #132 ) LENGTH_UNIT ( ) NAMED_UNIT ( #60 ) );
#157 = DIRECTION ( 'NONE',  ( 0.5000000000000012212, 0.0000000000000000000, -0.8660254037844377084 ) ) ;
#158 = ADVANCED_FACE ( 'NONE', ( #165 ), #33, .T. ) ;
#159 = DIMENSIONAL_EXPONENTS ( 1.000000000000000000, 0.0000000000000000000, 0.0000000000000000000, 0.0000000000000000000, 0.0000000000000000000, 0.0000000000000000000, 0.0000000000000000000 ) ;
#160 = ORIENTED_EDGE ( 'NONE', *, *, #44, .T. ) ;
#161 = ORIENTED_EDGE ( 'NONE', *, *, #31, .T. ) ;
#162 = COLOUR_RGB ( '',0.7921568627450980005, 0.8196078431372548767, 0.9333333333333333481 ) ;
#163 = DIRECTION ( 'NONE',  ( -0.0000000000000000000, -0.0000000000000000000, -1.000000000000000000 ) ) ;
#164 = CARTESIAN_POINT ( 'NONE',  ( -0.003999999999999999216, -5.985461230832691724E-18, 3.000000000000000444 ) ) ;
#165 = FACE_OUTER_BOUND ( 'NONE', #180, .T. ) ;
#166 = APPLICATION_CONTEXT ( 'automotive_design' ) ;
#167 =( NAMED_UNIT ( * ) PLANE_ANGLE_UNIT ( ) SI_UNIT ( $, .RADIAN. ) );
#168 = SURFACE_SIDE_STYLE ('',( #81 ) ) ;
#169 =( CONVERSION_BASED_UNIT ( 'INCH', #51 ) LENGTH_UNIT ( ) NAMED_UNIT ( #159 ) );
#170 = MECHANICAL_DESIGN_GEOMETRIC_PRESENTATION_REPRESENTATION (  '', ( #141 ), #217 ) ;
#171 = PRESENTATION_LAYER_ASSIGNMENT (  '', '', ( #25 ) ) ;
#172 = DIRECTION ( 'NONE',  ( 1.000000000000000000, 0.0000000000000000000, -0.0000000000000000000 ) ) ;
#173 = CARTESIAN_POINT ( 'NONE',  ( 0.09375000000000001388, 1.148106374200643401E-17, 2.844548440020694180 ) ) ;
#174 = ORIENTED_EDGE ( 'NONE', *, *, #176, .T. ) ;
#175 = PRESENTATION_STYLE_ASSIGNMENT (( #2 ) ) ;
#176 = EDGE_CURVE ( 'NONE', #138, #142, #120, .T. ) ;
#177 = ORIENTED_EDGE ( 'NONE', *, *, #19, .F. ) ;
#178 = CARTESIAN_POINT ( 'NONE',  ( 0.0000000000000000000, 0.0000000000000000000, 3.000000000000000444 ) ) ;
#179 = CARTESIAN_POINT ( 'NONE',  ( 0.0000000000000000000, 0.0000000000000000000, 0.1554515599793062086 ) ) ;
#180 = EDGE_LOOP ( 'NONE', ( #39, #8, #160, #140 ) ) ;
#181 = EDGE_LOOP ( 'NONE', ( #72, #96, #218, #117 ) ) ;
#182 = CARTESIAN_POINT ( 'NONE',  ( 0.0000000000000000000, 0.0000000000000000000, 0.0000000000000000000 ) ) ;
#183 = AXIS2_PLACEMENT_3D ( 'NONE', #243, #204, #109 ) ;
#184 = DIRECTION ( 'NONE',  ( -1.000000000000000000, 0.0000000000000000000, 0.0000000000000000000 ) ) ;
#185 = CARTESIAN_POINT ( 'NONE',  ( 0.09375000000000001388, 1.148106374200643401E-17, 3.000000000000000444 ) ) ;
#186 = ADVANCED_FACE ( 'NONE', ( #195 ), #133, .F. ) ;
#187 = CARTESIAN_POINT ( 'NONE',  ( 0.0000000000000000000, 0.0000000000000000000, 3.000000000000000444 ) ) ;
#188 = SURFACE_SIDE_STYLE ('',( #207 ) ) ;
#189 = CONICAL_SURFACE ( 'NONE', #239, 0.003999999999999999216, 0.5235987755983003700 ) ;
#190 = CARTESIAN_POINT ( 'NONE',  ( -0.003999999999999999216, 4.898587196589411612E-19, 0.0000000000000000000 ) ) ;
#191 = DIRECTION ( 'NONE',  ( 0.0000000000000000000, 0.0000000000000000000, -1.000000000000000000 ) ) ;
#192 = VECTOR ( 'NONE', #147, 39.37007874015748143 ) ;
#193 = ORIENTED_EDGE ( 'NONE', *, *, #230, .T. ) ;
#194 = ADVANCED_FACE ( 'NONE', ( #247 ), #135, .T. ) ;
#195 = FACE_OUTER_BOUND ( 'NONE', #100, .T. ) ;
#196 = DIRECTION ( 'NONE',  ( -1.000000000000000000, 0.0000000000000000000, 0.0000000000000000000 ) ) ;
#197 = EDGE_LOOP ( 'NONE', ( #174, #50, #73, #101 ) ) ;
#198 = AXIS2_PLACEMENT_3D ( 'NONE', #4, #136, #227 ) ;
#199 = ORIENTED_EDGE ( 'NONE', *, *, #28, .T. ) ;
#200 =( LENGTH_UNIT ( ) NAMED_UNIT ( * ) SI_UNIT ( $, .METRE. ) );
#201 = AXIS2_PLACEMENT_3D ( 'NONE', #38, #191, #196 ) ;
#202 = PRESENTATION_STYLE_ASSIGNMENT (( #223 ) ) ;
#203 = DIRECTION ( 'NONE',  ( 0.0000000000000000000, 0.0000000000000000000, 1.000000000000000000 ) ) ;
#204 = DIRECTION ( 'NONE',  ( 0.0000000000000000000, 0.0000000000000000000, -1.000000000000000000 ) ) ;
#205 = CLOSED_SHELL ( 'NONE', ( #88, #90, #107, #97, #194, #186, #158, #237 ) ) ;
#206 = AXIS2_PLACEMENT_3D ( 'NONE', #16, #115, #94 ) ;
#207 = SURFACE_STYLE_FILL_AREA ( #208 ) ;
#208 = FILL_AREA_STYLE ('',( #93 ) ) ;
#209 = CARTESIAN_POINT ( 'NONE',  ( 0.0000000000000000000, 0.0000000000000000000, 2.844548440020694180 ) ) ;
#210 = AXIS2_PLACEMENT_3D ( 'NONE', #187, #224, #30 ) ;
#211 = DIRECTION ( 'NONE',  ( 0.0000000000000000000, 0.0000000000000000000, 1.000000000000000000 ) ) ;
#212 = ORIENTED_EDGE ( 'NONE', *, *, #176, .F. ) ;
#213 = DIRECTION ( 'NONE',  ( 1.000000000000000000, 0.0000000000000000000, 0.0000000000000000000 ) ) ;
#214 = VERTEX_POINT ( 'NONE', #173 ) ;
#215 = PRODUCT_CONTEXT ( 'NONE', #166, 'mechanical' ) ;
#216 = EDGE_LOOP ( 'NONE', ( #54, #134, #199, #78 ) ) ;
#217 =( GEOMETRIC_REPRESENTATION_CONTEXT ( 3 ) GLOBAL_UNCERTAINTY_ASSIGNED_CONTEXT ( ( #14 ) ) GLOBAL_UNIT_ASSIGNED_CONTEXT ( ( #123, #167, #106 ) ) REPRESENTATION_CONTEXT ( 'NONE', 'WORKASPACE' ) );
#218 = ORIENTED_EDGE ( 'NONE', *, *, #151, .T. ) ;
#219 = EDGE_CURVE ( 'NONE', #1, #36, #70, .T. ) ;
#220 = CARTESIAN_POINT ( 'NONE',  ( -0.003999999999999999216, -4.898587196589411612E-19, 3.000000000000000444 ) ) ;
#221 = AXIS2_PLACEMENT_3D ( 'NONE', #22, #41, #127 ) ;
#222 = FACE_OUTER_BOUND ( 'NONE', #181, .T. ) ;
#223 = SURFACE_STYLE_USAGE ( .BOTH. , #168 ) ;
#224 = DIRECTION ( 'NONE',  ( 0.0000000000000000000, 0.0000000000000000000, -1.000000000000000000 ) ) ;
#225 = EDGE_CURVE ( 'NONE', #58, #21, #112, .T. ) ;
#226 = VECTOR ( 'NONE', #11, 39.37007874015748854 ) ;
#227 = DIRECTION ( 'NONE',  ( -1.000000000000000000, 0.0000000000000000000, 0.0000000000000000000 ) ) ;
#228 = DIRECTION ( 'NONE',  ( 0.0000000000000000000, 0.0000000000000000000, 1.000000000000000000 ) ) ;
#229 = PRODUCT_RELATED_PRODUCT_CATEGORY ( 'part', '', ( #111 ) ) ;
#230 = EDGE_CURVE ( 'NONE', #1, #58, #155, .T. ) ;
#231 = DIRECTION ( 'NONE',  ( -0.0000000000000000000, -0.0000000000000000000, -1.000000000000000000 ) ) ;
#232 = FACE_OUTER_BOUND ( 'NONE', #53, .T. ) ;
#233 = EDGE_LOOP ( 'NONE', ( #74, #40, #236, #161 ) ) ;
#234 = CIRCLE ( 'NONE', #206, 0.09375000000000001388 ) ;
#235 = CARTESIAN_POINT ( 'NONE',  ( -0.003999999999999999216, 5.985461230832687873E-18, 0.0000000000000000000 ) ) ;
#236 = ORIENTED_EDGE ( 'NONE', *, *, #219, .T. ) ;
#237 = ADVANCED_FACE ( 'NONE', ( #232 ), #116, .T. ) ;
#238 = ORIENTED_EDGE ( 'NONE', *, *, #65, .T. ) ;
#239 = AXIS2_PLACEMENT_3D ( 'NONE', #85, #13, #146 ) ;
#240 = DIRECTION ( 'NONE',  ( -1.000000000000000000, 0.0000000000000000000, 0.0000000000000000000 ) ) ;
#241 = PRODUCT_DEFINITION_FORMATION_WITH_SPECIFIED_SOURCE ( 'ANY', '', #111, .NOT_KNOWN. ) ;
#242 = CARTESIAN_POINT ( 'NONE',  ( -0.09375000000000001388, 0.0000000000000000000, 3.000000000000000444 ) ) ;
#243 = CARTESIAN_POINT ( 'NONE',  ( 0.0000000000000000000, 0.0000000000000000000, 3.000000000000000444 ) ) ;
#244 = CARTESIAN_POINT ( 'NONE',  ( -0.09375000000000001388, 0.0000000000000000000, 2.844548440020694180 ) ) ;
#245 = LINE ( 'NONE', #220, #226 ) ;
#246 = UNCERTAINTY_MEASURE_WITH_UNIT (LENGTH_MEASURE( 1.000000000000000082E-05 ), #156, 'distance_accuracy_value', 'NONE');
#247 = FACE_OUTER_BOUND ( 'NONE', #233, .T. ) ;
#248 = AXIS2_PLACEMENT_3D ( 'NONE', #150, #114, #95 ) ;
#249 = APPLICATION_PROTOCOL_DEFINITION ( 'draft international standard', 'automotive_design', 1998, #166 ) ;
ENDSEC;
END-ISO-10303-21;
