ISO-10303-21;
HEADER;
FILE_DESCRIPTION (( 'STEP AP214' ),
    '1' );
FILE_NAME ('Micro_BMS-020-2X.STEP',
    '2021-09-03T14:58:05',
    ( '' ),
    ( '' ),
    'SwSTEP 2.0',
    'SolidWorks 2020',
    '' );
FILE_SCHEMA (( 'AUTOMOTIVE_DESIGN' ));
ENDSEC;

DATA;
#1 = EDGE_LOOP ( 'NONE', ( #27, #99, #80 ) ) ;
#2 = EDGE_CURVE ( 'NONE', #100, #139, #295, .T. ) ;
#3 = CIRCLE ( 'NONE', #213, 0.04750000000000064587 ) ;
#4 = DIRECTION ( 'NONE',  ( -1.224646799147353454E-16, -0.0000000000000000000, -1.000000000000000000 ) ) ;
#5 = ORIENTED_EDGE ( 'NONE', *, *, #85, .F. ) ;
#6 = ORIENTED_EDGE ( 'NONE', *, *, #76, .F. ) ;
#7 = SURFACE_STYLE_FILL_AREA ( #138 ) ;
#8 = ADVANCED_FACE ( 'NONE', ( #111 ), #174, .T. ) ;
#9 = ORIENTED_EDGE ( 'NONE', *, *, #224, .F. ) ;
#10 = AXIS2_PLACEMENT_3D ( 'NONE', #229, #104, #252 ) ;
#11 = EDGE_LOOP ( 'NONE', ( #307, #102, #119, #227 ) ) ;
#12 = EDGE_CURVE ( 'NONE', #276, #184, #126, .T. ) ;
#13 = ADVANCED_FACE ( 'NONE', ( #322 ), #156, .T. ) ;
#14 = AXIS2_PLACEMENT_3D ( 'NONE', #38, #150, #324 ) ;
#15 = SURFACE_STYLE_USAGE ( .BOTH. , #60 ) ;
#16 = FACE_OUTER_BOUND ( 'NONE', #128, .T. ) ;
#17 = AXIS2_PLACEMENT_3D ( 'NONE', #220, #314, #203 ) ;
#18 =( NAMED_UNIT ( * ) PLANE_ANGLE_UNIT ( ) SI_UNIT ( $, .RADIAN. ) );
#19 = ADVANCED_BREP_SHAPE_REPRESENTATION ( 'Micro_BMS-020-2X', ( #67, #249 ), #267 ) ;
#20 =( CONVERSION_BASED_UNIT ( 'INCH', #124 ) LENGTH_UNIT ( ) NAMED_UNIT ( #59 ) );
#21 = LINE ( 'NONE', #177, #51 ) ;
#22 = EDGE_CURVE ( 'NONE', #77, #29, #202, .T. ) ;
#23 = CARTESIAN_POINT ( 'NONE',  ( -0.009989999999999995411, 4.438732323509581454E-18, 0.02999999999999999889 ) ) ;
#24 = ORIENTED_EDGE ( 'NONE', *, *, #266, .T. ) ;
#25 = EDGE_CURVE ( 'NONE', #184, #139, #72, .T. ) ;
#26 = DIRECTION ( 'NONE',  ( -1.000000000000000000, 0.0000000000000000000, 1.224646799147353454E-16 ) ) ;
#27 = ORIENTED_EDGE ( 'NONE', *, *, #107, .F. ) ;
#28 = PRODUCT_DEFINITION_CONTEXT ( 'detailed design', #86, 'design' ) ;
#29 = VERTEX_POINT ( 'NONE', #247 ) ;
#30 = SURFACE_SIDE_STYLE ('',( #7 ) ) ;
#31 = AXIS2_PLACEMENT_3D ( 'NONE', #312, #167, #26 ) ;
#32 = EDGE_CURVE ( 'NONE', #73, #139, #21, .T. ) ;
#33 = CARTESIAN_POINT ( 'NONE',  ( -0.04750000000000064587, 0.0000000000000000000, 1.500000000000000222 ) ) ;
#34 = DIRECTION ( 'NONE',  ( 1.000000000000000000, 0.0000000000000000000, 0.0000000000000000000 ) ) ;
#35 = AXIS2_PLACEMENT_3D ( 'NONE', #272, #4, #277 ) ;
#36 = ADVANCED_FACE ( 'NONE', ( #248 ), #190, .T. ) ;
#37 = DIRECTION ( 'NONE',  ( 0.0000000000000000000, 0.0000000000000000000, 1.000000000000000000 ) ) ;
#38 = CARTESIAN_POINT ( 'NONE',  ( 0.0000000000000000000, 0.0000000000000000000, 1.500000000000000222 ) ) ;
#39 = APPLICATION_PROTOCOL_DEFINITION ( 'draft international standard', 'automotive_design', 1998, #176 ) ;
#40 = DIRECTION ( 'NONE',  ( 0.0000000000000000000, 0.0000000000000000000, 1.000000000000000000 ) ) ;
#41 = ORIENTED_EDGE ( 'NONE', *, *, #76, .T. ) ;
#42 = AXIS2_PLACEMENT_3D ( 'NONE', #146, #238, #315 ) ;
#43 = CARTESIAN_POINT ( 'NONE',  ( 0.009990000000000002350, 1.223422152348205941E-18, 0.009989999999999998881 ) ) ;
#44 = PRODUCT_DEFINITION ( 'UNKNOWN', '', #133, #28 ) ;
#45 = ORIENTED_EDGE ( 'NONE', *, *, #198, .F. ) ;
#46 = DIRECTION ( 'NONE',  ( 1.000000000000000000, 0.0000000000000000000, 0.0000000000000000000 ) ) ;
#47 = EDGE_CURVE ( 'NONE', #276, #211, #258, .T. ) ;
#48 = ORIENTED_EDGE ( 'NONE', *, *, #12, .F. ) ;
#49 = CARTESIAN_POINT ( 'NONE',  ( 0.0000000000000000000, 0.0000000000000000000, 1.485000000000000764 ) ) ;
#50 = ORIENTED_EDGE ( 'NONE', *, *, #85, .T. ) ;
#51 = VECTOR ( 'NONE', #270, 39.37007874015748143 ) ;
#52 = DIRECTION ( 'NONE',  ( -0.0000000000000000000, -0.0000000000000000000, -1.000000000000000000 ) ) ;
#53 = ORIENTED_EDGE ( 'NONE', *, *, #198, .T. ) ;
#54 = EDGE_CURVE ( 'NONE', #184, #214, #192, .T. ) ;
#55 = DIRECTION ( 'NONE',  ( 1.224646799147353207E-16, 1.000000000000000000, -0.0000000000000000000 ) ) ;
#56 = ORIENTED_EDGE ( 'NONE', *, *, #299, .F. ) ;
#57 = SURFACE_STYLE_USAGE ( .BOTH. , #30 ) ;
#58 = CIRCLE ( 'NONE', #281, 0.009990000000000000616 ) ;
#59 = DIMENSIONAL_EXPONENTS ( 1.000000000000000000, 0.0000000000000000000, 0.0000000000000000000, 0.0000000000000000000, 0.0000000000000000000, 0.0000000000000000000, 0.0000000000000000000 ) ;
#60 = SURFACE_SIDE_STYLE ('',( #263 ) ) ;
#61 = DIRECTION ( 'NONE',  ( 0.0000000000000000000, 0.0000000000000000000, -1.000000000000000000 ) ) ;
#62 = DIRECTION ( 'NONE',  ( -1.224646799147353454E-16, -0.0000000000000000000, -1.000000000000000000 ) ) ;
#63 = DIRECTION ( 'NONE',  ( 0.0000000000000000000, -1.000000000000000000, 0.0000000000000000000 ) ) ;
#64 = CARTESIAN_POINT ( 'NONE',  ( 0.04750000000000064587, 5.817072295950006528E-18, 1.500000000000000222 ) ) ;
#65 = CARTESIAN_POINT ( 'NONE',  ( 3.673940397442060731E-18, 0.0000000000000000000, 0.02999999999999999889 ) ) ;
#66 = CARTESIAN_POINT ( 'NONE',  ( 0.0000000000000000000, 0.0000000000000000000, 1.500000000000000222 ) ) ;
#67 = MANIFOLD_SOLID_BREP ( 'Fillet1', #113 ) ;
#68 = DIRECTION ( 'NONE',  ( -1.224646799147353454E-16, -0.0000000000000000000, -1.000000000000000000 ) ) ;
#69 = DIRECTION ( 'NONE',  ( 0.0000000000000000000, 0.0000000000000000000, 1.000000000000000000 ) ) ;
#70 = PRESENTATION_LAYER_ASSIGNMENT (  '', '', ( #131 ) ) ;
#71 = VERTEX_POINT ( 'NONE', #141 ) ;
#72 = LINE ( 'NONE', #201, #186 ) ;
#73 = VERTEX_POINT ( 'NONE', #217 ) ;
#74 = CONICAL_SURFACE ( 'NONE', #114, 0.009990000000000000616, 0.1745329251994338637 ) ;
#75 = FACE_OUTER_BOUND ( 'NONE', #231, .T. ) ;
#76 = EDGE_CURVE ( 'NONE', #29, #73, #82, .T. ) ;
#77 = VERTEX_POINT ( 'NONE', #232 ) ;
#78 = DIRECTION ( 'NONE',  ( -1.224646799147353454E-16, -0.0000000000000000000, -1.000000000000000000 ) ) ;
#79 = DIRECTION ( 'NONE',  ( 1.000000000000000000, 0.0000000000000000000, 0.0000000000000000000 ) ) ;
#80 = ORIENTED_EDGE ( 'NONE', *, *, #135, .F. ) ;
#81 = UNCERTAINTY_MEASURE_WITH_UNIT (LENGTH_MEASURE( 1.000000000000000082E-05 ), #108, 'distance_accuracy_value', 'NONE');
#82 = LINE ( 'NONE', #33, #301 ) ;
#83 = AXIS2_PLACEMENT_3D ( 'NONE', #305, #78, #165 ) ;
#84 = VECTOR ( 'NONE', #143, 39.37007874015748143 ) ;
#85 = EDGE_CURVE ( 'NONE', #187, #100, #106, .T. ) ;
#86 = APPLICATION_CONTEXT ( 'automotive_design' ) ;
#87 = CARTESIAN_POINT ( 'NONE',  ( 0.009990000000000004085, 0.0000000000000000000, 0.02999999999999999889 ) ) ;
#88 = PRODUCT_DEFINITION_SHAPE ( 'NONE', 'NONE',  #44 ) ;
#89 = LINE ( 'NONE', #64, #235 ) ;
#90 = CIRCLE ( 'NONE', #191, 0.009990000000000000616 ) ;
#91 = FILL_AREA_STYLE ('',( #317 ) ) ;
#92 = DIRECTION ( 'NONE',  ( -1.000000000000000000, 0.0000000000000000000, 0.0000000000000000000 ) ) ;
#93 =( CONVERSION_BASED_UNIT ( 'INCH', #316 ) LENGTH_UNIT ( ) NAMED_UNIT ( #241 ) );
#94 = AXIS2_PLACEMENT_3D ( 'NONE', #188, #55, #162 ) ;
#95 = CYLINDRICAL_SURFACE ( 'NONE', #226, 0.009990000000000000616 ) ;
#96 = FACE_OUTER_BOUND ( 'NONE', #1, .T. ) ;
#97 = DIRECTION ( 'NONE',  ( 1.000000000000000000, 0.0000000000000000000, 0.0000000000000000000 ) ) ;
#98 = CARTESIAN_POINT ( 'NONE',  ( 0.06250000000000000000, 7.654042494670956004E-18, 1.485000000000000764 ) ) ;
#99 = ORIENTED_EDGE ( 'NONE', *, *, #122, .T. ) ;
#100 = VERTEX_POINT ( 'NONE', #254 ) ;
#101 = DIRECTION ( 'NONE',  ( 0.0000000000000000000, 1.000000000000000000, 0.0000000000000000000 ) ) ;
#102 = ORIENTED_EDGE ( 'NONE', *, *, #12, .T. ) ;
#103 = AXIS2_PLACEMENT_3D ( 'NONE', #222, #68, #92 ) ;
#104 = DIRECTION ( 'NONE',  ( 0.0000000000000000000, 1.000000000000000000, 0.0000000000000000000 ) ) ;
#105 = EDGE_LOOP ( 'NONE', ( #245, #210, #41, #253 ) ) ;
#106 = LINE ( 'NONE', #280, #170 ) ;
#107 = EDGE_CURVE ( 'NONE', #71, #214, #166, .T. ) ;
#108 =( CONVERSION_BASED_UNIT ( 'INCH', #215 ) LENGTH_UNIT ( ) NAMED_UNIT ( #287 ) );
#109 = UNCERTAINTY_MEASURE_WITH_UNIT (LENGTH_MEASURE( 1.000000000000000082E-05 ), #20, 'distance_accuracy_value', 'NONE');
#110 = ADVANCED_FACE ( 'NONE', ( #256 ), #154, .T. ) ;
#111 = FACE_OUTER_BOUND ( 'NONE', #228, .T. ) ;
#112 = CARTESIAN_POINT ( 'NONE',  ( 0.009990000000000000616, 1.223422152348205941E-18, -1.223422152348206134E-18 ) ) ;
#113 = CLOSED_SHELL ( 'NONE', ( #261, #36, #204, #8, #147, #13, #310, #110, #240, #207, #194 ) ) ;
#114 = AXIS2_PLACEMENT_3D ( 'NONE', #65, #269, #199 ) ;
#115 = STYLED_ITEM ( 'NONE', ( #320 ), #19 ) ;
#116 =( NAMED_UNIT ( * ) SI_UNIT ( $, .STERADIAN. ) SOLID_ANGLE_UNIT ( ) );
#117 = APPLICATION_PROTOCOL_DEFINITION ( 'draft international standard', 'automotive_design', 1998, #86 ) ;
#118 = SPHERICAL_SURFACE ( 'NONE', #200, 0.009990000000000000616 ) ;
#119 = ORIENTED_EDGE ( 'NONE', *, *, #54, .T. ) ;
#120 = VECTOR ( 'NONE', #283, 39.37007874015748143 ) ;
#121 = CARTESIAN_POINT ( 'NONE',  ( 0.0000000000000000000, 0.0000000000000000000, 1.500000000000000222 ) ) ;
#122 = EDGE_CURVE ( 'NONE', #71, #211, #58, .T. ) ;
#123 = DIRECTION ( 'NONE',  ( -1.000000000000000000, 0.0000000000000000000, 0.0000000000000000000 ) ) ;
#124 = LENGTH_MEASURE_WITH_UNIT ( LENGTH_MEASURE( 0.02539999999999999897 ), #197 );
#125 = FACE_OUTER_BOUND ( 'NONE', #11, .T. ) ;
#126 = CIRCLE ( 'NONE', #103, 0.009990000000000000616 ) ;
#127 = CARTESIAN_POINT ( 'NONE',  ( 1.223422152348206134E-18, 0.0000000000000000000, 0.009990000000000000616 ) ) ;
#128 = EDGE_LOOP ( 'NONE', ( #193, #48, #130, #180 ) ) ;
#129 = LINE ( 'NONE', #319, #84 ) ;
#130 = ORIENTED_EDGE ( 'NONE', *, *, #224, .T. ) ;
#131 = STYLED_ITEM ( 'NONE', ( #284 ), #67 ) ;
#132 = ORIENTED_EDGE ( 'NONE', *, *, #122, .F. ) ;
#133 = PRODUCT_DEFINITION_FORMATION_WITH_SPECIFIED_SOURCE ( 'ANY', '', #321, .NOT_KNOWN. ) ;
#134 = DIRECTION ( 'NONE',  ( 1.224646799147353454E-16, 0.0000000000000000000, 1.000000000000000000 ) ) ;
#135 = EDGE_CURVE ( 'NONE', #214, #211, #149, .T. ) ;
#136 = ORIENTED_EDGE ( 'NONE', *, *, #278, .T. ) ;
#137 = FILL_AREA_STYLE_COLOUR ( '', #239 ) ;
#138 = FILL_AREA_STYLE ('',( #137 ) ) ;
#139 = VERTEX_POINT ( 'NONE', #205 ) ;
#140 = CIRCLE ( 'NONE', #318, 0.009990000000000000616 ) ;
#141 = CARTESIAN_POINT ( 'NONE',  ( 1.835133228522309201E-18, 0.0000000000000000000, 0.0000000000000000000 ) ) ;
#142 = AXIS2_PLACEMENT_3D ( 'NONE', #121, #271, #123 ) ;
#143 = DIRECTION ( 'NONE',  ( 0.1736481776669313581, 0.0000000000000000000, 0.9848077530122077983 ) ) ;
#144 = DIRECTION ( 'NONE',  ( 0.0000000000000000000, 0.0000000000000000000, -1.000000000000000000 ) ) ;
#145 = FACE_OUTER_BOUND ( 'NONE', #233, .T. ) ;
#146 = CARTESIAN_POINT ( 'NONE',  ( 0.0000000000000000000, 0.0000000000000000000, 1.485000000000000764 ) ) ;
#147 = ADVANCED_FACE ( 'NONE', ( #75 ), #325, .T. ) ;
#148 = CARTESIAN_POINT ( 'NONE',  ( 1.223422152348206134E-18, 0.0000000000000000000, 0.009990000000000000616 ) ) ;
#149 = CIRCLE ( 'NONE', #17, 0.009990000000000000616 ) ;
#150 = DIRECTION ( 'NONE',  ( -0.0000000000000000000, -0.0000000000000000000, -1.000000000000000000 ) ) ;
#151 = SHAPE_DEFINITION_REPRESENTATION ( #88, #19 ) ;
#152 = DIRECTION ( 'NONE',  ( 1.000000000000000000, 0.0000000000000000000, 0.0000000000000000000 ) ) ;
#153 = FACE_OUTER_BOUND ( 'NONE', #255, .T. ) ;
#154 = CONICAL_SURFACE ( 'NONE', #218, 0.04750000000000064587, 0.7853981633974457255 ) ;
#155 = PRESENTATION_LAYER_ASSIGNMENT (  '', '', ( #115 ) ) ;
#156 = CYLINDRICAL_SURFACE ( 'NONE', #14, 0.06250000000000000000 ) ;
#157 = DIRECTION ( 'NONE',  ( 0.0000000000000000000, 0.0000000000000000000, 1.000000000000000000 ) ) ;
#158 = CARTESIAN_POINT ( 'NONE',  ( 1.223422152348206134E-18, 0.0000000000000000000, 0.009990000000000000616 ) ) ;
#159 = CARTESIAN_POINT ( 'NONE',  ( 0.0000000000000000000, 0.0000000000000000000, 1.500000000000000222 ) ) ;
#160 = CONICAL_SURFACE ( 'NONE', #291, 0.009990000000000000616, 0.1745329251994338637 ) ;
#161 = ORIENTED_EDGE ( 'NONE', *, *, #22, .F. ) ;
#162 = DIRECTION ( 'NONE',  ( -1.000000000000000000, 1.224646799147353207E-16, 0.0000000000000000000 ) ) ;
#163 = EDGE_CURVE ( 'NONE', #139, #100, #244, .T. ) ;
#164 = EDGE_LOOP ( 'NONE', ( #5, #24, #309, #223 ) ) ;
#165 = DIRECTION ( 'NONE',  ( 1.000000000000000000, 0.0000000000000000000, 0.0000000000000000000 ) ) ;
#166 = CIRCLE ( 'NONE', #94, 0.009990000000000000616 ) ;
#167 = DIRECTION ( 'NONE',  ( -1.224646799147353454E-16, -0.0000000000000000000, -1.000000000000000000 ) ) ;
#168 = EDGE_CURVE ( 'NONE', #29, #77, #3, .T. ) ;
#169 =( NAMED_UNIT ( * ) PLANE_ANGLE_UNIT ( ) SI_UNIT ( $, .RADIAN. ) );
#170 = VECTOR ( 'NONE', #52, 39.37007874015748143 ) ;
#171 = DIRECTION ( 'NONE',  ( -1.224646799147353454E-16, -0.0000000000000000000, -1.000000000000000000 ) ) ;
#172 = FACE_OUTER_BOUND ( 'NONE', #279, .T. ) ;
#173 = DIRECTION ( 'NONE',  ( 1.000000000000000000, 0.0000000000000000000, 0.0000000000000000000 ) ) ;
#174 = CONICAL_SURFACE ( 'NONE', #142, 0.04750000000000064587, 0.7853981633974457255 ) ;
#175 = DIRECTION ( 'NONE',  ( -1.000000000000000000, 0.0000000000000000000, 2.136392637687893513E-16 ) ) ;
#176 = APPLICATION_CONTEXT ( 'automotive_design' ) ;
#177 = CARTESIAN_POINT ( 'NONE',  ( -0.06250000000000000000, 0.0000000000000000000, 1.500000000000000222 ) ) ;
#178 = DIRECTION ( 'NONE',  ( -1.000000000000000000, 0.0000000000000000000, 0.0000000000000000000 ) ) ;
#179 = AXIS2_PLACEMENT_3D ( 'NONE', #246, #37, #294 ) ;
#180 = ORIENTED_EDGE ( 'NONE', *, *, #2, .T. ) ;
#181 = ORIENTED_EDGE ( 'NONE', *, *, #163, .F. ) ;
#182 = ORIENTED_EDGE ( 'NONE', *, *, #25, .T. ) ;
#183 = DIRECTION ( 'NONE',  ( 0.0000000000000000000, 0.0000000000000000000, -1.000000000000000000 ) ) ;
#184 = VERTEX_POINT ( 'NONE', #23 ) ;
#185 =( NAMED_UNIT ( * ) PLANE_ANGLE_UNIT ( ) SI_UNIT ( $, .RADIAN. ) );
#186 = VECTOR ( 'NONE', #298, 39.37007874015747433 ) ;
#187 = VERTEX_POINT ( 'NONE', #98 ) ;
#188 = CARTESIAN_POINT ( 'NONE',  ( 1.223422152348206134E-18, 0.0000000000000000000, 0.009990000000000000616 ) ) ;
#189 = ORIENTED_EDGE ( 'NONE', *, *, #168, .T. ) ;
#190 = CYLINDRICAL_SURFACE ( 'NONE', #31, 0.009990000000000000616 ) ;
#191 = AXIS2_PLACEMENT_3D ( 'NONE', #158, #134, #175 ) ;
#192 = LINE ( 'NONE', #237, #120 ) ;
#193 = ORIENTED_EDGE ( 'NONE', *, *, #25, .F. ) ;
#194 = ADVANCED_FACE ( 'NONE', ( #96 ), #250, .T. ) ;
#195 = DIRECTION ( 'NONE',  ( 1.224646799147353454E-16, 0.0000000000000000000, 1.000000000000000000 ) ) ;
#196 = DIRECTION ( 'NONE',  ( 0.7071067811865456854, 8.659560562354911904E-17, -0.7071067811865493491 ) ) ;
#197 =( LENGTH_UNIT ( ) NAMED_UNIT ( * ) SI_UNIT ( $, .METRE. ) );
#198 = EDGE_CURVE ( 'NONE', #211, #214, #90, .T. ) ;
#199 = DIRECTION ( 'NONE',  ( 1.000000000000000000, 0.0000000000000000000, 0.0000000000000000000 ) ) ;
#200 = AXIS2_PLACEMENT_3D ( 'NONE', #127, #101, #79 ) ;
#201 = CARTESIAN_POINT ( 'NONE',  ( -0.009989999999999995411, 1.223422152348205941E-18, 0.02999999999999999889 ) ) ;
#202 = CIRCLE ( 'NONE', #259, 0.04750000000000064587 ) ;
#203 = DIRECTION ( 'NONE',  ( -1.000000000000000000, 0.0000000000000000000, 2.136392637687893513E-16 ) ) ;
#204 = ADVANCED_FACE ( 'NONE', ( #153 ), #74, .T. ) ;
#205 = CARTESIAN_POINT ( 'NONE',  ( -0.06249999999999995837, 0.0000000000000000000, 0.3277990083481243100 ) ) ;
#206 = ORIENTED_EDGE ( 'NONE', *, *, #299, .T. ) ;
#207 = ADVANCED_FACE ( 'NONE', ( #125 ), #95, .T. ) ;
#208 = DIRECTION ( 'NONE',  ( -1.000000000000000000, 0.0000000000000000000, 0.0000000000000000000 ) ) ;
#209 = AXIS2_PLACEMENT_3D ( 'NONE', #302, #275, #178 ) ;
#210 = ORIENTED_EDGE ( 'NONE', *, *, #168, .F. ) ;
#211 = VERTEX_POINT ( 'NONE', #43 ) ;
#212 = ORIENTED_EDGE ( 'NONE', *, *, #47, .T. ) ;
#213 = AXIS2_PLACEMENT_3D ( 'NONE', #159, #157, #46 ) ;
#214 = VERTEX_POINT ( 'NONE', #274 ) ;
#215 = LENGTH_MEASURE_WITH_UNIT ( LENGTH_MEASURE( 0.02539999999999999897 ), #234 );
#216 = ORIENTED_EDGE ( 'NONE', *, *, #163, .T. ) ;
#217 = CARTESIAN_POINT ( 'NONE',  ( -0.06250000000000000000, 0.0000000000000000000, 1.485000000000000764 ) ) ;
#218 = AXIS2_PLACEMENT_3D ( 'NONE', #66, #61, #264 ) ;
#219 = EDGE_CURVE ( 'NONE', #73, #187, #297, .T. ) ;
#220 = CARTESIAN_POINT ( 'NONE',  ( 1.223422152348206134E-18, 0.0000000000000000000, 0.009990000000000000616 ) ) ;
#221 = ORIENTED_EDGE ( 'NONE', *, *, #32, .F. ) ;
#222 = CARTESIAN_POINT ( 'NONE',  ( 3.673940397442060731E-18, 0.0000000000000000000, 0.02999999999999999889 ) ) ;
#223 = ORIENTED_EDGE ( 'NONE', *, *, #2, .F. ) ;
#224 = EDGE_CURVE ( 'NONE', #276, #100, #129, .T. ) ;
#225 =( NAMED_UNIT ( * ) SI_UNIT ( $, .STERADIAN. ) SOLID_ANGLE_UNIT ( ) );
#226 = AXIS2_PLACEMENT_3D ( 'NONE', #293, #62, #243 ) ;
#227 = ORIENTED_EDGE ( 'NONE', *, *, #135, .T. ) ;
#228 = EDGE_LOOP ( 'NONE', ( #161, #136, #285, #6 ) ) ;
#229 = CARTESIAN_POINT ( 'NONE',  ( 1.223422152348206134E-18, 0.0000000000000000000, 0.009990000000000000616 ) ) ;
#230 = AXIS2_PLACEMENT_3D ( 'NONE', #49, #183, #97 ) ;
#231 = EDGE_LOOP ( 'NONE', ( #257, #50, #181, #221 ) ) ;
#232 = CARTESIAN_POINT ( 'NONE',  ( 0.04750000000000064587, 6.735557395310482421E-18, 1.500000000000000222 ) ) ;
#233 = EDGE_LOOP ( 'NONE', ( #189, #323 ) ) ;
#234 =( LENGTH_UNIT ( ) NAMED_UNIT ( * ) SI_UNIT ( $, .METRE. ) );
#235 = VECTOR ( 'NONE', #196, 39.37007874015748143 ) ;
#236 = PRODUCT_RELATED_PRODUCT_CATEGORY ( 'part', '', ( #321 ) ) ;
#237 = CARTESIAN_POINT ( 'NONE',  ( -0.009990000000000000616, 0.0000000000000000000, 1.223422152348206134E-18 ) ) ;
#238 = DIRECTION ( 'NONE',  ( 0.0000000000000000000, 0.0000000000000000000, -1.000000000000000000 ) ) ;
#239 = COLOUR_RGB ( '',0.7921568627450980005, 0.8196078431372548767, 0.9333333333333333481 ) ;
#240 = ADVANCED_FACE ( 'NONE', ( #16 ), #160, .T. ) ;
#241 = DIMENSIONAL_EXPONENTS ( 1.000000000000000000, 0.0000000000000000000, 0.0000000000000000000, 0.0000000000000000000, 0.0000000000000000000, 0.0000000000000000000, 0.0000000000000000000 ) ;
#242 = CARTESIAN_POINT ( 'NONE',  ( 0.0000000000000000000, 0.0000000000000000000, 0.0000000000000000000 ) ) ;
#243 = DIRECTION ( 'NONE',  ( -1.000000000000000000, 0.0000000000000000000, 1.224646799147353454E-16 ) ) ;
#244 = CIRCLE ( 'NONE', #35, 0.06250000000000000000 ) ;
#245 = ORIENTED_EDGE ( 'NONE', *, *, #278, .F. ) ;
#246 = CARTESIAN_POINT ( 'NONE',  ( 0.0000000000000000000, 0.0000000000000000000, 1.500000000000000222 ) ) ;
#247 = CARTESIAN_POINT ( 'NONE',  ( -0.04750000000000064587, 0.0000000000000000000, 1.500000000000000222 ) ) ;
#248 = FACE_OUTER_BOUND ( 'NONE', #282, .T. ) ;
#249 = AXIS2_PLACEMENT_3D ( 'NONE', #242, #69, #173 ) ;
#250 = SPHERICAL_SURFACE ( 'NONE', #10, 0.009990000000000000616 ) ;
#251 = ORIENTED_EDGE ( 'NONE', *, *, #107, .T. ) ;
#252 = DIRECTION ( 'NONE',  ( 1.000000000000000000, 0.0000000000000000000, 0.0000000000000000000 ) ) ;
#253 = ORIENTED_EDGE ( 'NONE', *, *, #266, .F. ) ;
#254 = CARTESIAN_POINT ( 'NONE',  ( 0.06250000000000004163, 7.654042494670960626E-18, 0.3277990083481243100 ) ) ;
#255 = EDGE_LOOP ( 'NONE', ( #56, #182, #216, #9 ) ) ;
#256 = FACE_OUTER_BOUND ( 'NONE', #105, .T. ) ;
#257 = ORIENTED_EDGE ( 'NONE', *, *, #219, .T. ) ;
#258 = LINE ( 'NONE', #112, #286 ) ;
#259 = AXIS2_PLACEMENT_3D ( 'NONE', #300, #40, #152 ) ;
#260 =( NAMED_UNIT ( * ) SI_UNIT ( $, .STERADIAN. ) SOLID_ANGLE_UNIT ( ) );
#261 = ADVANCED_FACE ( 'NONE', ( #172 ), #118, .T. ) ;
#262 = CIRCLE ( 'NONE', #42, 0.06250000000000000000 ) ;
#263 = SURFACE_STYLE_FILL_AREA ( #91 ) ;
#264 = DIRECTION ( 'NONE',  ( -1.000000000000000000, 0.0000000000000000000, 0.0000000000000000000 ) ) ;
#265 = CARTESIAN_POINT ( 'NONE',  ( 3.673940397442060731E-18, 0.0000000000000000000, 0.02999999999999999889 ) ) ;
#266 = EDGE_CURVE ( 'NONE', #187, #73, #262, .T. ) ;
#267 =( GEOMETRIC_REPRESENTATION_CONTEXT ( 3 ) GLOBAL_UNCERTAINTY_ASSIGNED_CONTEXT ( ( #109 ) ) GLOBAL_UNIT_ASSIGNED_CONTEXT ( ( #20, #18, #225 ) ) REPRESENTATION_CONTEXT ( 'NONE', 'WORKASPACE' ) );
#268 = PRODUCT_CONTEXT ( 'NONE', #176, 'mechanical' ) ;
#269 = DIRECTION ( 'NONE',  ( 1.224646799147353454E-16, 0.0000000000000000000, 1.000000000000000000 ) ) ;
#270 = DIRECTION ( 'NONE',  ( -0.0000000000000000000, -0.0000000000000000000, -1.000000000000000000 ) ) ;
#271 = DIRECTION ( 'NONE',  ( 0.0000000000000000000, 0.0000000000000000000, -1.000000000000000000 ) ) ;
#272 = CARTESIAN_POINT ( 'NONE',  ( 4.014380063372070055E-17, 0.0000000000000000000, 0.3277990083481243100 ) ) ;
#273 = MECHANICAL_DESIGN_GEOMETRIC_PRESENTATION_REPRESENTATION (  '', ( #115 ), #303 ) ;
#274 = CARTESIAN_POINT ( 'NONE',  ( -0.009989999999999998881, 0.0000000000000000000, 0.009990000000000002350 ) ) ;
#275 = DIRECTION ( 'NONE',  ( -0.0000000000000000000, -0.0000000000000000000, -1.000000000000000000 ) ) ;
#276 = VERTEX_POINT ( 'NONE', #87 ) ;
#277 = DIRECTION ( 'NONE',  ( 1.000000000000000000, 0.0000000000000000000, 0.0000000000000000000 ) ) ;
#278 = EDGE_CURVE ( 'NONE', #77, #187, #89, .T. ) ;
#279 = EDGE_LOOP ( 'NONE', ( #132, #251, #45 ) ) ;
#280 = CARTESIAN_POINT ( 'NONE',  ( 0.06250000000000000000, 7.654042494670956004E-18, 1.500000000000000222 ) ) ;
#281 = AXIS2_PLACEMENT_3D ( 'NONE', #148, #63, #144 ) ;
#282 = EDGE_LOOP ( 'NONE', ( #206, #212, #53, #304 ) ) ;
#283 = DIRECTION ( 'NONE',  ( -1.224646799147353454E-16, -0.0000000000000000000, -1.000000000000000000 ) ) ;
#284 = PRESENTATION_STYLE_ASSIGNMENT (( #57 ) ) ;
#285 = ORIENTED_EDGE ( 'NONE', *, *, #219, .F. ) ;
#286 = VECTOR ( 'NONE', #306, 39.37007874015748143 ) ;
#287 = DIMENSIONAL_EXPONENTS ( 1.000000000000000000, 0.0000000000000000000, 0.0000000000000000000, 0.0000000000000000000, 0.0000000000000000000, 0.0000000000000000000, 0.0000000000000000000 ) ;
#288 = DIRECTION ( 'NONE',  ( -0.7071067811865456854, 0.0000000000000000000, -0.7071067811865493491 ) ) ;
#289 = CARTESIAN_POINT ( 'NONE',  ( 3.673940397442060731E-18, 0.0000000000000000000, 0.02999999999999999889 ) ) ;
#290 =( LENGTH_UNIT ( ) NAMED_UNIT ( * ) SI_UNIT ( $, .METRE. ) );
#291 = AXIS2_PLACEMENT_3D ( 'NONE', #265, #195, #34 ) ;
#292 = COLOUR_RGB ( '',0.7921568627450980005, 0.8196078431372548767, 0.9333333333333333481 ) ;
#293 = CARTESIAN_POINT ( 'NONE',  ( 0.0000000000000000000, 0.0000000000000000000, 0.0000000000000000000 ) ) ;
#294 = DIRECTION ( 'NONE',  ( 1.000000000000000000, 0.0000000000000000000, -0.0000000000000000000 ) ) ;
#295 = CIRCLE ( 'NONE', #83, 0.06250000000000000000 ) ;
#296 = PLANE ( 'NONE',  #179 ) ;
#297 = CIRCLE ( 'NONE', #230, 0.06250000000000000000 ) ;
#298 = DIRECTION ( 'NONE',  ( -0.1736481776669311639, 2.126576849575783008E-17, 0.9848077530122080203 ) ) ;
#299 = EDGE_CURVE ( 'NONE', #184, #276, #140, .T. ) ;
#300 = CARTESIAN_POINT ( 'NONE',  ( 0.0000000000000000000, 0.0000000000000000000, 1.500000000000000222 ) ) ;
#301 = VECTOR ( 'NONE', #288, 39.37007874015748143 ) ;
#302 = CARTESIAN_POINT ( 'NONE',  ( 0.0000000000000000000, 0.0000000000000000000, 1.500000000000000222 ) ) ;
#303 =( GEOMETRIC_REPRESENTATION_CONTEXT ( 3 ) GLOBAL_UNCERTAINTY_ASSIGNED_CONTEXT ( ( #311 ) ) GLOBAL_UNIT_ASSIGNED_CONTEXT ( ( #93, #169, #116 ) ) REPRESENTATION_CONTEXT ( 'NONE', 'WORKASPACE' ) );
#304 = ORIENTED_EDGE ( 'NONE', *, *, #54, .F. ) ;
#305 = CARTESIAN_POINT ( 'NONE',  ( 4.014380063372070055E-17, 0.0000000000000000000, 0.3277990083481243100 ) ) ;
#306 = DIRECTION ( 'NONE',  ( -1.224646799147353454E-16, -0.0000000000000000000, -1.000000000000000000 ) ) ;
#307 = ORIENTED_EDGE ( 'NONE', *, *, #47, .F. ) ;
#308 =( GEOMETRIC_REPRESENTATION_CONTEXT ( 3 ) GLOBAL_UNCERTAINTY_ASSIGNED_CONTEXT ( ( #81 ) ) GLOBAL_UNIT_ASSIGNED_CONTEXT ( ( #108, #185, #260 ) ) REPRESENTATION_CONTEXT ( 'NONE', 'WORKASPACE' ) );
#309 = ORIENTED_EDGE ( 'NONE', *, *, #32, .T. ) ;
#310 = ADVANCED_FACE ( 'NONE', ( #145 ), #296, .T. ) ;
#311 = UNCERTAINTY_MEASURE_WITH_UNIT (LENGTH_MEASURE( 1.000000000000000082E-05 ), #93, 'distance_accuracy_value', 'NONE');
#312 = CARTESIAN_POINT ( 'NONE',  ( 0.0000000000000000000, 0.0000000000000000000, 0.0000000000000000000 ) ) ;
#313 = MECHANICAL_DESIGN_GEOMETRIC_PRESENTATION_REPRESENTATION (  '', ( #131 ), #308 ) ;
#314 = DIRECTION ( 'NONE',  ( 1.224646799147353454E-16, 0.0000000000000000000, 1.000000000000000000 ) ) ;
#315 = DIRECTION ( 'NONE',  ( 1.000000000000000000, 0.0000000000000000000, 0.0000000000000000000 ) ) ;
#316 = LENGTH_MEASURE_WITH_UNIT ( LENGTH_MEASURE( 0.02539999999999999897 ), #290 );
#317 = FILL_AREA_STYLE_COLOUR ( '', #292 ) ;
#318 = AXIS2_PLACEMENT_3D ( 'NONE', #289, #171, #208 ) ;
#319 = CARTESIAN_POINT ( 'NONE',  ( 0.009990000000000004085, 0.0000000000000000000, 0.02999999999999999889 ) ) ;
#320 = PRESENTATION_STYLE_ASSIGNMENT (( #15 ) ) ;
#321 = PRODUCT ( 'Micro_BMS-020-2X', 'Micro_BMS-020-2X', '', ( #268 ) ) ;
#322 = FACE_OUTER_BOUND ( 'NONE', #164, .T. ) ;
#323 = ORIENTED_EDGE ( 'NONE', *, *, #22, .T. ) ;
#324 = DIRECTION ( 'NONE',  ( -1.000000000000000000, 0.0000000000000000000, 0.0000000000000000000 ) ) ;
#325 = CYLINDRICAL_SURFACE ( 'NONE', #209, 0.06250000000000000000 ) ;
ENDSEC;
END-ISO-10303-21;
