ISO-10303-21;
HEADER;
FILE_DESCRIPTION (( 'STEP AP214' ),
    '1' );
FILE_NAME ('Micro_SEM-234-04X.STEP',
    '2021-09-02T02:26:20',
    ( '' ),
    ( '' ),
    'SwSTEP 2.0',
    'SolidWorks 2020',
    '' );
FILE_SCHEMA (( 'AUTOMOTIVE_DESIGN' ));
ENDSEC;

DATA;
#1 = PRESENTATION_STYLE_ASSIGNMENT (( #275 ) ) ;
#2 = CONICAL_SURFACE ( 'NONE', #153, 0.1170828000000000146, 0.1745329251994338360 ) ;
#3 =( NAMED_UNIT ( * ) PLANE_ANGLE_UNIT ( ) SI_UNIT ( $, .RADIAN. ) );
#4 = LENGTH_MEASURE_WITH_UNIT ( LENGTH_MEASURE( 0.02539999999999999897 ), #203 );
#5 = CIRCLE ( 'NONE', #157, 0.1250000000000000000 ) ;
#6 = ORIENTED_EDGE ( 'NONE', *, *, #61, .F. ) ;
#7 = DIRECTION ( 'NONE',  ( 0.0000000000000000000, 0.0000000000000000000, 1.000000000000000000 ) ) ;
#8 = VERTEX_POINT ( 'NONE', #262 ) ;
#9 = DIRECTION ( 'NONE',  ( 1.000000000000000000, 0.0000000000000000000, 0.0000000000000000000 ) ) ;
#10 = ORIENTED_EDGE ( 'NONE', *, *, #68, .T. ) ;
#11 = PLANE ( 'NONE',  #97 ) ;
#12 = APPLICATION_CONTEXT ( 'automotive_design' ) ;
#13 = EDGE_CURVE ( 'NONE', #34, #76, #72, .T. ) ;
#14 = ORIENTED_EDGE ( 'NONE', *, *, #23, .F. ) ;
#15 = LINE ( 'NONE', #28, #222 ) ;
#16 = EDGE_LOOP ( 'NONE', ( #14, #285, #189, #279 ) ) ;
#17 = DIRECTION ( 'NONE',  ( -0.7071067811865434649, 0.0000000000000000000, -0.7071067811865515695 ) ) ;
#18 = CARTESIAN_POINT ( 'NONE',  ( 0.0000000000000000000, 0.0000000000000000000, 2.000000000000000000 ) ) ;
#19 = CARTESIAN_POINT ( 'NONE',  ( 0.0000000000000000000, 0.0000000000000000000, 2.000000000000000000 ) ) ;
#20 = AXIS2_PLACEMENT_3D ( 'NONE', #195, #150, #194 ) ;
#21 = FACE_OUTER_BOUND ( 'NONE', #117, .T. ) ;
#22 = CARTESIAN_POINT ( 'NONE',  ( -0.1170827999999999591, 1.482329630743144455E-17, 0.4380000000000000004 ) ) ;
#23 = EDGE_CURVE ( 'NONE', #92, #8, #51, .T. ) ;
#24 = VECTOR ( 'NONE', #149, 39.37007874015748143 ) ;
#25 = EDGE_CURVE ( 'NONE', #76, #213, #180, .T. ) ;
#26 = FILL_AREA_STYLE ('',( #228 ) ) ;
#27 = CARTESIAN_POINT ( 'NONE',  ( 5.363952980265406880E-17, 0.0000000000000000000, 0.4380000000000000004 ) ) ;
#28 = CARTESIAN_POINT ( 'NONE',  ( 0.1170828000000000702, 0.0000000000000000000, 0.4380000000000000004 ) ) ;
#29 = UNCERTAINTY_MEASURE_WITH_UNIT (LENGTH_MEASURE( 1.000000000000000082E-05 ), #230, 'distance_accuracy_value', 'NONE');
#30 = ORIENTED_EDGE ( 'NONE', *, *, #25, .T. ) ;
#31 =( GEOMETRIC_REPRESENTATION_CONTEXT ( 3 ) GLOBAL_UNCERTAINTY_ASSIGNED_CONTEXT ( ( #29 ) ) GLOBAL_UNIT_ASSIGNED_CONTEXT ( ( #230, #3, #251 ) ) REPRESENTATION_CONTEXT ( 'NONE', 'WORKASPACE' ) );
#32 = ORIENTED_EDGE ( 'NONE', *, *, #237, .F. ) ;
#33 = ORIENTED_EDGE ( 'NONE', *, *, #144, .F. ) ;
#34 = VERTEX_POINT ( 'NONE', #22 ) ;
#35 = APPLICATION_PROTOCOL_DEFINITION ( 'draft international standard', 'automotive_design', 1998, #12 ) ;
#36 = ORIENTED_EDGE ( 'NONE', *, *, #266, .T. ) ;
#37 = DIRECTION ( 'NONE',  ( -0.0000000000000000000, -0.0000000000000000000, -1.000000000000000000 ) ) ;
#38 = CARTESIAN_POINT ( 'NONE',  ( 5.913827627880460296E-17, 0.0000000000000000000, 0.4829006724222770219 ) ) ;
#39 = DIRECTION ( 'NONE',  ( 0.0000000000000000000, 0.0000000000000000000, -1.000000000000000000 ) ) ;
#40 = AXIS2_PLACEMENT_3D ( 'NONE', #248, #46, #258 ) ;
#41 = DIRECTION ( 'NONE',  ( 0.0000000000000000000, 0.0000000000000000000, 1.000000000000000000 ) ) ;
#42 = EDGE_CURVE ( 'NONE', #98, #213, #15, .T. ) ;
#43 = DIRECTION ( 'NONE',  ( -1.000000000000000000, 0.0000000000000000000, 1.224646799147353207E-16 ) ) ;
#44 = EDGE_CURVE ( 'NONE', #8, #213, #265, .T. ) ;
#45 =( CONVERSION_BASED_UNIT ( 'INCH', #270 ) LENGTH_UNIT ( ) NAMED_UNIT ( #246 ) );
#46 = DIRECTION ( 'NONE',  ( -1.224646799147353207E-16, -0.0000000000000000000, -1.000000000000000000 ) ) ;
#47 = DIRECTION ( 'NONE',  ( 0.0000000000000000000, 0.0000000000000000000, 1.000000000000000000 ) ) ;
#48 = PRODUCT_DEFINITION ( 'UNKNOWN', '', #173, #95 ) ;
#49 = CARTESIAN_POINT ( 'NONE',  ( 0.0000000000000000000, 0.0000000000000000000, 2.000000000000000000 ) ) ;
#50 = AXIS2_PLACEMENT_3D ( 'NONE', #164, #206, #288 ) ;
#51 = LINE ( 'NONE', #120, #67 ) ;
#52 = CARTESIAN_POINT ( 'NONE',  ( 0.0000000000000000000, 0.0000000000000000000, 1.984999999999999432 ) ) ;
#53 = CIRCLE ( 'NONE', #118, 0.1250000000000000000 ) ;
#54 = ORIENTED_EDGE ( 'NONE', *, *, #170, .F. ) ;
#55 = VERTEX_POINT ( 'NONE', #231 ) ;
#56 = COLOUR_RGB ( '',0.7921568627450980005, 0.8196078431372548767, 0.9333333333333333481 ) ;
#57 = ORIENTED_EDGE ( 'NONE', *, *, #42, .T. ) ;
#58 = DIRECTION ( 'NONE',  ( 1.000000000000000000, 0.0000000000000000000, -0.0000000000000000000 ) ) ;
#59 = PRODUCT_DEFINITION_SHAPE ( 'NONE', 'NONE',  #48 ) ;
#61 = EDGE_CURVE ( 'NONE', #98, #188, #202, .T. ) ;
#60 = CARTESIAN_POINT ( 'NONE',  ( -0.1250000000000000000, 0.0000000000000000000, 2.000000000000000000 ) ) ;
#62 = CIRCLE ( 'NONE', #204, 0.1250000000000000000 ) ;
#63 = CARTESIAN_POINT ( 'NONE',  ( -0.1170828000000000008, 0.0000000000000000000, 2.867701525104194802E-17 ) ) ;
#64 = DIRECTION ( 'NONE',  ( -0.0000000000000000000, -0.0000000000000000000, -1.000000000000000000 ) ) ;
#65 = DIRECTION ( 'NONE',  ( -1.000000000000000000, 0.0000000000000000000, 0.0000000000000000000 ) ) ;
#66 = LINE ( 'NONE', #220, #281 ) ;
#67 = VECTOR ( 'NONE', #207, 39.37007874015748143 ) ;
#68 = EDGE_CURVE ( 'NONE', #188, #185, #296, .T. ) ;
#69 = DIRECTION ( 'NONE',  ( 1.000000000000000000, 0.0000000000000000000, 0.0000000000000000000 ) ) ;
#70 = CARTESIAN_POINT ( 'NONE',  ( 5.913827627880460296E-17, 0.0000000000000000000, 0.4829006724222770219 ) ) ;
#71 = AXIS2_PLACEMENT_3D ( 'NONE', #19, #37, #216 ) ;
#72 = LINE ( 'NONE', #159, #277 ) ;
#73 = DIRECTION ( 'NONE',  ( 1.224646799147353207E-16, 0.0000000000000000000, 1.000000000000000000 ) ) ;
#74 = ORIENTED_EDGE ( 'NONE', *, *, #44, .T. ) ;
#75 = MECHANICAL_DESIGN_GEOMETRIC_PRESENTATION_REPRESENTATION (  '', ( #177 ), #137 ) ;
#76 = VERTEX_POINT ( 'NONE', #274 ) ;
#77 = ORIENTED_EDGE ( 'NONE', *, *, #83, .T. ) ;
#78 = EDGE_LOOP ( 'NONE', ( #141, #232, #57, #205 ) ) ;
#79 = AXIS2_PLACEMENT_3D ( 'NONE', #129, #136, #268 ) ;
#80 = CARTESIAN_POINT ( 'NONE',  ( 0.1170828000000000146, 1.433850762552097401E-17, -1.433850762552097401E-17 ) ) ;
#81 = SURFACE_STYLE_USAGE ( .BOTH. , #106 ) ;
#82 = FILL_AREA_STYLE ('',( #175 ) ) ;
#83 = EDGE_CURVE ( 'NONE', #98, #34, #88, .T. ) ;
#84 = AXIS2_PLACEMENT_3D ( 'NONE', #49, #179, #201 ) ;
#85 =( LENGTH_UNIT ( ) NAMED_UNIT ( * ) SI_UNIT ( $, .METRE. ) );
#86 = FACE_OUTER_BOUND ( 'NONE', #282, .T. ) ;
#87 = FACE_OUTER_BOUND ( 'NONE', #78, .T. ) ;
#88 = CIRCLE ( 'NONE', #255, 0.1170828000000000146 ) ;
#89 = DIRECTION ( 'NONE',  ( -1.224646799147353207E-16, -0.0000000000000000000, -1.000000000000000000 ) ) ;
#90 = SURFACE_STYLE_FILL_AREA ( #26 ) ;
#91 =( NAMED_UNIT ( * ) SI_UNIT ( $, .STERADIAN. ) SOLID_ANGLE_UNIT ( ) );
#92 = VERTEX_POINT ( 'NONE', #223 ) ;
#93 = EDGE_LOOP ( 'NONE', ( #211, #36 ) ) ;
#94 = DIRECTION ( 'NONE',  ( 1.000000000000000000, 0.0000000000000000000, 0.0000000000000000000 ) ) ;
#95 = PRODUCT_DEFINITION_CONTEXT ( 'detailed design', #12, 'design' ) ;
#96 = EDGE_LOOP ( 'NONE', ( #125, #101, #32, #54 ) ) ;
#97 = AXIS2_PLACEMENT_3D ( 'NONE', #184, #7, #58 ) ;
#98 = VERTEX_POINT ( 'NONE', #111 ) ;
#99 = SHAPE_DEFINITION_REPRESENTATION ( #59, #168 ) ;
#100 = FACE_OUTER_BOUND ( 'NONE', #161, .T. ) ;
#101 = ORIENTED_EDGE ( 'NONE', *, *, #23, .T. ) ;
#102 = VECTOR ( 'NONE', #263, 39.37007874015748143 ) ;
#103 = DIRECTION ( 'NONE',  ( -1.224646799147353207E-16, -0.0000000000000000000, -1.000000000000000000 ) ) ;
#104 = APPLICATION_CONTEXT ( 'automotive_design' ) ;
#105 = DIRECTION ( 'NONE',  ( 1.000000000000000000, 0.0000000000000000000, 0.0000000000000000000 ) ) ;
#106 = SURFACE_SIDE_STYLE ('',( #271 ) ) ;
#107 = PRESENTATION_LAYER_ASSIGNMENT (  '', '', ( #166 ) ) ;
#108 = CYLINDRICAL_SURFACE ( 'NONE', #289, 0.1170828000000000146 ) ;
#109 = EDGE_CURVE ( 'NONE', #185, #188, #148, .T. ) ;
#110 = ADVANCED_FACE ( 'NONE', ( #100 ), #11, .F. ) ;
#111 = CARTESIAN_POINT ( 'NONE',  ( 0.1170828000000000702, 0.0000000000000000000, 0.4380000000000000004 ) ) ;
#112 = DIRECTION ( 'NONE',  ( 1.000000000000000000, 0.0000000000000000000, 0.0000000000000000000 ) ) ;
#113 = AXIS2_PLACEMENT_3D ( 'NONE', #284, #162, #260 ) ;
#114 =( NAMED_UNIT ( * ) PLANE_ANGLE_UNIT ( ) SI_UNIT ( $, .RADIAN. ) );
#115 = PRODUCT_CONTEXT ( 'NONE', #104, 'mechanical' ) ;
#116 = ADVANCED_FACE ( 'NONE', ( #240 ), #126, .T. ) ;
#117 = EDGE_LOOP ( 'NONE', ( #261, #74, #146, #124 ) ) ;
#118 = AXIS2_PLACEMENT_3D ( 'NONE', #243, #39, #151 ) ;
#119 = DIRECTION ( 'NONE',  ( 1.000000000000000000, 0.0000000000000000000, -0.0000000000000000000 ) ) ;
#120 = CARTESIAN_POINT ( 'NONE',  ( 0.1099999999999996397, 1.347111479062084158E-17, 2.000000000000000000 ) ) ;
#121 = ADVANCED_FACE ( 'NONE', ( #278 ), #196, .T. ) ;
#122 = EDGE_CURVE ( 'NONE', #8, #55, #62, .T. ) ;
#123 = EDGE_LOOP ( 'NONE', ( #163, #287, #30, #239 ) ) ;
#124 = ORIENTED_EDGE ( 'NONE', *, *, #229, .F. ) ;
#125 = ORIENTED_EDGE ( 'NONE', *, *, #266, .F. ) ;
#127 = ADVANCED_FACE ( 'NONE', ( #257 ), #273, .T. ) ;
#126 = PLANE ( 'NONE',  #142 ) ;
#128 = DIRECTION ( 'NONE',  ( -1.224646799147353207E-16, -0.0000000000000000000, -1.000000000000000000 ) ) ;
#129 = CARTESIAN_POINT ( 'NONE',  ( 0.0000000000000000000, 0.0000000000000000000, 2.000000000000000000 ) ) ;
#130 = CARTESIAN_POINT ( 'NONE',  ( -0.1099999999999996397, 0.0000000000000000000, 2.000000000000000000 ) ) ;
#131 = VECTOR ( 'NONE', #264, 39.37007874015748143 ) ;
#132 = FACE_OUTER_BOUND ( 'NONE', #165, .T. ) ;
#133 = PRODUCT ( 'Micro_SEM-234-04X', 'Micro_SEM-234-04X', '', ( #115 ) ) ;
#134 = DIMENSIONAL_EXPONENTS ( 1.000000000000000000, 0.0000000000000000000, 0.0000000000000000000, 0.0000000000000000000, 0.0000000000000000000, 0.0000000000000000000, 0.0000000000000000000 ) ;
#135 = CARTESIAN_POINT ( 'NONE',  ( -0.1170828000000000146, 0.0000000000000000000, 1.433850762552097401E-17 ) ) ;
#136 = DIRECTION ( 'NONE',  ( 0.0000000000000000000, 0.0000000000000000000, 1.000000000000000000 ) ) ;
#137 =( GEOMETRIC_REPRESENTATION_CONTEXT ( 3 ) GLOBAL_UNCERTAINTY_ASSIGNED_CONTEXT ( ( #209 ) ) GLOBAL_UNIT_ASSIGNED_CONTEXT ( ( #45, #247, #191 ) ) REPRESENTATION_CONTEXT ( 'NONE', 'WORKASPACE' ) );
#138 = DIRECTION ( 'NONE',  ( 1.000000000000000000, 0.0000000000000000000, 0.0000000000000000000 ) ) ;
#139 = LENGTH_MEASURE_WITH_UNIT ( LENGTH_MEASURE( 0.02539999999999999897 ), #178 );
#140 = AXIS2_PLACEMENT_3D ( 'NONE', #254, #73, #9 ) ;
#141 = ORIENTED_EDGE ( 'NONE', *, *, #13, .F. ) ;
#142 = AXIS2_PLACEMENT_3D ( 'NONE', #214, #280, #119 ) ;
#143 = DIRECTION ( 'NONE',  ( 0.0000000000000000000, 0.0000000000000000000, -1.000000000000000000 ) ) ;
#144 = EDGE_CURVE ( 'NONE', #34, #185, #197, .T. ) ;
#145 = ORIENTED_EDGE ( 'NONE', *, *, #286, .T. ) ;
#146 = ORIENTED_EDGE ( 'NONE', *, *, #25, .F. ) ;
#147 = ORIENTED_EDGE ( 'NONE', *, *, #229, .T. ) ;
#148 = CIRCLE ( 'NONE', #50, 0.1170828000000000008 ) ;
#149 = DIRECTION ( 'NONE',  ( -0.0000000000000000000, -0.0000000000000000000, -1.000000000000000000 ) ) ;
#150 = DIRECTION ( 'NONE',  ( -1.224646799147353207E-16, -0.0000000000000000000, -1.000000000000000000 ) ) ;
#151 = DIRECTION ( 'NONE',  ( 1.000000000000000000, 0.0000000000000000000, 0.0000000000000000000 ) ) ;
#152 = ADVANCED_FACE ( 'NONE', ( #132 ), #108, .T. ) ;
#153 = AXIS2_PLACEMENT_3D ( 'NONE', #27, #154, #112 ) ;
#154 = DIRECTION ( 'NONE',  ( 1.224646799147353207E-16, 0.0000000000000000000, 1.000000000000000000 ) ) ;
#155 = APPLICATION_PROTOCOL_DEFINITION ( 'draft international standard', 'automotive_design', 1998, #104 ) ;
#156 = MECHANICAL_DESIGN_GEOMETRIC_PRESENTATION_REPRESENTATION (  '', ( #166 ), #190 ) ;
#157 = AXIS2_PLACEMENT_3D ( 'NONE', #70, #89, #182 ) ;
#158 = EDGE_CURVE ( 'NONE', #256, #92, #267, .T. ) ;
#159 = CARTESIAN_POINT ( 'NONE',  ( -0.1170827999999999591, 1.433850762552097401E-17, 0.4380000000000000004 ) ) ;
#160 = ORIENTED_EDGE ( 'NONE', *, *, #109, .F. ) ;
#161 = EDGE_LOOP ( 'NONE', ( #236, #10 ) ) ;
#162 = DIRECTION ( 'NONE',  ( 0.0000000000000000000, 0.0000000000000000000, -1.000000000000000000 ) ) ;
#163 = ORIENTED_EDGE ( 'NONE', *, *, #286, .F. ) ;
#164 = CARTESIAN_POINT ( 'NONE',  ( 1.755960746814417673E-33, 0.0000000000000000000, 1.433850762552097401E-17 ) ) ;
#165 = EDGE_LOOP ( 'NONE', ( #6, #77, #235, #238 ) ) ;
#166 = STYLED_ITEM ( 'NONE', ( #1 ), #168 ) ;
#167 = CONICAL_SURFACE ( 'NONE', #84, 0.1099999999999996397, 0.7853981633974426169 ) ;
#168 = ADVANCED_BREP_SHAPE_REPRESENTATION ( 'Micro_SEM-234-04X', ( #215, #181 ), #31 ) ;
#169 = LINE ( 'NONE', #60, #24 ) ;
#170 = EDGE_CURVE ( 'NONE', #256, #55, #66, .T. ) ;
#171 = PRESENTATION_STYLE_ASSIGNMENT (( #81 ) ) ;
#172 = CIRCLE ( 'NONE', #218, 0.1099999999999996397 ) ;
#173 = PRODUCT_DEFINITION_FORMATION_WITH_SPECIFIED_SOURCE ( 'ANY', '', #133, .NOT_KNOWN. ) ;
#174 = ADVANCED_FACE ( 'NONE', ( #297 ), #241, .T. ) ;
#175 = FILL_AREA_STYLE_COLOUR ( '', #56 ) ;
#176 = SURFACE_SIDE_STYLE ('',( #90 ) ) ;
#177 = STYLED_ITEM ( 'NONE', ( #171 ), #215 ) ;
#178 =( LENGTH_UNIT ( ) NAMED_UNIT ( * ) SI_UNIT ( $, .METRE. ) );
#179 = DIRECTION ( 'NONE',  ( 0.0000000000000000000, 0.0000000000000000000, -1.000000000000000000 ) ) ;
#180 = CIRCLE ( 'NONE', #244, 0.1250000000000000000 ) ;
#181 = AXIS2_PLACEMENT_3D ( 'NONE', #250, #47, #138 ) ;
#182 = DIRECTION ( 'NONE',  ( 1.000000000000000000, 0.0000000000000000000, 0.0000000000000000000 ) ) ;
#183 = ORIENTED_EDGE ( 'NONE', *, *, #272, .F. ) ;
#184 = CARTESIAN_POINT ( 'NONE',  ( 0.0000000000000000000, 0.0000000000000000000, 0.0000000000000000000 ) ) ;
#185 = VERTEX_POINT ( 'NONE', #63 ) ;
#186 = EDGE_LOOP ( 'NONE', ( #276, #259, #147, #183 ) ) ;
#187 = VECTOR ( 'NONE', #64, 39.37007874015748143 ) ;
#188 = VERTEX_POINT ( 'NONE', #221 ) ;
#189 = ORIENTED_EDGE ( 'NONE', *, *, #170, .T. ) ;
#190 =( GEOMETRIC_REPRESENTATION_CONTEXT ( 3 ) GLOBAL_UNCERTAINTY_ASSIGNED_CONTEXT ( ( #234 ) ) GLOBAL_UNIT_ASSIGNED_CONTEXT ( ( #199, #114, #91 ) ) REPRESENTATION_CONTEXT ( 'NONE', 'WORKASPACE' ) );
#191 =( NAMED_UNIT ( * ) SI_UNIT ( $, .STERADIAN. ) SOLID_ANGLE_UNIT ( ) );
#192 = ADVANCED_FACE ( 'NONE', ( #86 ), #193, .T. ) ;
#193 = CYLINDRICAL_SURFACE ( 'NONE', #20, 0.1170828000000000146 ) ;
#194 = DIRECTION ( 'NONE',  ( -1.000000000000000000, 0.0000000000000000000, 1.224646799147353207E-16 ) ) ;
#195 = CARTESIAN_POINT ( 'NONE',  ( 0.0000000000000000000, 0.0000000000000000000, 0.0000000000000000000 ) ) ;
#196 = CONICAL_SURFACE ( 'NONE', #140, 0.1170828000000000146, 0.1745329251994338360 ) ;
#197 = LINE ( 'NONE', #135, #131 ) ;
#198 = CLOSED_SHELL ( 'NONE', ( #192, #121, #127, #208, #174, #116, #294, #283, #152, #110 ) ) ;
#199 =( CONVERSION_BASED_UNIT ( 'INCH', #139 ) LENGTH_UNIT ( ) NAMED_UNIT ( #134 ) );
#200 = DIRECTION ( 'NONE',  ( -1.224646799147353207E-16, -0.0000000000000000000, -1.000000000000000000 ) ) ;
#201 = DIRECTION ( 'NONE',  ( -1.000000000000000000, 0.0000000000000000000, 0.0000000000000000000 ) ) ;
#202 = LINE ( 'NONE', #80, #102 ) ;
#203 =( LENGTH_UNIT ( ) NAMED_UNIT ( * ) SI_UNIT ( $, .METRE. ) );
#204 = AXIS2_PLACEMENT_3D ( 'NONE', #52, #143, #94 ) ;
#205 = ORIENTED_EDGE ( 'NONE', *, *, #272, .T. ) ;
#206 = DIRECTION ( 'NONE',  ( -1.224646799147353207E-16, -0.0000000000000000000, -1.000000000000000000 ) ) ;
#207 = DIRECTION ( 'NONE',  ( 0.7071067811865434649, 8.659560562354883554E-17, -0.7071067811865515695 ) ) ;
#208 = ADVANCED_FACE ( 'NONE', ( #21 ), #219, .T. ) ;
#209 = UNCERTAINTY_MEASURE_WITH_UNIT (LENGTH_MEASURE( 1.000000000000000082E-05 ), #45, 'distance_accuracy_value', 'NONE');
#210 = ORIENTED_EDGE ( 'NONE', *, *, #61, .T. ) ;
#211 = ORIENTED_EDGE ( 'NONE', *, *, #158, .T. ) ;
#212 = DIMENSIONAL_EXPONENTS ( 1.000000000000000000, 0.0000000000000000000, 0.0000000000000000000, 0.0000000000000000000, 0.0000000000000000000, 0.0000000000000000000, 0.0000000000000000000 ) ;
#213 = VERTEX_POINT ( 'NONE', #293 ) ;
#214 = CARTESIAN_POINT ( 'NONE',  ( 0.0000000000000000000, 0.0000000000000000000, 2.000000000000000000 ) ) ;
#215 = MANIFOLD_SOLID_BREP ( 'Cut-Revolve1', #198 ) ;
#216 = DIRECTION ( 'NONE',  ( -1.000000000000000000, 0.0000000000000000000, 0.0000000000000000000 ) ) ;
#217 = CARTESIAN_POINT ( 'NONE',  ( 0.0000000000000000000, 0.0000000000000000000, 2.000000000000000000 ) ) ;
#218 = AXIS2_PLACEMENT_3D ( 'NONE', #217, #41, #105 ) ;
#219 = CYLINDRICAL_SURFACE ( 'NONE', #252, 0.1250000000000000000 ) ;
#220 = CARTESIAN_POINT ( 'NONE',  ( -0.1099999999999996397, 0.0000000000000000000, 2.000000000000000000 ) ) ;
#221 = CARTESIAN_POINT ( 'NONE',  ( 0.1170828000000000008, 1.433850762552097401E-17, 1.895600338963814870E-33 ) ) ;
#222 = VECTOR ( 'NONE', #242, 39.37007874015748143 ) ;
#223 = CARTESIAN_POINT ( 'NONE',  ( 0.1099999999999996397, 1.438959988998137757E-17, 2.000000000000000000 ) ) ;
#224 = FACE_OUTER_BOUND ( 'NONE', #16, .T. ) ;
#225 = CARTESIAN_POINT ( 'NONE',  ( 5.363952980265406880E-17, 0.0000000000000000000, 0.4380000000000000004 ) ) ;
#226 = DIRECTION ( 'NONE',  ( -1.000000000000000000, 0.0000000000000000000, 0.0000000000000000000 ) ) ;
#227 = CIRCLE ( 'NONE', #269, 0.1170828000000000146 ) ;
#228 = FILL_AREA_STYLE_COLOUR ( '', #233 ) ;
#229 = EDGE_CURVE ( 'NONE', #55, #76, #169, .T. ) ;
#230 =( CONVERSION_BASED_UNIT ( 'INCH', #4 ) LENGTH_UNIT ( ) NAMED_UNIT ( #212 ) );
#231 = CARTESIAN_POINT ( 'NONE',  ( -0.1250000000000000000, 0.0000000000000000000, 1.984999999999999432 ) ) ;
#232 = ORIENTED_EDGE ( 'NONE', *, *, #83, .F. ) ;
#233 = COLOUR_RGB ( '',0.7921568627450980005, 0.8196078431372548767, 0.9333333333333333481 ) ;
#234 = UNCERTAINTY_MEASURE_WITH_UNIT (LENGTH_MEASURE( 1.000000000000000082E-05 ), #199, 'distance_accuracy_value', 'NONE');
#235 = ORIENTED_EDGE ( 'NONE', *, *, #144, .T. ) ;
#236 = ORIENTED_EDGE ( 'NONE', *, *, #109, .T. ) ;
#237 = EDGE_CURVE ( 'NONE', #55, #8, #53, .T. ) ;
#238 = ORIENTED_EDGE ( 'NONE', *, *, #68, .F. ) ;
#239 = ORIENTED_EDGE ( 'NONE', *, *, #42, .F. ) ;
#240 = FACE_OUTER_BOUND ( 'NONE', #93, .T. ) ;
#241 = CYLINDRICAL_SURFACE ( 'NONE', #71, 0.1250000000000000000 ) ;
#242 = DIRECTION ( 'NONE',  ( 0.1736481776669313304, 0.0000000000000000000, 0.9848077530122077983 ) ) ;
#243 = CARTESIAN_POINT ( 'NONE',  ( 0.0000000000000000000, 0.0000000000000000000, 1.984999999999999432 ) ) ;
#244 = AXIS2_PLACEMENT_3D ( 'NONE', #38, #128, #69 ) ;
#245 = DIRECTION ( 'NONE',  ( -0.0000000000000000000, -0.0000000000000000000, -1.000000000000000000 ) ) ;
#246 = DIMENSIONAL_EXPONENTS ( 1.000000000000000000, 0.0000000000000000000, 0.0000000000000000000, 0.0000000000000000000, 0.0000000000000000000, 0.0000000000000000000, 0.0000000000000000000 ) ;
#247 =( NAMED_UNIT ( * ) PLANE_ANGLE_UNIT ( ) SI_UNIT ( $, .RADIAN. ) );
#248 = CARTESIAN_POINT ( 'NONE',  ( 1.755960746814417673E-33, 0.0000000000000000000, 1.433850762552097401E-17 ) ) ;
#249 = PRESENTATION_LAYER_ASSIGNMENT (  '', '', ( #177 ) ) ;
#250 = CARTESIAN_POINT ( 'NONE',  ( 0.0000000000000000000, 0.0000000000000000000, 0.0000000000000000000 ) ) ;
#251 =( NAMED_UNIT ( * ) SI_UNIT ( $, .STERADIAN. ) SOLID_ANGLE_UNIT ( ) );
#252 = AXIS2_PLACEMENT_3D ( 'NONE', #18, #245, #290 ) ;
#253 = DIRECTION ( 'NONE',  ( -0.1736481776669311639, 2.126576849575782392E-17, 0.9848077530122080203 ) ) ;
#254 = CARTESIAN_POINT ( 'NONE',  ( 5.363952980265406880E-17, 0.0000000000000000000, 0.4380000000000000004 ) ) ;
#255 = AXIS2_PLACEMENT_3D ( 'NONE', #295, #292, #65 ) ;
#256 = VERTEX_POINT ( 'NONE', #130 ) ;
#257 = FACE_OUTER_BOUND ( 'NONE', #96, .T. ) ;
#258 = DIRECTION ( 'NONE',  ( -1.000000000000000000, 0.0000000000000000000, 1.224646799147353207E-16 ) ) ;
#259 = ORIENTED_EDGE ( 'NONE', *, *, #122, .T. ) ;
#260 = DIRECTION ( 'NONE',  ( -1.000000000000000000, 0.0000000000000000000, 0.0000000000000000000 ) ) ;
#261 = ORIENTED_EDGE ( 'NONE', *, *, #237, .T. ) ;
#262 = CARTESIAN_POINT ( 'NONE',  ( 0.1250000000000000000, 1.530808498934191509E-17, 1.984999999999999432 ) ) ;
#263 = DIRECTION ( 'NONE',  ( -1.224646799147353207E-16, -0.0000000000000000000, -1.000000000000000000 ) ) ;
#264 = DIRECTION ( 'NONE',  ( -1.224646799147353207E-16, -0.0000000000000000000, -1.000000000000000000 ) ) ;
#265 = LINE ( 'NONE', #298, #187 ) ;
#266 = EDGE_CURVE ( 'NONE', #92, #256, #172, .T. ) ;
#267 = CIRCLE ( 'NONE', #79, 0.1099999999999996397 ) ;
#268 = DIRECTION ( 'NONE',  ( 1.000000000000000000, 0.0000000000000000000, 0.0000000000000000000 ) ) ;
#269 = AXIS2_PLACEMENT_3D ( 'NONE', #225, #200, #226 ) ;
#270 = LENGTH_MEASURE_WITH_UNIT ( LENGTH_MEASURE( 0.02539999999999999897 ), #85 );
#271 = SURFACE_STYLE_FILL_AREA ( #82 ) ;
#272 = EDGE_CURVE ( 'NONE', #213, #76, #5, .T. ) ;
#273 = CONICAL_SURFACE ( 'NONE', #113, 0.1099999999999996397, 0.7853981633974426169 ) ;
#274 = CARTESIAN_POINT ( 'NONE',  ( -0.1249999999999999445, 0.0000000000000000000, 0.4829006724222770219 ) ) ;
#275 = SURFACE_STYLE_USAGE ( .BOTH. , #176 ) ;
#276 = ORIENTED_EDGE ( 'NONE', *, *, #44, .F. ) ;
#277 = VECTOR ( 'NONE', #253, 39.37007874015747433 ) ;
#278 = FACE_OUTER_BOUND ( 'NONE', #123, .T. ) ;
#279 = ORIENTED_EDGE ( 'NONE', *, *, #122, .F. ) ;
#280 = DIRECTION ( 'NONE',  ( 0.0000000000000000000, 0.0000000000000000000, 1.000000000000000000 ) ) ;
#281 = VECTOR ( 'NONE', #17, 39.37007874015748143 ) ;
#282 = EDGE_LOOP ( 'NONE', ( #145, #210, #160, #33 ) ) ;
#283 = ADVANCED_FACE ( 'NONE', ( #87 ), #2, .T. ) ;
#284 = CARTESIAN_POINT ( 'NONE',  ( 0.0000000000000000000, 0.0000000000000000000, 2.000000000000000000 ) ) ;
#285 = ORIENTED_EDGE ( 'NONE', *, *, #158, .F. ) ;
#286 = EDGE_CURVE ( 'NONE', #34, #98, #227, .T. ) ;
#287 = ORIENTED_EDGE ( 'NONE', *, *, #13, .T. ) ;
#288 = DIRECTION ( 'NONE',  ( -1.000000000000000000, 0.0000000000000000000, 1.224646799147353207E-16 ) ) ;
#289 = AXIS2_PLACEMENT_3D ( 'NONE', #299, #103, #43 ) ;
#290 = DIRECTION ( 'NONE',  ( -1.000000000000000000, 0.0000000000000000000, 0.0000000000000000000 ) ) ;
#291 = PRODUCT_RELATED_PRODUCT_CATEGORY ( 'part', '', ( #133 ) ) ;
#292 = DIRECTION ( 'NONE',  ( -1.224646799147353207E-16, -0.0000000000000000000, -1.000000000000000000 ) ) ;
#294 = ADVANCED_FACE ( 'NONE', ( #224 ), #167, .T. ) ;
#293 = CARTESIAN_POINT ( 'NONE',  ( 0.1250000000000000555, 1.530808498934192125E-17, 0.4829006724222770219 ) ) ;
#295 = CARTESIAN_POINT ( 'NONE',  ( 5.363952980265406880E-17, 0.0000000000000000000, 0.4380000000000000004 ) ) ;
#296 = CIRCLE ( 'NONE', #40, 0.1170828000000000008 ) ;
#297 = FACE_OUTER_BOUND ( 'NONE', #186, .T. ) ;
#298 = CARTESIAN_POINT ( 'NONE',  ( 0.1250000000000000000, 1.530808498934191509E-17, 2.000000000000000000 ) ) ;
#299 = CARTESIAN_POINT ( 'NONE',  ( 0.0000000000000000000, 0.0000000000000000000, 0.0000000000000000000 ) ) ;
ENDSEC;
END-ISO-10303-21;
