ISO-10303-21;
HEADER;
FILE_DESCRIPTION (( 'STEP AP214' ),
    '1' );
FILE_NAME ('59652.STEP',
    '2023-07-24T15:19:45',
    ( '' ),
    ( '' ),
    'SwSTEP 2.0',
    'SolidWorks 2023',
    '' );
FILE_SCHEMA (( 'AUTOMOTIVE_DESIGN' ));
ENDSEC;

DATA;
#1 = AXIS2_PLACEMENT_3D ( 'NONE', #112, #286, #37 ) ;
#2 = SHAPE_DEFINITION_REPRESENTATION ( #8, #219 ) ;
#3 = STYLED_ITEM ( 'NONE', ( #169 ), #355 ) ;
#4 = DIRECTION ( 'NONE',  ( -1.000000000000000000, 0.000000000000000000, 0.000000000000000000 ) ) ;
#5 = ORIENTED_EDGE ( 'NONE', *, *, #171, .F. ) ;
#6 = SURFACE_STYLE_USAGE ( .BOTH. , #57 ) ;
#7 = UNCERTAINTY_MEASURE_WITH_UNIT (LENGTH_MEASURE( 1.000000000000000082E-05 ), #75, 'distance_accuracy_value', 'NONE');
#8 = PRODUCT_DEFINITION_SHAPE ( 'NONE', 'NONE',  #105 ) ;
#9 = CARTESIAN_POINT ( 'NONE',  ( 3.000000000000000000, 63.00000000000000000, 0.000000000000000000 ) ) ;
#10 = LINE ( 'NONE', #174, #165 ) ;
#11 = CARTESIAN_POINT ( 'NONE',  ( 0.000000000000000000, 1.000000000000000000, -3.000000000000000000 ) ) ;
#12 = ORIENTED_EDGE ( 'NONE', *, *, #20, .F. ) ;
#13 = CIRCLE ( 'NONE', #181, 3.000000000000000000 ) ;
#14 = EDGE_CURVE ( 'NONE', #140, #185, #10, .T. ) ;
#15 = DIRECTION ( 'NONE',  ( -0.000000000000000000, -1.000000000000000000, -0.000000000000000000 ) ) ;
#16 = CARTESIAN_POINT ( 'NONE',  ( 3.673940397442059375E-16, 1.000000000000000000, 3.000000000000000000 ) ) ;
#17 = DIRECTION ( 'NONE',  ( -1.203932746194552959E-16, 1.000000000000000000, -0.000000000000000000 ) ) ;
#18 = DIRECTION ( 'NONE',  ( -1.000000000000000000, -1.203932746194552959E-16, 0.000000000000000000 ) ) ;
#19 = CARTESIAN_POINT ( 'NONE',  ( 2.449293598294706414E-16, 1.000000000000000000, 2.000000000000000000 ) ) ;
#20 = EDGE_CURVE ( 'NONE', #36, #185, #86, .T. ) ;
#21 = DIRECTION ( 'NONE',  ( 0.000000000000000000, 0.000000000000000000, -1.000000000000000000 ) ) ;
#22 = SURFACE_STYLE_USAGE ( .BOTH. , #96 ) ;
#23 = EDGE_LOOP ( 'NONE', ( #98, #204 ) ) ;
#24 = AXIS2_PLACEMENT_3D ( 'NONE', #343, #78, #307 ) ;
#25 = DIRECTION ( 'NONE',  ( -1.000000000000000000, 0.000000000000000000, 0.000000000000000000 ) ) ;
#26 = SURFACE_SIDE_STYLE ('',( #50 ) ) ;
#27 = ADVANCED_FACE ( 'NONE', ( #277 ), #288, .T. ) ;
#28 = ORIENTED_EDGE ( 'NONE', *, *, #76, .F. ) ;
#29 =( NAMED_UNIT ( * ) PLANE_ANGLE_UNIT ( ) SI_UNIT ( $, .RADIAN. ) );
#30 = DIRECTION ( 'NONE',  ( 0.000000000000000000, 0.000000000000000000, -1.000000000000000000 ) ) ;
#31 = CLOSED_SHELL ( 'NONE', ( #79, #278, #355, #218, #214, #255 ) ) ;
#32 = UNCERTAINTY_MEASURE_WITH_UNIT (LENGTH_MEASURE( 1.000000000000000082E-05 ), #205, 'distance_accuracy_value', 'NONE');
#33 =( LENGTH_UNIT ( ) NAMED_UNIT ( * ) SI_UNIT ( .MILLI., .METRE. ) );
#34 = DIRECTION ( 'NONE',  ( 0.000000000000000000, 0.000000000000000000, 1.000000000000000000 ) ) ;
#35 = EDGE_CURVE ( 'NONE', #141, #291, #53, .T. ) ;
#36 = VERTEX_POINT ( 'NONE', #133 ) ;
#37 = DIRECTION ( 'NONE',  ( 0.000000000000000000, 0.000000000000000000, -1.000000000000000000 ) ) ;
#38 = CIRCLE ( 'NONE', #1, 3.000000000000000000 ) ;
#39 = VERTEX_POINT ( 'NONE', #322 ) ;
#40 = STYLED_ITEM ( 'NONE', ( #217 ), #278 ) ;
#41 = AXIS2_PLACEMENT_3D ( 'NONE', #333, #69, #233 ) ;
#42 = EDGE_CURVE ( 'NONE', #250, #91, #353, .T. ) ;
#43 = EDGE_LOOP ( 'NONE', ( #303, #173, #68, #301 ) ) ;
#44 = SURFACE_STYLE_FILL_AREA ( #270 ) ;
#45 = COLOUR_RGB ( '',0.7921568627450980005, 0.8196078431372548767, 0.9333333333333333481 ) ;
#46 = SURFACE_SIDE_STYLE ('',( #210 ) ) ;
#47 = DIRECTION ( 'NONE',  ( -1.224646799147353207E-16, 0.000000000000000000, -1.000000000000000000 ) ) ;
#48 = PLANE ( 'NONE',  #329 ) ;
#49 = SURFACE_SIDE_STYLE ('',( #366 ) ) ;
#50 = SURFACE_STYLE_FILL_AREA ( #81 ) ;
#51 = CARTESIAN_POINT ( 'NONE',  ( 2.999999999999996891, 63.00000000000000000, 3.673940397442052472E-16 ) ) ;
#52 = DIRECTION ( 'NONE',  ( -1.203932746194552959E-16, 1.000000000000000000, -0.000000000000000000 ) ) ;
#53 = CIRCLE ( 'NONE', #289, 1.000000000000000000 ) ;
#54 = DIRECTION ( 'NONE',  ( 0.000000000000000000, 0.000000000000000000, 1.000000000000000000 ) ) ;
#55 = DIRECTION ( 'NONE',  ( -1.203932746194552959E-16, 1.000000000000000000, -0.000000000000000000 ) ) ;
#56 = ORIENTED_EDGE ( 'NONE', *, *, #314, .F. ) ;
#57 = SURFACE_SIDE_STYLE ('',( #62 ) ) ;
#58 = AXIS2_PLACEMENT_3D ( 'NONE', #153, #17, #25 ) ;
#59 = ORIENTED_EDGE ( 'NONE', *, *, #14, .T. ) ;
#60 = DIRECTION ( 'NONE',  ( 0.000000000000000000, 0.000000000000000000, -1.000000000000000000 ) ) ;
#61 = CARTESIAN_POINT ( 'NONE',  ( 0.000000000000000000, 1.000000000000000000, -2.000000000000000000 ) ) ;
#62 = SURFACE_STYLE_FILL_AREA ( #315 ) ;
#63 = DIRECTION ( 'NONE',  ( -0.000000000000000000, -1.000000000000000000, -0.000000000000000000 ) ) ;
#64 =( NAMED_UNIT ( * ) PLANE_ANGLE_UNIT ( ) SI_UNIT ( $, .RADIAN. ) );
#65 = PRESENTATION_LAYER_ASSIGNMENT (  '', '', ( #245 ) ) ;
#66 = ORIENTED_EDGE ( 'NONE', *, *, #332, .F. ) ;
#67 = MECHANICAL_DESIGN_GEOMETRIC_PRESENTATION_REPRESENTATION (  '', ( #3 ), #216 ) ;
#68 = ORIENTED_EDGE ( 'NONE', *, *, #35, .T. ) ;
#69 = DIRECTION ( 'NONE',  ( -0.000000000000000000, -1.000000000000000000, -0.000000000000000000 ) ) ;
#70 = SURFACE_STYLE_USAGE ( .BOTH. , #49 ) ;
#71 = FACE_OUTER_BOUND ( 'NONE', #100, .T. ) ;
#72 = AXIS2_PLACEMENT_3D ( 'NONE', #9, #294, #327 ) ;
#73 = DIRECTION ( 'NONE',  ( 1.000000000000000000, 0.000000000000000000, -1.224646799147353207E-16 ) ) ;
#74 = PRESENTATION_STYLE_ASSIGNMENT (( #234 ) ) ;
#75 =( LENGTH_UNIT ( ) NAMED_UNIT ( * ) SI_UNIT ( .MILLI., .METRE. ) );
#76 = EDGE_CURVE ( 'NONE', #250, #244, #134, .T. ) ;
#77 =( NAMED_UNIT ( * ) SI_UNIT ( $, .STERADIAN. ) SOLID_ANGLE_UNIT ( ) );
#78 = DIRECTION ( 'NONE',  ( -0.000000000000000000, -1.000000000000000000, -0.000000000000000000 ) ) ;
#79 = ADVANCED_FACE ( 'NONE', ( #352 ), #211, .T. ) ;
#80 = APPLICATION_PROTOCOL_DEFINITION ( 'draft international standard', 'automotive_design', 1998, #311 ) ;
#81 = FILL_AREA_STYLE ('',( #220 ) ) ;
#82 =( GEOMETRIC_REPRESENTATION_CONTEXT ( 3 ) GLOBAL_UNCERTAINTY_ASSIGNED_CONTEXT ( ( #276 ) ) GLOBAL_UNIT_ASSIGNED_CONTEXT ( ( #259, #260, #296 ) ) REPRESENTATION_CONTEXT ( 'NONE', 'WORKASPACE' ) );
#83 = PRESENTATION_LAYER_ASSIGNMENT (  '', '', ( #3 ) ) ;
#84 = APPLICATION_PROTOCOL_DEFINITION ( 'draft international standard', 'automotive_design', 1998, #201 ) ;
#85 = EDGE_LOOP ( 'NONE', ( #283, #146, #347, #5 ) ) ;
#86 = CIRCLE ( 'NONE', #102, 2.999999999999996891 ) ;
#87 = COLOUR_RGB ( '',0.7921568627450980005, 0.8196078431372548767, 0.9333333333333333481 ) ;
#88 = COLOUR_RGB ( '',1.000000000000000000, 0.000000000000000000, 0.000000000000000000 ) ;
#89 = ORIENTED_EDGE ( 'NONE', *, *, #142, .F. ) ;
#90 = DIRECTION ( 'NONE',  ( -0.000000000000000000, -1.000000000000000000, -0.000000000000000000 ) ) ;
#91 = VERTEX_POINT ( 'NONE', #16 ) ;
#92 = AXIS2_PLACEMENT_3D ( 'NONE', #199, #63, #287 ) ;
#93 = CARTESIAN_POINT ( 'NONE',  ( 0.000000000000000000, 0.000000000000000000, -2.000000000000000000 ) ) ;
#94 = CARTESIAN_POINT ( 'NONE',  ( 0.000000000000000000, 0.000000000000000000, -3.000000000000000000 ) ) ;
#95 = CARTESIAN_POINT ( 'NONE',  ( 9.324138683375338132E-15, 12.00000000000000000, 0.000000000000000000 ) ) ;
#96 = SURFACE_SIDE_STYLE ('',( #238 ) ) ;
#97 = TOROIDAL_SURFACE ( 'NONE', #41, 2.000000000000000000, 1.000000000000000000 ) ;
#98 = ORIENTED_EDGE ( 'NONE', *, *, #176, .T. ) ;
#99 =( LENGTH_UNIT ( ) NAMED_UNIT ( * ) SI_UNIT ( .MILLI., .METRE. ) );
#100 = EDGE_LOOP ( 'NONE', ( #226, #285, #323, #295 ) ) ;
#101 = LINE ( 'NONE', #51, #143 ) ;
#102 = AXIS2_PLACEMENT_3D ( 'NONE', #258, #115, #4 ) ;
#103 = STYLED_ITEM ( 'NONE', ( #74 ), #255 ) ;
#104 = AXIS2_PLACEMENT_3D ( 'NONE', #196, #54, #162 ) ;
#105 = PRODUCT_DEFINITION ( 'UNKNOWN', '', #330, #249 ) ;
#106 = EDGE_LOOP ( 'NONE', ( #319, #111, #89, #108 ) ) ;
#107 = DIRECTION ( 'NONE',  ( -0.000000000000000000, -1.000000000000000000, -0.000000000000000000 ) ) ;
#108 = ORIENTED_EDGE ( 'NONE', *, *, #14, .F. ) ;
#109 = DIRECTION ( 'NONE',  ( -1.203932746194552959E-16, 1.000000000000000000, -0.000000000000000000 ) ) ;
#110 = COLOUR_RGB ( '',1.000000000000000000, 0.000000000000000000, 0.000000000000000000 ) ;
#111 = ORIENTED_EDGE ( 'NONE', *, *, #225, .T. ) ;
#112 = CARTESIAN_POINT ( 'NONE',  ( 0.000000000000000000, 1.000000000000000000, 0.000000000000000000 ) ) ;
#113 =( GEOMETRIC_REPRESENTATION_CONTEXT ( 3 ) GLOBAL_UNCERTAINTY_ASSIGNED_CONTEXT ( ( #32 ) ) GLOBAL_UNIT_ASSIGNED_CONTEXT ( ( #205, #148, #116 ) ) REPRESENTATION_CONTEXT ( 'NONE', 'WORKASPACE' ) );
#114 = FACE_OUTER_BOUND ( 'NONE', #209, .T. ) ;
#115 = DIRECTION ( 'NONE',  ( -1.203932746194552959E-16, 1.000000000000000000, -0.000000000000000000 ) ) ;
#116 =( NAMED_UNIT ( * ) SI_UNIT ( $, .STERADIAN. ) SOLID_ANGLE_UNIT ( ) );
#117 = AXIS2_PLACEMENT_3D ( 'NONE', #351, #90, #202 ) ;
#118 = STYLED_ITEM ( 'NONE', ( #129 ), #316 ) ;
#119 = CARTESIAN_POINT ( 'NONE',  ( 0.000000000000000000, 0.000000000000000000, 0.000000000000000000 ) ) ;
#120 = DIRECTION ( 'NONE',  ( -1.203932746194552959E-16, 1.000000000000000000, -0.000000000000000000 ) ) ;
#121 = CARTESIAN_POINT ( 'NONE',  ( 0.000000000000000000, 0.000000000000000000, 0.000000000000000000 ) ) ;
#122 = EDGE_LOOP ( 'NONE', ( #152, #313, #59, #12 ) ) ;
#123 = ADVANCED_FACE ( 'NONE', ( #208 ), #331, .F. ) ;
#124 = FILL_AREA_STYLE_COLOUR ( '', #192 ) ;
#125 =( NAMED_UNIT ( * ) SI_UNIT ( $, .STERADIAN. ) SOLID_ANGLE_UNIT ( ) );
#126 = MECHANICAL_DESIGN_GEOMETRIC_PRESENTATION_REPRESENTATION (  '', ( #350 ), #206 ) ;
#127 = DIRECTION ( 'NONE',  ( -0.000000000000000000, -1.000000000000000000, -0.000000000000000000 ) ) ;
#128 = DIRECTION ( 'NONE',  ( -1.203932746194552959E-16, 1.000000000000000000, 0.000000000000000000 ) ) ;
#129 = PRESENTATION_STYLE_ASSIGNMENT (( #248 ) ) ;
#130 = DIRECTION ( 'NONE',  ( -0.000000000000000000, -1.000000000000000000, -0.000000000000000000 ) ) ;
#131 = PRESENTATION_LAYER_ASSIGNMENT (  '', '', ( #159 ) ) ;
#132 =( NAMED_UNIT ( * ) SI_UNIT ( $, .STERADIAN. ) SOLID_ANGLE_UNIT ( ) );
#133 = CARTESIAN_POINT ( 'NONE',  ( 3.000000000000000444, 63.00000000000000000, 3.673940397442054938E-16 ) ) ;
#134 = CIRCLE ( 'NONE', #92, 3.000000000000000000 ) ;
#135 = AXIS2_PLACEMENT_3D ( 'NONE', #272, #52, #344 ) ;
#136 = PRODUCT_CONTEXT ( 'NONE', #201, 'mechanical' ) ;
#137 = EDGE_LOOP ( 'NONE', ( #345, #183, #328, #203 ) ) ;
#138 = UNCERTAINTY_MEASURE_WITH_UNIT (LENGTH_MEASURE( 1.000000000000000082E-05 ), #334, 'distance_accuracy_value', 'NONE');
#139 =( NAMED_UNIT ( * ) SI_UNIT ( $, .STERADIAN. ) SOLID_ANGLE_UNIT ( ) );
#140 = VERTEX_POINT ( 'NONE', #284 ) ;
#141 = VERTEX_POINT ( 'NONE', #11 ) ;
#142 = EDGE_CURVE ( 'NONE', #185, #36, #357, .T. ) ;
#143 = VECTOR ( 'NONE', #120, 1000.000000000000000 ) ;
#144 = CARTESIAN_POINT ( 'NONE',  ( 0.000000000000000000, 0.000000000000000000, 0.000000000000000000 ) ) ;
#145 = FILL_AREA_STYLE ('',( #318 ) ) ;
#146 = ORIENTED_EDGE ( 'NONE', *, *, #76, .T. ) ;
#147 = PRODUCT_RELATED_PRODUCT_CATEGORY ( 'part', '', ( #281 ) ) ;
#148 =( NAMED_UNIT ( * ) PLANE_ANGLE_UNIT ( ) SI_UNIT ( $, .RADIAN. ) );
#149 = SURFACE_STYLE_USAGE ( .BOTH. , #242 ) ;
#150 = SURFACE_STYLE_USAGE ( .BOTH. , #365 ) ;
#151 =( NAMED_UNIT ( * ) PLANE_ANGLE_UNIT ( ) SI_UNIT ( $, .RADIAN. ) );
#152 = ORIENTED_EDGE ( 'NONE', *, *, #225, .F. ) ;
#153 = CARTESIAN_POINT ( 'NONE',  ( 9.324138683375338132E-15, 11.99999999999999645, 0.000000000000000000 ) ) ;
#154 = PRESENTATION_STYLE_ASSIGNMENT (( #70 ) ) ;
#155 = CIRCLE ( 'NONE', #195, 2.000000000000000000 ) ;
#156 = COLOUR_RGB ( '',1.000000000000000000, 0.000000000000000000, 0.000000000000000000 ) ;
#157 =( NAMED_UNIT ( * ) SI_UNIT ( $, .STERADIAN. ) SOLID_ANGLE_UNIT ( ) );
#158 = DIRECTION ( 'NONE',  ( -0.000000000000000000, -1.000000000000000000, -0.000000000000000000 ) ) ;
#159 = STYLED_ITEM ( 'NONE', ( #268 ), #214 ) ;
#160 = AXIS2_PLACEMENT_3D ( 'NONE', #19, #73, #47 ) ;
#161 = UNCERTAINTY_MEASURE_WITH_UNIT (LENGTH_MEASURE( 1.000000000000000082E-05 ), #317, 'distance_accuracy_value', 'NONE');
#162 = DIRECTION ( 'NONE',  ( 1.000000000000000000, 0.000000000000000000, 0.000000000000000000 ) ) ;
#163 = DIRECTION ( 'NONE',  ( -1.203932746194552959E-16, 1.000000000000000000, -0.000000000000000000 ) ) ;
#164 = EDGE_LOOP ( 'NONE', ( #66, #28 ) ) ;
#165 = VECTOR ( 'NONE', #109, 1000.000000000000000 ) ;
#166 = VECTOR ( 'NONE', #184, 1000.000000000000000 ) ;
#167 = AXIS2_PLACEMENT_3D ( 'NONE', #222, #130, #243 ) ;
#168 = CARTESIAN_POINT ( 'NONE',  ( 3.184081677783117402E-15, 63.00000000000000000, 0.000000000000000000 ) ) ;
#169 = PRESENTATION_STYLE_ASSIGNMENT (( #6 ) ) ;
#170 = UNCERTAINTY_MEASURE_WITH_UNIT (LENGTH_MEASURE( 1.000000000000000082E-05 ), #246, 'distance_accuracy_value', 'NONE');
#171 = EDGE_CURVE ( 'NONE', #91, #141, #38, .T. ) ;
#172 = DIRECTION ( 'NONE',  ( -1.000000000000000000, 0.000000000000000000, 0.000000000000000000 ) ) ;
#173 = ORIENTED_EDGE ( 'NONE', *, *, #171, .T. ) ;
#174 = CARTESIAN_POINT ( 'NONE',  ( -2.999999999999991118, 63.00000000000000000, 0.000000000000000000 ) ) ;
#175 = TOROIDAL_SURFACE ( 'NONE', #24, 2.000000000000000000, 1.000000000000000000 ) ;
#176 = EDGE_CURVE ( 'NONE', #291, #273, #342, .T. ) ;
#177 = DIRECTION ( 'NONE',  ( 0.000000000000000000, 1.000000000000000000, 0.000000000000000000 ) ) ;
#178 = CARTESIAN_POINT ( 'NONE',  ( 0.000000000000000000, 12.00000000000000000, -3.000000000000000000 ) ) ;
#179 = DIRECTION ( 'NONE',  ( 0.000000000000000000, 0.000000000000000000, -1.000000000000000000 ) ) ;
#180 = PRESENTATION_LAYER_ASSIGNMENT (  '', '', ( #231 ) ) ;
#181 = AXIS2_PLACEMENT_3D ( 'NONE', #368, #158, #30 ) ;
#182 = LINE ( 'NONE', #94, #166 ) ;
#183 = ORIENTED_EDGE ( 'NONE', *, *, #42, .T. ) ;
#184 = DIRECTION ( 'NONE',  ( -0.000000000000000000, -1.000000000000000000, -0.000000000000000000 ) ) ;
#185 = VERTEX_POINT ( 'NONE', #324 ) ;
#186 = DIRECTION ( 'NONE',  ( -1.000000000000000000, 0.000000000000000000, 0.000000000000000000 ) ) ;
#187 =( NAMED_UNIT ( * ) PLANE_ANGLE_UNIT ( ) SI_UNIT ( $, .RADIAN. ) );
#188 = MECHANICAL_DESIGN_GEOMETRIC_PRESENTATION_REPRESENTATION (  '', ( #159 ), #362 ) ;
#189 = ADVANCED_FACE ( 'NONE', ( #114 ), #305, .F. ) ;
#190 =( NAMED_UNIT ( * ) SI_UNIT ( $, .STERADIAN. ) SOLID_ANGLE_UNIT ( ) );
#191 = MANIFOLD_SOLID_BREP ( 'Revolve - Tool Body (Straight Shanked)', #251 ) ;
#192 = COLOUR_RGB ( '',1.000000000000000000, 0.000000000000000000, 0.000000000000000000 ) ;
#193 = PRESENTATION_LAYER_ASSIGNMENT (  '', '', ( #103 ) ) ;
#194 = CARTESIAN_POINT ( 'NONE',  ( 3.184081677783117402E-15, 63.00000000000000000, 0.000000000000000000 ) ) ;
#195 = AXIS2_PLACEMENT_3D ( 'NONE', #119, #127, #21 ) ;
#196 = CARTESIAN_POINT ( 'NONE',  ( 0.000000000000000000, 0.000000000000000000, 0.000000000000000000 ) ) ;
#197 = DIRECTION ( 'NONE',  ( 0.000000000000000000, -1.000000000000000000, -0.000000000000000000 ) ) ;
#198 = SURFACE_SIDE_STYLE ('',( #320 ) ) ;
#199 = CARTESIAN_POINT ( 'NONE',  ( 0.000000000000000000, 12.00000000000000000, 0.000000000000000000 ) ) ;
#200 =( GEOMETRIC_REPRESENTATION_CONTEXT ( 3 ) GLOBAL_UNCERTAINTY_ASSIGNED_CONTEXT ( ( #282 ) ) GLOBAL_UNIT_ASSIGNED_CONTEXT ( ( #325, #64, #139 ) ) REPRESENTATION_CONTEXT ( 'NONE', 'WORKASPACE' ) );
#201 = APPLICATION_CONTEXT ( 'automotive_design' ) ;
#202 = DIRECTION ( 'NONE',  ( 0.000000000000000000, 0.000000000000000000, -1.000000000000000000 ) ) ;
#203 = ORIENTED_EDGE ( 'NONE', *, *, #254, .F. ) ;
#204 = ORIENTED_EDGE ( 'NONE', *, *, #266, .T. ) ;
#205 =( LENGTH_UNIT ( ) NAMED_UNIT ( * ) SI_UNIT ( .MILLI., .METRE. ) );
#206 =( GEOMETRIC_REPRESENTATION_CONTEXT ( 3 ) GLOBAL_UNCERTAINTY_ASSIGNED_CONTEXT ( ( #7 ) ) GLOBAL_UNIT_ASSIGNED_CONTEXT ( ( #75, #151, #125 ) ) REPRESENTATION_CONTEXT ( 'NONE', 'WORKASPACE' ) );
#207 = CIRCLE ( 'NONE', #167, 3.000000000000000000 ) ;
#208 = FACE_OUTER_BOUND ( 'NONE', #227, .T. ) ;
#209 = EDGE_LOOP ( 'NONE', ( #308, #56 ) ) ;
#210 = SURFACE_STYLE_FILL_AREA ( #363 ) ;
#211 = CYLINDRICAL_SURFACE ( 'NONE', #304, 3.000000000000000000 ) ;
#212 = CARTESIAN_POINT ( 'NONE',  ( 3.673940397442059868E-16, 12.00000000000000000, 3.000000000000000000 ) ) ;
#213 = FILL_AREA_STYLE_COLOUR ( '', #110 ) ;
#214 = ADVANCED_FACE ( 'NONE', ( #300 ), #336, .T. ) ;
#215 = PRESENTATION_LAYER_ASSIGNMENT (  '', '', ( #350 ) ) ;
#216 =( GEOMETRIC_REPRESENTATION_CONTEXT ( 3 ) GLOBAL_UNCERTAINTY_ASSIGNED_CONTEXT ( ( #326 ) ) GLOBAL_UNIT_ASSIGNED_CONTEXT ( ( #33, #247, #132 ) ) REPRESENTATION_CONTEXT ( 'NONE', 'WORKASPACE' ) );
#217 = PRESENTATION_STYLE_ASSIGNMENT (( #150 ) ) ;
#218 = ADVANCED_FACE ( 'NONE', ( #235 ), #175, .T. ) ;
#219 = ADVANCED_BREP_SHAPE_REPRESENTATION ( '59652', ( #316, #191, #104 ), #239 ) ;
#220 = FILL_AREA_STYLE_COLOUR ( '', #45 ) ;
#221 = CIRCLE ( 'NONE', #58, 2.999999999999991562 ) ;
#222 = CARTESIAN_POINT ( 'NONE',  ( 0.000000000000000000, 12.00000000000000000, 0.000000000000000000 ) ) ;
#223 = PLANE ( 'NONE',  #358 ) ;
#224 = PRESENTATION_STYLE_ASSIGNMENT (( #256 ) ) ;
#225 = EDGE_CURVE ( 'NONE', #39, #36, #101, .T. ) ;
#226 = ORIENTED_EDGE ( 'NONE', *, *, #354, .T. ) ;
#227 = EDGE_LOOP ( 'NONE', ( #341, #367 ) ) ;
#228 = PRESENTATION_LAYER_ASSIGNMENT (  '', '', ( #118 ) ) ;
#229 = DIRECTION ( 'NONE',  ( -1.000000000000000000, 0.000000000000000000, 0.000000000000000000 ) ) ;
#230 = CARTESIAN_POINT ( 'NONE',  ( 3.184081677783117402E-15, 63.00000000000000000, 0.000000000000000000 ) ) ;
#231 = STYLED_ITEM ( 'NONE', ( #224 ), #79 ) ;
#232 = AXIS2_PLACEMENT_3D ( 'NONE', #194, #163, #186 ) ;
#233 = DIRECTION ( 'NONE',  ( 0.000000000000000000, 0.000000000000000000, -1.000000000000000000 ) ) ;
#234 = SURFACE_STYLE_USAGE ( .BOTH. , #46 ) ;
#235 = FACE_OUTER_BOUND ( 'NONE', #43, .T. ) ;
#236 = CARTESIAN_POINT ( 'NONE',  ( 3.061616997868383141E-16, 0.000000000000000000, 2.000000000000000000 ) ) ;
#237 = AXIS2_PLACEMENT_3D ( 'NONE', #121, #360, #179 ) ;
#238 = SURFACE_STYLE_FILL_AREA ( #262 ) ;
#239 =( GEOMETRIC_REPRESENTATION_CONTEXT ( 3 ) GLOBAL_UNCERTAINTY_ASSIGNED_CONTEXT ( ( #161 ) ) GLOBAL_UNIT_ASSIGNED_CONTEXT ( ( #317, #348, #370 ) ) REPRESENTATION_CONTEXT ( 'NONE', 'WORKASPACE' ) );
#240 = MECHANICAL_DESIGN_GEOMETRIC_PRESENTATION_REPRESENTATION (  '', ( #118 ), #298 ) ;
#241 = FILL_AREA_STYLE_COLOUR ( '', #88 ) ;
#242 = SURFACE_SIDE_STYLE ('',( #44 ) ) ;
#243 = DIRECTION ( 'NONE',  ( 0.000000000000000000, 0.000000000000000000, -1.000000000000000000 ) ) ;
#244 = VERTEX_POINT ( 'NONE', #178 ) ;
#245 = STYLED_ITEM ( 'NONE', ( #154 ), #191 ) ;
#246 =( LENGTH_UNIT ( ) NAMED_UNIT ( * ) SI_UNIT ( .MILLI., .METRE. ) );
#247 =( NAMED_UNIT ( * ) PLANE_ANGLE_UNIT ( ) SI_UNIT ( $, .RADIAN. ) );
#248 = SURFACE_STYLE_USAGE ( .BOTH. , #26 ) ;
#249 = PRODUCT_DEFINITION_CONTEXT ( 'detailed design', #311, 'design' ) ;
#250 = VERTEX_POINT ( 'NONE', #212 ) ;
#251 = CLOSED_SHELL ( 'NONE', ( #309, #189, #27, #123 ) ) ;
#252 = CARTESIAN_POINT ( 'NONE',  ( 3.673940397442059868E-16, 0.000000000000000000, 3.000000000000000000 ) ) ;
#253 = VECTOR ( 'NONE', #107, 1000.000000000000000 ) ;
#254 = EDGE_CURVE ( 'NONE', #244, #141, #182, .T. ) ;
#255 = ADVANCED_FACE ( 'NONE', ( #293 ), #48, .T. ) ;
#256 = SURFACE_STYLE_USAGE ( .BOTH. , #198 ) ;
#257 = DIRECTION ( 'NONE',  ( -1.203932746194552959E-16, 1.000000000000000000, -0.000000000000000000 ) ) ;
#258 = CARTESIAN_POINT ( 'NONE',  ( 3.184081677783117402E-15, 63.00000000000000000, 0.000000000000000000 ) ) ;
#259 =( LENGTH_UNIT ( ) NAMED_UNIT ( * ) SI_UNIT ( .MILLI., .METRE. ) );
#260 =( NAMED_UNIT ( * ) PLANE_ANGLE_UNIT ( ) SI_UNIT ( $, .RADIAN. ) );
#261 = MECHANICAL_DESIGN_GEOMETRIC_PRESENTATION_REPRESENTATION (  '', ( #245 ), #274 ) ;
#262 = FILL_AREA_STYLE ('',( #361 ) ) ;
#263 = EDGE_CURVE ( 'NONE', #140, #39, #221, .T. ) ;
#264 =( NAMED_UNIT ( * ) PLANE_ANGLE_UNIT ( ) SI_UNIT ( $, .RADIAN. ) );
#265 = FACE_OUTER_BOUND ( 'NONE', #106, .T. ) ;
#266 = EDGE_CURVE ( 'NONE', #273, #291, #155, .T. ) ;
#267 = CARTESIAN_POINT ( 'NONE',  ( 0.000000000000000000, 12.00000000000000000, 0.000000000000000000 ) ) ;
#268 = PRESENTATION_STYLE_ASSIGNMENT (( #149 ) ) ;
#269 = MECHANICAL_DESIGN_GEOMETRIC_PRESENTATION_REPRESENTATION (  '', ( #40 ), #113 ) ;
#270 = FILL_AREA_STYLE ('',( #213 ) ) ;
#271 = CYLINDRICAL_SURFACE ( 'NONE', #232, 2.999999999999993783 ) ;
#272 = CARTESIAN_POINT ( 'NONE',  ( 9.324138683375338132E-15, 11.99999999999999645, 0.000000000000000000 ) ) ;
#273 = VERTEX_POINT ( 'NONE', #236 ) ;
#274 =( GEOMETRIC_REPRESENTATION_CONTEXT ( 3 ) GLOBAL_UNCERTAINTY_ASSIGNED_CONTEXT ( ( #138 ) ) GLOBAL_UNIT_ASSIGNED_CONTEXT ( ( #334, #187, #157 ) ) REPRESENTATION_CONTEXT ( 'NONE', 'WORKASPACE' ) );
#275 = CIRCLE ( 'NONE', #160, 1.000000000000000000 ) ;
#276 = UNCERTAINTY_MEASURE_WITH_UNIT (LENGTH_MEASURE( 1.000000000000000082E-05 ), #259, 'distance_accuracy_value', 'NONE');
#277 = FACE_OUTER_BOUND ( 'NONE', #122, .T. ) ;
#278 = ADVANCED_FACE ( 'NONE', ( #71 ), #97, .T. ) ;
#279 = MECHANICAL_DESIGN_GEOMETRIC_PRESENTATION_REPRESENTATION (  '', ( #103 ), #82 ) ;
#280 = PRESENTATION_LAYER_ASSIGNMENT (  '', '', ( #40 ) ) ;
#281 = PRODUCT ( '59652', '59652', '', ( #136 ) ) ;
#282 = UNCERTAINTY_MEASURE_WITH_UNIT (LENGTH_MEASURE( 1.000000000000000082E-05 ), #325, 'distance_accuracy_value', 'NONE');
#283 = ORIENTED_EDGE ( 'NONE', *, *, #42, .F. ) ;
#284 = CARTESIAN_POINT ( 'NONE',  ( -2.999999999999981792, 11.99999999999999645, 0.000000000000000000 ) ) ;
#285 = ORIENTED_EDGE ( 'NONE', *, *, #302, .T. ) ;
#286 = DIRECTION ( 'NONE',  ( -0.000000000000000000, -1.000000000000000000, -0.000000000000000000 ) ) ;
#287 = DIRECTION ( 'NONE',  ( 0.000000000000000000, 0.000000000000000000, -1.000000000000000000 ) ) ;
#288 = CYLINDRICAL_SURFACE ( 'NONE', #306, 2.999999999999993783 ) ;
#289 = AXIS2_PLACEMENT_3D ( 'NONE', #61, #229, #34 ) ;
#290 = COLOUR_RGB ( '',1.000000000000000000, 0.000000000000000000, 0.000000000000000000 ) ;
#291 = VERTEX_POINT ( 'NONE', #93 ) ;
#292 = UNCERTAINTY_MEASURE_WITH_UNIT (LENGTH_MEASURE( 1.000000000000000082E-05 ), #99, 'distance_accuracy_value', 'NONE');
#293 = FACE_OUTER_BOUND ( 'NONE', #164, .T. ) ;
#294 = DIRECTION ( 'NONE',  ( 1.203932746194552959E-16, -1.000000000000000000, 0.000000000000000000 ) ) ;
#295 = ORIENTED_EDGE ( 'NONE', *, *, #35, .F. ) ;
#296 =( NAMED_UNIT ( * ) SI_UNIT ( $, .STERADIAN. ) SOLID_ANGLE_UNIT ( ) );
#297 = DIRECTION ( 'NONE',  ( 0.000000000000000000, -0.000000000000000000, 1.000000000000000000 ) ) ;
#298 =( GEOMETRIC_REPRESENTATION_CONTEXT ( 3 ) GLOBAL_UNCERTAINTY_ASSIGNED_CONTEXT ( ( #170 ) ) GLOBAL_UNIT_ASSIGNED_CONTEXT ( ( #246, #29, #190 ) ) REPRESENTATION_CONTEXT ( 'NONE', 'WORKASPACE' ) );
#299 = FILL_AREA_STYLE ('',( #339 ) ) ;
#300 = FACE_OUTER_BOUND ( 'NONE', #85, .T. ) ;
#301 = ORIENTED_EDGE ( 'NONE', *, *, #266, .F. ) ;
#302 = EDGE_CURVE ( 'NONE', #91, #273, #275, .T. ) ;
#303 = ORIENTED_EDGE ( 'NONE', *, *, #302, .F. ) ;
#304 = AXIS2_PLACEMENT_3D ( 'NONE', #144, #15, #60 ) ;
#305 = PLANE ( 'NONE',  #337 ) ;
#306 = AXIS2_PLACEMENT_3D ( 'NONE', #230, #55, #349 ) ;
#307 = DIRECTION ( 'NONE',  ( 0.000000000000000000, 0.000000000000000000, -1.000000000000000000 ) ) ;
#308 = ORIENTED_EDGE ( 'NONE', *, *, #263, .F. ) ;
#309 = ADVANCED_FACE ( 'NONE', ( #265 ), #271, .T. ) ;
#310 = FACE_OUTER_BOUND ( 'NONE', #23, .T. ) ;
#311 = APPLICATION_CONTEXT ( 'automotive_design' ) ;
#312 = DIRECTION ( 'NONE',  ( 0.000000000000000000, 0.000000000000000000, -1.000000000000000000 ) ) ;
#313 = ORIENTED_EDGE ( 'NONE', *, *, #314, .T. ) ;
#314 = EDGE_CURVE ( 'NONE', #39, #140, #338, .T. ) ;
#315 = FILL_AREA_STYLE ('',( #356 ) ) ;
#316 = MANIFOLD_SOLID_BREP ( 'Revolve - Cutting Edge', #31 ) ;
#317 =( LENGTH_UNIT ( ) NAMED_UNIT ( * ) SI_UNIT ( .MILLI., .METRE. ) );
#318 = FILL_AREA_STYLE_COLOUR ( '', #369 ) ;
#319 = ORIENTED_EDGE ( 'NONE', *, *, #263, .T. ) ;
#320 = SURFACE_STYLE_FILL_AREA ( #145 ) ;
#321 = AXIS2_PLACEMENT_3D ( 'NONE', #168, #257, #172 ) ;
#322 = CARTESIAN_POINT ( 'NONE',  ( 3.000000000000000000, 11.99999999999999645, 3.673940397442054938E-16 ) ) ;
#323 = ORIENTED_EDGE ( 'NONE', *, *, #176, .F. ) ;
#324 = CARTESIAN_POINT ( 'NONE',  ( -2.999999999999993783, 63.00000000000000000, 0.000000000000000000 ) ) ;
#325 =( LENGTH_UNIT ( ) NAMED_UNIT ( * ) SI_UNIT ( .MILLI., .METRE. ) );
#326 = UNCERTAINTY_MEASURE_WITH_UNIT (LENGTH_MEASURE( 1.000000000000000082E-05 ), #33, 'distance_accuracy_value', 'NONE');
#327 = DIRECTION ( 'NONE',  ( 1.000000000000000000, 1.203932746194552959E-16, 0.000000000000000000 ) ) ;
#328 = ORIENTED_EDGE ( 'NONE', *, *, #354, .F. ) ;
#329 = AXIS2_PLACEMENT_3D ( 'NONE', #267, #177, #297 ) ;
#330 = PRODUCT_DEFINITION_FORMATION_WITH_SPECIFIED_SOURCE ( 'ANY', '', #281, .NOT_KNOWN. ) ;
#331 = PLANE ( 'NONE',  #72 ) ;
#332 = EDGE_CURVE ( 'NONE', #244, #250, #207, .T. ) ;
#333 = CARTESIAN_POINT ( 'NONE',  ( 0.000000000000000000, 1.000000000000000000, 0.000000000000000000 ) ) ;
#334 =( LENGTH_UNIT ( ) NAMED_UNIT ( * ) SI_UNIT ( .MILLI., .METRE. ) );
#335 = SURFACE_STYLE_FILL_AREA ( #359 ) ;
#336 = CYLINDRICAL_SURFACE ( 'NONE', #237, 3.000000000000000000 ) ;
#337 = AXIS2_PLACEMENT_3D ( 'NONE', #95, #128, #18 ) ;
#338 = CIRCLE ( 'NONE', #135, 2.999999999999991562 ) ;
#339 = FILL_AREA_STYLE_COLOUR ( '', #87 ) ;
#340 = PRESENTATION_STYLE_ASSIGNMENT (( #22 ) ) ;
#341 = ORIENTED_EDGE ( 'NONE', *, *, #142, .T. ) ;
#342 = CIRCLE ( 'NONE', #117, 2.000000000000000000 ) ;
#343 = CARTESIAN_POINT ( 'NONE',  ( 0.000000000000000000, 1.000000000000000000, 0.000000000000000000 ) ) ;
#344 = DIRECTION ( 'NONE',  ( -1.000000000000000000, 0.000000000000000000, 0.000000000000000000 ) ) ;
#345 = ORIENTED_EDGE ( 'NONE', *, *, #332, .T. ) ;
#346 = CARTESIAN_POINT ( 'NONE',  ( 0.000000000000000000, 0.000000000000000000, 0.000000000000000000 ) ) ;
#347 = ORIENTED_EDGE ( 'NONE', *, *, #254, .T. ) ;
#348 =( NAMED_UNIT ( * ) PLANE_ANGLE_UNIT ( ) SI_UNIT ( $, .RADIAN. ) );
#349 = DIRECTION ( 'NONE',  ( -1.000000000000000000, 0.000000000000000000, 0.000000000000000000 ) ) ;
#350 = STYLED_ITEM ( 'NONE', ( #340 ), #218 ) ;
#351 = CARTESIAN_POINT ( 'NONE',  ( 0.000000000000000000, 0.000000000000000000, 0.000000000000000000 ) ) ;
#352 = FACE_OUTER_BOUND ( 'NONE', #137, .T. ) ;
#353 = LINE ( 'NONE', #252, #253 ) ;
#354 = EDGE_CURVE ( 'NONE', #141, #91, #13, .T. ) ;
#355 = ADVANCED_FACE ( 'NONE', ( #310 ), #223, .T. ) ;
#356 = FILL_AREA_STYLE_COLOUR ( '', #156 ) ;
#357 = CIRCLE ( 'NONE', #321, 2.999999999999996891 ) ;
#358 = AXIS2_PLACEMENT_3D ( 'NONE', #346, #197, #312 ) ;
#359 = FILL_AREA_STYLE ('',( #241 ) ) ;
#360 = DIRECTION ( 'NONE',  ( -0.000000000000000000, -1.000000000000000000, -0.000000000000000000 ) ) ;
#361 = FILL_AREA_STYLE_COLOUR ( '', #290 ) ;
#362 =( GEOMETRIC_REPRESENTATION_CONTEXT ( 3 ) GLOBAL_UNCERTAINTY_ASSIGNED_CONTEXT ( ( #292 ) ) GLOBAL_UNIT_ASSIGNED_CONTEXT ( ( #99, #264, #77 ) ) REPRESENTATION_CONTEXT ( 'NONE', 'WORKASPACE' ) );
#363 = FILL_AREA_STYLE ('',( #124 ) ) ;
#364 = MECHANICAL_DESIGN_GEOMETRIC_PRESENTATION_REPRESENTATION (  '', ( #231 ), #200 ) ;
#365 = SURFACE_SIDE_STYLE ('',( #335 ) ) ;
#366 = SURFACE_STYLE_FILL_AREA ( #299 ) ;
#367 = ORIENTED_EDGE ( 'NONE', *, *, #20, .T. ) ;
#368 = CARTESIAN_POINT ( 'NONE',  ( 0.000000000000000000, 1.000000000000000000, 0.000000000000000000 ) ) ;
#369 = COLOUR_RGB ( '',1.000000000000000000, 0.000000000000000000, 0.000000000000000000 ) ;
#370 =( NAMED_UNIT ( * ) SI_UNIT ( $, .STERADIAN. ) SOLID_ANGLE_UNIT ( ) );
ENDSEC;
END-ISO-10303-21;
