ISO-10303-21;
HEADER;
FILE_DESCRIPTION (( 'STEP AP214' ),
    '1' );
FILE_NAME ('17437.STEP',
    '2023-06-30T21:53:59',
    ( '' ),
    ( '' ),
    'SwSTEP 2.0',
    'SolidWorks 2023',
    '' );
FILE_SCHEMA (( 'AUTOMOTIVE_DESIGN' ));
ENDSEC;

DATA;
#1 = ORIENTED_EDGE ( 'NONE', *, *, #343, .F. ) ;
#2 =( NAMED_UNIT ( * ) SI_UNIT ( $, .STERADIAN. ) SOLID_ANGLE_UNIT ( ) );
#3 = AXIS2_PLACEMENT_3D ( 'NONE', #224, #174, #290 ) ;
#4 = ADVANCED_FACE ( 'NONE', ( #181 ), #137, .T. ) ;
#5 = FILL_AREA_STYLE ('',( #265 ) ) ;
#6 = SURFACE_SIDE_STYLE ('',( #7 ) ) ;
#7 = SURFACE_STYLE_FILL_AREA ( #302 ) ;
#8 = ORIENTED_EDGE ( 'NONE', *, *, #343, .T. ) ;
#9 = AXIS2_PLACEMENT_3D ( 'NONE', #165, #245, #279 ) ;
#10 = UNCERTAINTY_MEASURE_WITH_UNIT (LENGTH_MEASURE( 1.000000000000000082E-05 ), #322, 'distance_accuracy_value', 'NONE');
#11 = ORIENTED_EDGE ( 'NONE', *, *, #153, .F. ) ;
#12 =( NAMED_UNIT ( * ) PLANE_ANGLE_UNIT ( ) SI_UNIT ( $, .RADIAN. ) );
#13 = DIRECTION ( 'NONE',  ( 0.000000000000000000, 0.000000000000000000, -1.000000000000000000 ) ) ;
#14 = EDGE_CURVE ( 'NONE', #30, #205, #77, .T. ) ;
#15 =( LENGTH_UNIT ( ) NAMED_UNIT ( * ) SI_UNIT ( $, .METRE. ) );
#16 = AXIS2_PLACEMENT_3D ( 'NONE', #176, #270, #130 ) ;
#17 = LINE ( 'NONE', #75, #310 ) ;
#18 = CARTESIAN_POINT ( 'NONE',  ( -3.061616997868383018E-17, 0.2500000000000000000, 0.000000000000000000 ) ) ;
#19 =( LENGTH_UNIT ( ) NAMED_UNIT ( * ) SI_UNIT ( $, .METRE. ) );
#20 = ADVANCED_FACE ( 'NONE', ( #138 ), #215, .F. ) ;
#21 = COLOUR_RGB ( '',1.000000000000000000, 0.000000000000000000, 0.000000000000000000 ) ;
#22 =( NAMED_UNIT ( * ) PLANE_ANGLE_UNIT ( ) SI_UNIT ( $, .RADIAN. ) );
#23 = CIRCLE ( 'NONE', #16, 0.2499999999999998890 ) ;
#24 = APPLICATION_PROTOCOL_DEFINITION ( 'draft international standard', 'automotive_design', 1998, #330 ) ;
#25 = EDGE_CURVE ( 'NONE', #30, #161, #320, .T. ) ;
#26 = AXIS2_PLACEMENT_3D ( 'NONE', #219, #337, #108 ) ;
#27 = EDGE_CURVE ( 'NONE', #37, #60, #125, .T. ) ;
#28 = FACE_OUTER_BOUND ( 'NONE', #323, .T. ) ;
#29 =( CONVERSION_BASED_UNIT ( 'INCH', #127 ) LENGTH_UNIT ( ) NAMED_UNIT ( #129 ) );
#30 = VERTEX_POINT ( 'NONE', #246 ) ;
#31 = ADVANCED_FACE ( 'NONE', ( #313 ), #48, .F. ) ;
#32 = EDGE_LOOP ( 'NONE', ( #86, #91 ) ) ;
#33 = UNCERTAINTY_MEASURE_WITH_UNIT (LENGTH_MEASURE( 1.000000000000000082E-05 ), #241, 'distance_accuracy_value', 'NONE');
#34 = DIRECTION ( 'NONE',  ( -1.000000000000000000, 0.000000000000000000, 0.000000000000000000 ) ) ;
#35 = SURFACE_STYLE_USAGE ( .BOTH. , #94 ) ;
#36 = CARTESIAN_POINT ( 'NONE',  ( -3.061616997868383018E-17, 0.2500000000000000000, 0.000000000000000000 ) ) ;
#37 = VERTEX_POINT ( 'NONE', #277 ) ;
#38 = PRESENTATION_STYLE_ASSIGNMENT (( #143 ) ) ;
#39 = EDGE_LOOP ( 'NONE', ( #187, #295, #203, #335 ) ) ;
#40 = CARTESIAN_POINT ( 'NONE',  ( 6.123233995736772199E-17, 2.500000000000000000, 0.000000000000000000 ) ) ;
#41 = FACE_OUTER_BOUND ( 'NONE', #39, .T. ) ;
#42 = DIRECTION ( 'NONE',  ( 1.224646799147353207E-16, -0.000000000000000000, 1.000000000000000000 ) ) ;
#43 = CARTESIAN_POINT ( 'NONE',  ( 3.061616997868382402E-17, 0.000000000000000000, 0.2499999999999999167 ) ) ;
#44 = PRODUCT_DEFINITION_FORMATION_WITH_SPECIFIED_SOURCE ( 'ANY', '', #69, .NOT_KNOWN. ) ;
#45 = DIRECTION ( 'NONE',  ( 0.000000000000000000, 0.000000000000000000, -1.000000000000000000 ) ) ;
#46 = CARTESIAN_POINT ( 'NONE',  ( 0.000000000000000000, 0.2500000000000000000, -0.2500000000000000000 ) ) ;
#47 = COLOUR_RGB ( '',1.000000000000000000, 0.000000000000000000, 0.000000000000000000 ) ;
#48 = PLANE ( 'NONE',  #107 ) ;
#49 = STYLED_ITEM ( 'NONE', ( #38 ), #234 ) ;
#50 = PRODUCT_CONTEXT ( 'NONE', #330, 'mechanical' ) ;
#51 =( LENGTH_UNIT ( ) NAMED_UNIT ( * ) SI_UNIT ( $, .METRE. ) );
#52 =( NAMED_UNIT ( * ) PLANE_ANGLE_UNIT ( ) SI_UNIT ( $, .RADIAN. ) );
#53 = FILL_AREA_STYLE_COLOUR ( '', #47 ) ;
#54 = ORIENTED_EDGE ( 'NONE', *, *, #329, .F. ) ;
#55 = SURFACE_STYLE_USAGE ( .BOTH. , #202 ) ;
#56 =( NAMED_UNIT ( * ) SI_UNIT ( $, .STERADIAN. ) SOLID_ANGLE_UNIT ( ) );
#57 = COLOUR_RGB ( '',1.000000000000000000, 0.000000000000000000, 0.000000000000000000 ) ;
#58 = ORIENTED_EDGE ( 'NONE', *, *, #262, .T. ) ;
#59 = DIRECTION ( 'NONE',  ( -1.237188477660714949E-16, 1.000000000000000000, -0.000000000000000000 ) ) ;
#60 = VERTEX_POINT ( 'NONE', #247 ) ;
#61 = UNCERTAINTY_MEASURE_WITH_UNIT (LENGTH_MEASURE( 1.000000000000000082E-05 ), #263, 'distance_accuracy_value', 'NONE');
#62 = CARTESIAN_POINT ( 'NONE',  ( 0.2499999999999999167, 0.6250000000000000000, 3.061616997868380553E-17 ) ) ;
#63 = LENGTH_MEASURE_WITH_UNIT ( LENGTH_MEASURE( 0.02539999999999999897 ), #128 );
#64 = PRESENTATION_LAYER_ASSIGNMENT (  '', '', ( #352 ) ) ;
#65 = PRESENTATION_LAYER_ASSIGNMENT (  '', '', ( #171 ) ) ;
#66 = CARTESIAN_POINT ( 'NONE',  ( 0.000000000000000000, 0.000000000000000000, -0.2499999999999999167 ) ) ;
#67 = VERTEX_POINT ( 'NONE', #70 ) ;
#68 = CIRCLE ( 'NONE', #74, 0.2500000000000000000 ) ;
#69 = PRODUCT ( '17437', '17437', '', ( #50 ) ) ;
#70 = CARTESIAN_POINT ( 'NONE',  ( -1.530808498934191509E-17, 0.000000000000000000, 0.000000000000000000 ) ) ;
#71 = DIRECTION ( 'NONE',  ( -1.237188477660714949E-16, 1.000000000000000000, -0.000000000000000000 ) ) ;
#72 = DIMENSIONAL_EXPONENTS ( 1.000000000000000000, 0.000000000000000000, 0.000000000000000000, 0.000000000000000000, 0.000000000000000000, 0.000000000000000000, 0.000000000000000000 ) ;
#73 = DIRECTION ( 'NONE',  ( -1.000000000000000000, 0.000000000000000000, 0.000000000000000000 ) ) ;
#74 = AXIS2_PLACEMENT_3D ( 'NONE', #273, #282, #45 ) ;
#75 = CARTESIAN_POINT ( 'NONE',  ( 0.2499999999999998057, 2.500000000000000000, 3.061616997868379320E-17 ) ) ;
#76 = FACE_OUTER_BOUND ( 'NONE', #227, .T. ) ;
#77 = LINE ( 'NONE', #43, #251 ) ;
#78 = PRESENTATION_STYLE_ASSIGNMENT (( #55 ) ) ;
#79 = UNCERTAINTY_MEASURE_WITH_UNIT (LENGTH_MEASURE( 1.000000000000000082E-05 ), #168, 'distance_accuracy_value', 'NONE');
#80 = CARTESIAN_POINT ( 'NONE',  ( 0.2500000000000000000, 0.2500000000000000000, 0.000000000000000000 ) ) ;
#81 =( GEOMETRIC_REPRESENTATION_CONTEXT ( 3 ) GLOBAL_UNCERTAINTY_ASSIGNED_CONTEXT ( ( #33 ) ) GLOBAL_UNIT_ASSIGNED_CONTEXT ( ( #241, #211, #197 ) ) REPRESENTATION_CONTEXT ( 'NONE', 'WORKASPACE' ) );
#82 = DIRECTION ( 'NONE',  ( -1.237188477660714949E-16, 1.000000000000000000, -0.000000000000000000 ) ) ;
#83 =( GEOMETRIC_REPRESENTATION_CONTEXT ( 3 ) GLOBAL_UNCERTAINTY_ASSIGNED_CONTEXT ( ( #333 ) ) GLOBAL_UNIT_ASSIGNED_CONTEXT ( ( #162, #12, #311 ) ) REPRESENTATION_CONTEXT ( 'NONE', 'WORKASPACE' ) );
#84 = SURFACE_STYLE_USAGE ( .BOTH. , #144 ) ;
#85 =( LENGTH_UNIT ( ) NAMED_UNIT ( * ) SI_UNIT ( $, .METRE. ) );
#86 = ORIENTED_EDGE ( 'NONE', *, *, #27, .T. ) ;
#87 = EDGE_CURVE ( 'NONE', #214, #261, #235, .T. ) ;
#88 = VECTOR ( 'NONE', #334, 39.37007874015748143 ) ;
#89 = PRESENTATION_LAYER_ASSIGNMENT (  '', '', ( #95 ) ) ;
#90 = DIRECTION ( 'NONE',  ( -0.000000000000000000, -1.000000000000000000, -0.000000000000000000 ) ) ;
#91 = ORIENTED_EDGE ( 'NONE', *, *, #190, .T. ) ;
#92 = CARTESIAN_POINT ( 'NONE',  ( 3.061616997868383018E-17, 0.2500000000000000000, 0.2500000000000000000 ) ) ;
#93 = DIMENSIONAL_EXPONENTS ( 1.000000000000000000, 0.000000000000000000, 0.000000000000000000, 0.000000000000000000, 0.000000000000000000, 0.000000000000000000, 0.000000000000000000 ) ;
#94 = SURFACE_SIDE_STYLE ('',( #267 ) ) ;
#95 = STYLED_ITEM ( 'NONE', ( #78 ), #139 ) ;
#96 = ADVANCED_FACE ( 'NONE', ( #76 ), #365, .T. ) ;
#97 = FILL_AREA_STYLE ('',( #325 ) ) ;
#98 = AXIS2_PLACEMENT_3D ( 'NONE', #109, #140, #342 ) ;
#99 = PRESENTATION_LAYER_ASSIGNMENT (  '', '', ( #213 ) ) ;
#100 = LENGTH_MEASURE_WITH_UNIT ( LENGTH_MEASURE( 0.02539999999999999897 ), #15 );
#101 = DIRECTION ( 'NONE',  ( 1.237188477660714949E-16, -1.000000000000000000, 0.000000000000000000 ) ) ;
#102 = PRESENTATION_LAYER_ASSIGNMENT (  '', '', ( #49 ) ) ;
#103 = CARTESIAN_POINT ( 'NONE',  ( -0.2499999999999992784, 0.6250000000000000000, 0.000000000000000000 ) ) ;
#104 = ADVANCED_FACE ( 'NONE', ( #41 ), #192, .T. ) ;
#105 = LENGTH_MEASURE_WITH_UNIT ( LENGTH_MEASURE( 0.02539999999999999897 ), #19 );
#106 = DIRECTION ( 'NONE',  ( 0.000000000000000000, 0.000000000000000000, 1.000000000000000000 ) ) ;
#107 = AXIS2_PLACEMENT_3D ( 'NONE', #134, #101, #280 ) ;
#108 = DIRECTION ( 'NONE',  ( 0.000000000000000000, -0.000000000000000000, 1.000000000000000000 ) ) ;
#109 = CARTESIAN_POINT ( 'NONE',  ( 2.932051795187517719E-16, 0.6250000000000000000, 0.000000000000000000 ) ) ;
#110 = ADVANCED_FACE ( 'NONE', ( #222 ), #321, .T. ) ;
#111 = DIRECTION ( 'NONE',  ( -1.000000000000000000, 0.000000000000000000, 0.000000000000000000 ) ) ;
#112 = MECHANICAL_DESIGN_GEOMETRIC_PRESENTATION_REPRESENTATION (  '', ( #276 ), #81 ) ;
#113 =( NAMED_UNIT ( * ) SI_UNIT ( $, .STERADIAN. ) SOLID_ANGLE_UNIT ( ) );
#114 = LENGTH_MEASURE_WITH_UNIT ( LENGTH_MEASURE( 0.02539999999999999897 ), #51 );
#115 = SURFACE_STYLE_USAGE ( .BOTH. , #316 ) ;
#116 = ORIENTED_EDGE ( 'NONE', *, *, #256, .T. ) ;
#117 = MECHANICAL_DESIGN_GEOMETRIC_PRESENTATION_REPRESENTATION (  '', ( #352 ), #118 ) ;
#118 =( GEOMETRIC_REPRESENTATION_CONTEXT ( 3 ) GLOBAL_UNCERTAINTY_ASSIGNED_CONTEXT ( ( #209 ) ) GLOBAL_UNIT_ASSIGNED_CONTEXT ( ( #368, #22, #283 ) ) REPRESENTATION_CONTEXT ( 'NONE', 'WORKASPACE' ) );
#119 = SURFACE_STYLE_FILL_AREA ( #150 ) ;
#120 = AXIS2_PLACEMENT_3D ( 'NONE', #36, #207, #180 ) ;
#121 = LENGTH_MEASURE_WITH_UNIT ( LENGTH_MEASURE( 0.02539999999999999897 ), #357 );
#122 = EDGE_LOOP ( 'NONE', ( #232, #233, #58, #362, #123 ) ) ;
#123 = ORIENTED_EDGE ( 'NONE', *, *, #256, .F. ) ;
#124 = CARTESIAN_POINT ( 'NONE',  ( 0.000000000000000000, 0.6250000000000000000, -0.2499999999999998890 ) ) ;
#125 = CIRCLE ( 'NONE', #163, 0.2499999999999998335 ) ;
#126 = VERTEX_POINT ( 'NONE', #80 ) ;
#127 = LENGTH_MEASURE_WITH_UNIT ( LENGTH_MEASURE( 0.02539999999999999897 ), #85 );
#128 =( LENGTH_UNIT ( ) NAMED_UNIT ( * ) SI_UNIT ( $, .METRE. ) );
#129 = DIMENSIONAL_EXPONENTS ( 1.000000000000000000, 0.000000000000000000, 0.000000000000000000, 0.000000000000000000, 0.000000000000000000, 0.000000000000000000, 0.000000000000000000 ) ;
#130 = DIRECTION ( 'NONE',  ( 0.000000000000000000, 0.000000000000000000, -1.000000000000000000 ) ) ;
#131 = ORIENTED_EDGE ( 'NONE', *, *, #170, .F. ) ;
#132 = MANIFOLD_SOLID_BREP ( 'Revolve - Tool Body (Straight Shanked)', #345 ) ;
#133 = DIRECTION ( 'NONE',  ( -1.237188477660714949E-16, 1.000000000000000000, -0.000000000000000000 ) ) ;
#134 = CARTESIAN_POINT ( 'NONE',  ( 0.2499999999999998890, 2.500000000000000000, 0.000000000000000000 ) ) ;
#135 = CARTESIAN_POINT ( 'NONE',  ( -0.2500000000000000000, 0.2500000000000000000, 3.061616997868382402E-17 ) ) ;
#136 = STYLED_ITEM ( 'NONE', ( #237 ), #146 ) ;
#137 = SPHERICAL_SURFACE ( 'NONE', #258, 0.2500000000000000000 ) ;
#138 = FACE_OUTER_BOUND ( 'NONE', #298, .T. ) ;
#139 = ADVANCED_FACE ( 'NONE', ( #346 ), #372, .T. ) ;
#140 = DIRECTION ( 'NONE',  ( -1.237188477660714949E-16, 1.000000000000000000, 0.000000000000000000 ) ) ;
#141 = COLOUR_RGB ( '',1.000000000000000000, 0.000000000000000000, 0.000000000000000000 ) ;
#142 = DIMENSIONAL_EXPONENTS ( 1.000000000000000000, 0.000000000000000000, 0.000000000000000000, 0.000000000000000000, 0.000000000000000000, 0.000000000000000000, 0.000000000000000000 ) ;
#143 = SURFACE_STYLE_USAGE ( .BOTH. , #193 ) ;
#144 = SURFACE_SIDE_STYLE ('',( #348 ) ) ;
#145 = DIMENSIONAL_EXPONENTS ( 1.000000000000000000, 0.000000000000000000, 0.000000000000000000, 0.000000000000000000, 0.000000000000000000, 0.000000000000000000, 0.000000000000000000 ) ;
#146 = MANIFOLD_SOLID_BREP ( 'Revolve - Cutting Edge', #223 ) ;
#147 = FILL_AREA_STYLE ('',( #148 ) ) ;
#148 = FILL_AREA_STYLE_COLOUR ( '', #264 ) ;
#149 = ORIENTED_EDGE ( 'NONE', *, *, #248, .T. ) ;
#150 = FILL_AREA_STYLE ('',( #53 ) ) ;
#151 = PLANE ( 'NONE',  #26 ) ;
#152 = AXIS2_PLACEMENT_3D ( 'NONE', #361, #90, #297 ) ;
#153 = EDGE_CURVE ( 'NONE', #261, #37, #268, .T. ) ;
#154 = FILL_AREA_STYLE_COLOUR ( '', #230 ) ;
#155 = EDGE_LOOP ( 'NONE', ( #116, #184, #131, #269 ) ) ;
#156 = CARTESIAN_POINT ( 'NONE',  ( 0.000000000000000000, 0.000000000000000000, 0.000000000000000000 ) ) ;
#157 = PRESENTATION_STYLE_ASSIGNMENT (( #35 ) ) ;
#158 =( NAMED_UNIT ( * ) PLANE_ANGLE_UNIT ( ) SI_UNIT ( $, .RADIAN. ) );
#159 = ORIENTED_EDGE ( 'NONE', *, *, #349, .T. ) ;
#160 = LINE ( 'NONE', #66, #260 ) ;
#161 = VERTEX_POINT ( 'NONE', #124 ) ;
#162 =( CONVERSION_BASED_UNIT ( 'INCH', #100 ) LENGTH_UNIT ( ) NAMED_UNIT ( #371 ) );
#163 = AXIS2_PLACEMENT_3D ( 'NONE', #167, #338, #166 ) ;
#164 = EDGE_CURVE ( 'NONE', #126, #205, #173, .T. ) ;
#165 = CARTESIAN_POINT ( 'NONE',  ( 0.000000000000000000, 0.2500000000000000000, 0.000000000000000000 ) ) ;
#166 = DIRECTION ( 'NONE',  ( -1.000000000000000000, 0.000000000000000000, 0.000000000000000000 ) ) ;
#167 = CARTESIAN_POINT ( 'NONE',  ( 6.123233995736773431E-17, 2.500000000000000000, 0.000000000000000000 ) ) ;
#168 =( CONVERSION_BASED_UNIT ( 'INCH', #105 ) LENGTH_UNIT ( ) NAMED_UNIT ( #145 ) );
#169 = SURFACE_SIDE_STYLE ('',( #254 ) ) ;
#170 = EDGE_CURVE ( 'NONE', #126, #67, #278, .T. ) ;
#171 = STYLED_ITEM ( 'NONE', ( #291 ), #110 ) ;
#172 = DIRECTION ( 'NONE',  ( -0.000000000000000000, -1.000000000000000000, -0.000000000000000000 ) ) ;
#173 = CIRCLE ( 'NONE', #152, 0.2500000000000000000 ) ;
#174 = DIRECTION ( 'NONE',  ( 0.000000000000000000, 0.000000000000000000, 1.000000000000000000 ) ) ;
#175 = CIRCLE ( 'NONE', #225, 0.2499999999999995837 ) ;
#176 = CARTESIAN_POINT ( 'NONE',  ( 0.000000000000000000, 0.6250000000000000000, 0.000000000000000000 ) ) ;
#177 = ORIENTED_EDGE ( 'NONE', *, *, #27, .F. ) ;
#178 = AXIS2_PLACEMENT_3D ( 'NONE', #327, #59, #34 ) ;
#179 = ORIENTED_EDGE ( 'NONE', *, *, #25, .F. ) ;
#180 = DIRECTION ( 'NONE',  ( -1.000000000000000000, 0.000000000000000000, 0.000000000000000000 ) ) ;
#181 = FACE_OUTER_BOUND ( 'NONE', #155, .T. ) ;
#182 = DIRECTION ( 'NONE',  ( 0.000000000000000000, 0.000000000000000000, -1.000000000000000000 ) ) ;
#183 =( GEOMETRIC_REPRESENTATION_CONTEXT ( 3 ) GLOBAL_UNCERTAINTY_ASSIGNED_CONTEXT ( ( #61 ) ) GLOBAL_UNIT_ASSIGNED_CONTEXT ( ( #263, #226, #113 ) ) REPRESENTATION_CONTEXT ( 'NONE', 'WORKASPACE' ) );
#184 = ORIENTED_EDGE ( 'NONE', *, *, #329, .T. ) ;
#185 =( GEOMETRIC_REPRESENTATION_CONTEXT ( 3 ) GLOBAL_UNCERTAINTY_ASSIGNED_CONTEXT ( ( #10 ) ) GLOBAL_UNIT_ASSIGNED_CONTEXT ( ( #322, #231, #56 ) ) REPRESENTATION_CONTEXT ( 'NONE', 'WORKASPACE' ) );
#186 = CARTESIAN_POINT ( 'NONE',  ( -3.061616997868383018E-17, 0.2500000000000000000, 0.000000000000000000 ) ) ;
#187 = ORIENTED_EDGE ( 'NONE', *, *, #349, .F. ) ;
#188 = CYLINDRICAL_SURFACE ( 'NONE', #288, 0.2499999999999997224 ) ;
#189 = FILL_AREA_STYLE ('',( #196 ) ) ;
#190 = EDGE_CURVE ( 'NONE', #60, #37, #340, .T. ) ;
#191 = DIRECTION ( 'NONE',  ( -0.000000000000000000, -1.000000000000000000, -0.000000000000000000 ) ) ;
#192 = CYLINDRICAL_SURFACE ( 'NONE', #301, 0.2499999999999997224 ) ;
#193 = SURFACE_SIDE_STYLE ('',( #217 ) ) ;
#194 = MECHANICAL_DESIGN_GEOMETRIC_PRESENTATION_REPRESENTATION (  '', ( #95 ), #185 ) ;
#195 = AXIS2_PLACEMENT_3D ( 'NONE', #220, #307, #369 ) ;
#196 = FILL_AREA_STYLE_COLOUR ( '', #141 ) ;
#197 =( NAMED_UNIT ( * ) SI_UNIT ( $, .STERADIAN. ) SOLID_ANGLE_UNIT ( ) );
#198 = DIRECTION ( 'NONE',  ( -0.000000000000000000, -1.000000000000000000, -0.000000000000000000 ) ) ;
#199 = MECHANICAL_DESIGN_GEOMETRIC_PRESENTATION_REPRESENTATION (  '', ( #213 ), #364 ) ;
#200 = MECHANICAL_DESIGN_GEOMETRIC_PRESENTATION_REPRESENTATION (  '', ( #49 ), #83 ) ;
#201 =( LENGTH_UNIT ( ) NAMED_UNIT ( * ) SI_UNIT ( $, .METRE. ) );
#202 = SURFACE_SIDE_STYLE ('',( #373 ) ) ;
#203 = ORIENTED_EDGE ( 'NONE', *, *, #153, .T. ) ;
#204 = SURFACE_STYLE_USAGE ( .BOTH. , #6 ) ;
#205 = VERTEX_POINT ( 'NONE', #92 ) ;
#206 = AXIS2_PLACEMENT_3D ( 'NONE', #315, #289, #287 ) ;
#207 = DIRECTION ( 'NONE',  ( 0.000000000000000000, 0.000000000000000000, -1.000000000000000000 ) ) ;
#208 = ORIENTED_EDGE ( 'NONE', *, *, #14, .T. ) ;
#209 = UNCERTAINTY_MEASURE_WITH_UNIT (LENGTH_MEASURE( 1.000000000000000082E-05 ), #368, 'distance_accuracy_value', 'NONE');
#210 = CARTESIAN_POINT ( 'NONE',  ( -0.2499999999999996669, 2.500000000000000000, 0.000000000000000000 ) ) ;
#211 =( NAMED_UNIT ( * ) PLANE_ANGLE_UNIT ( ) SI_UNIT ( $, .RADIAN. ) );
#212 = DIRECTION ( 'NONE',  ( -1.237188477660714949E-16, 1.000000000000000000, -0.000000000000000000 ) ) ;
#213 = STYLED_ITEM ( 'NONE', ( #293 ), #132 ) ;
#214 = VERTEX_POINT ( 'NONE', #62 ) ;
#215 = PLANE ( 'NONE',  #98 ) ;
#216 = EDGE_CURVE ( 'NONE', #161, #30, #23, .T. ) ;
#217 = SURFACE_STYLE_FILL_AREA ( #5 ) ;
#218 = DIRECTION ( 'NONE',  ( 1.000000000000000000, 0.000000000000000000, 0.000000000000000000 ) ) ;
#219 = CARTESIAN_POINT ( 'NONE',  ( 0.000000000000000000, 0.6250000000000000000, 0.000000000000000000 ) ) ;
#220 = CARTESIAN_POINT ( 'NONE',  ( 0.000000000000000000, 0.2500000000000000000, 0.000000000000000000 ) ) ;
#221 = DIRECTION ( 'NONE',  ( -1.000000000000000000, 0.000000000000000000, 0.000000000000000000 ) ) ;
#222 = FACE_OUTER_BOUND ( 'NONE', #353, .T. ) ;
#223 = CLOSED_SHELL ( 'NONE', ( #4, #96, #234, #139, #110 ) ) ;
#224 = CARTESIAN_POINT ( 'NONE',  ( -3.061616997868383018E-17, 0.2500000000000000000, 0.000000000000000000 ) ) ;
#225 = AXIS2_PLACEMENT_3D ( 'NONE', #240, #212, #294 ) ;
#226 =( NAMED_UNIT ( * ) PLANE_ANGLE_UNIT ( ) SI_UNIT ( $, .RADIAN. ) );
#227 = EDGE_LOOP ( 'NONE', ( #328, #208, #274, #1, #236 ) ) ;
#228 = AXIS2_PLACEMENT_3D ( 'NONE', #370, #172, #13 ) ;
#229 = EDGE_CURVE ( 'NONE', #261, #214, #175, .T. ) ;
#230 = COLOUR_RGB ( '',0.7921568627450980005, 0.8196078431372548767, 0.9333333333333333481 ) ;
#231 =( NAMED_UNIT ( * ) PLANE_ANGLE_UNIT ( ) SI_UNIT ( $, .RADIAN. ) );
#232 = ORIENTED_EDGE ( 'NONE', *, *, #14, .F. ) ;
#233 = ORIENTED_EDGE ( 'NONE', *, *, #25, .T. ) ;
#234 = ADVANCED_FACE ( 'NONE', ( #28 ), #151, .T. ) ;
#235 = CIRCLE ( 'NONE', #300, 0.2499999999999995837 ) ;
#236 = ORIENTED_EDGE ( 'NONE', *, *, #262, .F. ) ;
#237 = PRESENTATION_STYLE_ASSIGNMENT (( #204 ) ) ;
#238 = APPLICATION_CONTEXT ( 'automotive_design' ) ;
#239 = UNCERTAINTY_MEASURE_WITH_UNIT (LENGTH_MEASURE( 1.000000000000000082E-05 ), #29, 'distance_accuracy_value', 'NONE');
#240 = CARTESIAN_POINT ( 'NONE',  ( 2.932051795187517719E-16, 0.6250000000000000000, 0.000000000000000000 ) ) ;
#241 =( CONVERSION_BASED_UNIT ( 'INCH', #63 ) LENGTH_UNIT ( ) NAMED_UNIT ( #142 ) );
#242 = SURFACE_STYLE_USAGE ( .BOTH. , #169 ) ;
#243 = AXIS2_PLACEMENT_3D ( 'NONE', #186, #42, #252 ) ;
#244 = CIRCLE ( 'NONE', #243, 0.2500000000000000000 ) ;
#245 = DIRECTION ( 'NONE',  ( -0.000000000000000000, -1.000000000000000000, -0.000000000000000000 ) ) ;
#246 = CARTESIAN_POINT ( 'NONE',  ( 3.061616997868381785E-17, 0.6250000000000000000, 0.2499999999999998890 ) ) ;
#247 = CARTESIAN_POINT ( 'NONE',  ( 0.2499999999999999167, 2.500000000000000000, 3.061616997868380553E-17 ) ) ;
#248 = EDGE_CURVE ( 'NONE', #306, #303, #354, .T. ) ;
#249 =( NAMED_UNIT ( * ) SI_UNIT ( $, .STERADIAN. ) SOLID_ANGLE_UNIT ( ) );
#250 = CARTESIAN_POINT ( 'NONE',  ( 2.932051795187517719E-16, 0.6250000000000000000, 0.000000000000000000 ) ) ;
#251 = VECTOR ( 'NONE', #198, 39.37007874015748143 ) ;
#252 = DIRECTION ( 'NONE',  ( 1.000000000000000000, 0.000000000000000000, -1.224646799147353207E-16 ) ) ;
#253 = PRESENTATION_LAYER_ASSIGNMENT (  '', '', ( #136 ) ) ;
#254 = SURFACE_STYLE_FILL_AREA ( #189 ) ;
#255 = LENGTH_MEASURE_WITH_UNIT ( LENGTH_MEASURE( 0.02539999999999999897 ), #201 );
#256 = EDGE_CURVE ( 'NONE', #205, #306, #68, .T. ) ;
#257 = FILL_AREA_STYLE_COLOUR ( '', #21 ) ;
#258 = AXIS2_PLACEMENT_3D ( 'NONE', #18, #106, #218 ) ;
#259 = SHAPE_DEFINITION_REPRESENTATION ( #292, #281 ) ;
#260 = VECTOR ( 'NONE', #191, 39.37007874015748143 ) ;
#261 = VERTEX_POINT ( 'NONE', #103 ) ;
#262 = EDGE_CURVE ( 'NONE', #161, #303, #160, .T. ) ;
#263 =( CONVERSION_BASED_UNIT ( 'INCH', #114 ) LENGTH_UNIT ( ) NAMED_UNIT ( #72 ) );
#264 = COLOUR_RGB ( '',0.7921568627450980005, 0.8196078431372548767, 0.9333333333333333481 ) ;
#265 = FILL_AREA_STYLE_COLOUR ( '', #366 ) ;
#266 = AXIS2_PLACEMENT_3D ( 'NONE', #156, #355, #182 ) ;
#267 = SURFACE_STYLE_FILL_AREA ( #97 ) ;
#268 = LINE ( 'NONE', #210, #88 ) ;
#269 = ORIENTED_EDGE ( 'NONE', *, *, #164, .T. ) ;
#270 = DIRECTION ( 'NONE',  ( -0.000000000000000000, -1.000000000000000000, -0.000000000000000000 ) ) ;
#271 = ORIENTED_EDGE ( 'NONE', *, *, #87, .F. ) ;
#272 = PRODUCT_DEFINITION ( 'UNKNOWN', '', #44, #331 ) ;
#273 = CARTESIAN_POINT ( 'NONE',  ( 0.000000000000000000, 0.2500000000000000000, 0.000000000000000000 ) ) ;
#274 = ORIENTED_EDGE ( 'NONE', *, *, #164, .F. ) ;
#275 = DIRECTION ( 'NONE',  ( -1.237188477660714949E-16, 1.000000000000000000, -0.000000000000000000 ) ) ;
#276 = STYLED_ITEM ( 'NONE', ( #157 ), #4 ) ;
#277 = CARTESIAN_POINT ( 'NONE',  ( -0.2499999999999997502, 2.500000000000000000, 0.000000000000000000 ) ) ;
#278 = CIRCLE ( 'NONE', #120, 0.2500000000000000000 ) ;
#279 = DIRECTION ( 'NONE',  ( 0.000000000000000000, 0.000000000000000000, -1.000000000000000000 ) ) ;
#280 = DIRECTION ( 'NONE',  ( 1.000000000000000000, 1.237188477660714949E-16, 0.000000000000000000 ) ) ;
#281 = ADVANCED_BREP_SHAPE_REPRESENTATION ( '17437', ( #146, #132, #206 ), #326 ) ;
#282 = DIRECTION ( 'NONE',  ( -0.000000000000000000, -1.000000000000000000, -0.000000000000000000 ) ) ;
#283 =( NAMED_UNIT ( * ) SI_UNIT ( $, .STERADIAN. ) SOLID_ANGLE_UNIT ( ) );
#284 = CARTESIAN_POINT ( 'NONE',  ( 0.000000000000000000, 0.6250000000000000000, 0.000000000000000000 ) ) ;
#285 = MECHANICAL_DESIGN_GEOMETRIC_PRESENTATION_REPRESENTATION (  '', ( #171 ), #183 ) ;
#286 = DIMENSIONAL_EXPONENTS ( 1.000000000000000000, 0.000000000000000000, 0.000000000000000000, 0.000000000000000000, 0.000000000000000000, 0.000000000000000000, 0.000000000000000000 ) ;
#287 = DIRECTION ( 'NONE',  ( 1.000000000000000000, 0.000000000000000000, 0.000000000000000000 ) ) ;
#288 = AXIS2_PLACEMENT_3D ( 'NONE', #40, #275, #73 ) ;
#289 = DIRECTION ( 'NONE',  ( 0.000000000000000000, 0.000000000000000000, 1.000000000000000000 ) ) ;
#290 = DIRECTION ( 'NONE',  ( 1.000000000000000000, 0.000000000000000000, 0.000000000000000000 ) ) ;
#291 = PRESENTATION_STYLE_ASSIGNMENT (( #115 ) ) ;
#292 = PRODUCT_DEFINITION_SHAPE ( 'NONE', 'NONE',  #272 ) ;
#293 = PRESENTATION_STYLE_ASSIGNMENT (( #84 ) ) ;
#294 = DIRECTION ( 'NONE',  ( -1.000000000000000000, 0.000000000000000000, 0.000000000000000000 ) ) ;
#295 = ORIENTED_EDGE ( 'NONE', *, *, #87, .T. ) ;
#296 = ORIENTED_EDGE ( 'NONE', *, *, #229, .T. ) ;
#297 = DIRECTION ( 'NONE',  ( 0.000000000000000000, 0.000000000000000000, -1.000000000000000000 ) ) ;
#298 = EDGE_LOOP ( 'NONE', ( #358, #271 ) ) ;
#299 = UNCERTAINTY_MEASURE_WITH_UNIT (LENGTH_MEASURE( 1.000000000000000082E-05 ), #319, 'distance_accuracy_value', 'NONE');
#300 = AXIS2_PLACEMENT_3D ( 'NONE', #250, #71, #221 ) ;
#301 = AXIS2_PLACEMENT_3D ( 'NONE', #318, #82, #111 ) ;
#302 = FILL_AREA_STYLE ('',( #154 ) ) ;
#303 = VERTEX_POINT ( 'NONE', #46 ) ;
#304 = ADVANCED_FACE ( 'NONE', ( #341 ), #188, .T. ) ;
#305 = CIRCLE ( 'NONE', #9, 0.2500000000000000000 ) ;
#306 = VERTEX_POINT ( 'NONE', #135 ) ;
#307 = DIRECTION ( 'NONE',  ( -0.000000000000000000, -1.000000000000000000, -0.000000000000000000 ) ) ;
#308 = LENGTH_MEASURE_WITH_UNIT ( LENGTH_MEASURE( 0.02539999999999999897 ), #312 );
#309 = DIRECTION ( 'NONE',  ( -0.000000000000000000, -1.000000000000000000, -0.000000000000000000 ) ) ;
#310 = VECTOR ( 'NONE', #133, 39.37007874015748143 ) ;
#311 =( NAMED_UNIT ( * ) SI_UNIT ( $, .STERADIAN. ) SOLID_ANGLE_UNIT ( ) );
#312 =( LENGTH_UNIT ( ) NAMED_UNIT ( * ) SI_UNIT ( $, .METRE. ) );
#313 = FACE_OUTER_BOUND ( 'NONE', #32, .T. ) ;
#314 = PRODUCT_RELATED_PRODUCT_CATEGORY ( 'part', '', ( #69 ) ) ;
#315 = CARTESIAN_POINT ( 'NONE',  ( 0.000000000000000000, 0.000000000000000000, 0.000000000000000000 ) ) ;
#316 = SURFACE_SIDE_STYLE ('',( #119 ) ) ;
#317 = APPLICATION_PROTOCOL_DEFINITION ( 'draft international standard', 'automotive_design', 1998, #238 ) ;
#318 = CARTESIAN_POINT ( 'NONE',  ( 6.123233995736772199E-17, 2.500000000000000000, 0.000000000000000000 ) ) ;
#319 =( CONVERSION_BASED_UNIT ( 'INCH', #255 ) LENGTH_UNIT ( ) NAMED_UNIT ( #93 ) );
#320 = CIRCLE ( 'NONE', #324, 0.2499999999999998890 ) ;
#321 = SPHERICAL_SURFACE ( 'NONE', #3, 0.2500000000000000000 ) ;
#322 =( CONVERSION_BASED_UNIT ( 'INCH', #121 ) LENGTH_UNIT ( ) NAMED_UNIT ( #344 ) );
#323 = EDGE_LOOP ( 'NONE', ( #350, #179 ) ) ;
#324 = AXIS2_PLACEMENT_3D ( 'NONE', #284, #309, #336 ) ;
#325 = FILL_AREA_STYLE_COLOUR ( '', #57 ) ;
#326 =( GEOMETRIC_REPRESENTATION_CONTEXT ( 3 ) GLOBAL_UNCERTAINTY_ASSIGNED_CONTEXT ( ( #79 ) ) GLOBAL_UNIT_ASSIGNED_CONTEXT ( ( #168, #339, #249 ) ) REPRESENTATION_CONTEXT ( 'NONE', 'WORKASPACE' ) );
#327 = CARTESIAN_POINT ( 'NONE',  ( 6.123233995736773431E-17, 2.500000000000000000, 0.000000000000000000 ) ) ;
#328 = ORIENTED_EDGE ( 'NONE', *, *, #216, .T. ) ;
#329 = EDGE_CURVE ( 'NONE', #306, #67, #244, .T. ) ;
#330 = APPLICATION_CONTEXT ( 'automotive_design' ) ;
#331 = PRODUCT_DEFINITION_CONTEXT ( 'detailed design', #238, 'design' ) ;
#332 = ORIENTED_EDGE ( 'NONE', *, *, #170, .T. ) ;
#333 = UNCERTAINTY_MEASURE_WITH_UNIT (LENGTH_MEASURE( 1.000000000000000082E-05 ), #162, 'distance_accuracy_value', 'NONE');
#334 = DIRECTION ( 'NONE',  ( -1.237188477660714949E-16, 1.000000000000000000, -0.000000000000000000 ) ) ;
#335 = ORIENTED_EDGE ( 'NONE', *, *, #190, .F. ) ;
#336 = DIRECTION ( 'NONE',  ( 0.000000000000000000, 0.000000000000000000, -1.000000000000000000 ) ) ;
#337 = DIRECTION ( 'NONE',  ( 0.000000000000000000, 1.000000000000000000, 0.000000000000000000 ) ) ;
#338 = DIRECTION ( 'NONE',  ( -1.237188477660714949E-16, 1.000000000000000000, -0.000000000000000000 ) ) ;
#339 =( NAMED_UNIT ( * ) PLANE_ANGLE_UNIT ( ) SI_UNIT ( $, .RADIAN. ) );
#340 = CIRCLE ( 'NONE', #178, 0.2499999999999998335 ) ;
#341 = FACE_OUTER_BOUND ( 'NONE', #356, .T. ) ;
#342 = DIRECTION ( 'NONE',  ( -1.000000000000000000, -1.237188477660714949E-16, 0.000000000000000000 ) ) ;
#343 = EDGE_CURVE ( 'NONE', #303, #126, #305, .T. ) ;
#344 = DIMENSIONAL_EXPONENTS ( 1.000000000000000000, 0.000000000000000000, 0.000000000000000000, 0.000000000000000000, 0.000000000000000000, 0.000000000000000000, 0.000000000000000000 ) ;
#345 = CLOSED_SHELL ( 'NONE', ( #304, #20, #104, #31 ) ) ;
#346 = FACE_OUTER_BOUND ( 'NONE', #122, .T. ) ;
#347 =( GEOMETRIC_REPRESENTATION_CONTEXT ( 3 ) GLOBAL_UNCERTAINTY_ASSIGNED_CONTEXT ( ( #239 ) ) GLOBAL_UNIT_ASSIGNED_CONTEXT ( ( #29, #158, #360 ) ) REPRESENTATION_CONTEXT ( 'NONE', 'WORKASPACE' ) );
#348 = SURFACE_STYLE_FILL_AREA ( #147 ) ;
#349 = EDGE_CURVE ( 'NONE', #214, #60, #17, .T. ) ;
#350 = ORIENTED_EDGE ( 'NONE', *, *, #216, .F. ) ;
#351 = FILL_AREA_STYLE ('',( #257 ) ) ;
#352 = STYLED_ITEM ( 'NONE', ( #367 ), #96 ) ;
#353 = EDGE_LOOP ( 'NONE', ( #54, #149, #8, #332 ) ) ;
#354 = CIRCLE ( 'NONE', #195, 0.2500000000000000000 ) ;
#355 = DIRECTION ( 'NONE',  ( -0.000000000000000000, -1.000000000000000000, -0.000000000000000000 ) ) ;
#356 = EDGE_LOOP ( 'NONE', ( #296, #159, #177, #11 ) ) ;
#357 =( LENGTH_UNIT ( ) NAMED_UNIT ( * ) SI_UNIT ( $, .METRE. ) );
#358 = ORIENTED_EDGE ( 'NONE', *, *, #229, .F. ) ;
#359 = MECHANICAL_DESIGN_GEOMETRIC_PRESENTATION_REPRESENTATION (  '', ( #136 ), #347 ) ;
#360 =( NAMED_UNIT ( * ) SI_UNIT ( $, .STERADIAN. ) SOLID_ANGLE_UNIT ( ) );
#361 = CARTESIAN_POINT ( 'NONE',  ( 0.000000000000000000, 0.2500000000000000000, 0.000000000000000000 ) ) ;
#362 = ORIENTED_EDGE ( 'NONE', *, *, #248, .F. ) ;
#363 = PRESENTATION_LAYER_ASSIGNMENT (  '', '', ( #276 ) ) ;
#364 =( GEOMETRIC_REPRESENTATION_CONTEXT ( 3 ) GLOBAL_UNCERTAINTY_ASSIGNED_CONTEXT ( ( #299 ) ) GLOBAL_UNIT_ASSIGNED_CONTEXT ( ( #319, #52, #2 ) ) REPRESENTATION_CONTEXT ( 'NONE', 'WORKASPACE' ) );
#365 = CYLINDRICAL_SURFACE ( 'NONE', #228, 0.2499999999999999167 ) ;
#366 = COLOUR_RGB ( '',1.000000000000000000, 0.000000000000000000, 0.000000000000000000 ) ;
#367 = PRESENTATION_STYLE_ASSIGNMENT (( #242 ) ) ;
#368 =( CONVERSION_BASED_UNIT ( 'INCH', #308 ) LENGTH_UNIT ( ) NAMED_UNIT ( #286 ) );
#369 = DIRECTION ( 'NONE',  ( 0.000000000000000000, 0.000000000000000000, -1.000000000000000000 ) ) ;
#370 = CARTESIAN_POINT ( 'NONE',  ( 0.000000000000000000, 0.000000000000000000, 0.000000000000000000 ) ) ;
#371 = DIMENSIONAL_EXPONENTS ( 1.000000000000000000, 0.000000000000000000, 0.000000000000000000, 0.000000000000000000, 0.000000000000000000, 0.000000000000000000, 0.000000000000000000 ) ;
#372 = CYLINDRICAL_SURFACE ( 'NONE', #266, 0.2499999999999999167 ) ;
#373 = SURFACE_STYLE_FILL_AREA ( #351 ) ;
ENDSEC;
END-ISO-10303-21;
