ISO-10303-21;
HEADER;
FILE_DESCRIPTION (( 'STEP AP214' ),
    '1' );
FILE_NAME ('Micro_GEC-500-3-030.STEP',
    '2021-09-03T17:23:35',
    ( '' ),
    ( '' ),
    'SwSTEP 2.0',
    'SolidWorks 2020',
    '' );
FILE_SCHEMA (( 'AUTOMOTIVE_DESIGN' ));
ENDSEC;

DATA;
#1 = CARTESIAN_POINT ( 'NONE',  ( -0.2497499999999998888, 3.060086189369449292E-17, 1.000000000000000000 ) ) ;
#2 = PRODUCT_DEFINITION_SHAPE ( 'NONE', 'NONE',  #22 ) ;
#3 = DIRECTION ( 'NONE',  ( 1.000000000000000000, 0.0000000000000000000, -0.0000000000000000000 ) ) ;
#4 = LINE ( 'NONE', #170, #114 ) ;
#5 = TOROIDAL_SURFACE ( 'NONE', #230, 0.2197500000000000286, 0.02999999999999999889 ) ;
#6 = EDGE_CURVE ( 'NONE', #126, #225, #182, .T. ) ;
#7 = ORIENTED_EDGE ( 'NONE', *, *, #98, .T. ) ;
#8 = DIRECTION ( 'NONE',  ( -1.224646799147353454E-16, -0.0000000000000000000, -1.000000000000000000 ) ) ;
#9 = DIRECTION ( 'NONE',  ( 0.0000000000000000000, 0.0000000000000000000, 1.000000000000000000 ) ) ;
#10 = AXIS2_PLACEMENT_3D ( 'NONE', #150, #317, #264 ) ;
#11 = LINE ( 'NONE', #186, #174 ) ;
#12 = SURFACE_SIDE_STYLE ('',( #61 ) ) ;
#13 = PRODUCT_DEFINITION_FORMATION_WITH_SPECIFIED_SOURCE ( 'ANY', '', #70, .NOT_KNOWN. ) ;
#14 = ORIENTED_EDGE ( 'NONE', *, *, #273, .T. ) ;
#15 = AXIS2_PLACEMENT_3D ( 'NONE', #282, #344, #118 ) ;
#16 = DIRECTION ( 'NONE',  ( -1.000000000000000000, 0.0000000000000000000, 1.224646799147353700E-16 ) ) ;
#17 = ORIENTED_EDGE ( 'NONE', *, *, #33, .F. ) ;
#18 =( NAMED_UNIT ( * ) PLANE_ANGLE_UNIT ( ) SI_UNIT ( $, .RADIAN. ) );
#19 = CARTESIAN_POINT ( 'NONE',  ( 0.0000000000000000000, 0.0000000000000000000, 3.000000000000000444 ) ) ;
#20 = ORIENTED_EDGE ( 'NONE', *, *, #333, .F. ) ;
#21 = CARTESIAN_POINT ( 'NONE',  ( -0.2499999999999998612, 0.0000000000000000000, 1.001417820454904462 ) ) ;
#22 = PRODUCT_DEFINITION ( 'UNKNOWN', '', #13, #336 ) ;
#23 = EDGE_CURVE ( 'NONE', #126, #216, #181, .T. ) ;
#24 = DIRECTION ( 'NONE',  ( -1.000000000000000000, 0.0000000000000000000, 1.224646799147353700E-16 ) ) ;
#25 = FACE_OUTER_BOUND ( 'NONE', #35, .T. ) ;
#26 = CIRCLE ( 'NONE', #131, 0.2350000000000011524 ) ;
#27 = FACE_OUTER_BOUND ( 'NONE', #223, .T. ) ;
#28 = DIRECTION ( 'NONE',  ( -0.7071067811865402453, 0.0000000000000000000, -0.7071067811865546782 ) ) ;
#29 = TOROIDAL_SURFACE ( 'NONE', #211, 0.2197500000000000286, 0.02999999999999999889 ) ;
#30 = ORIENTED_EDGE ( 'NONE', *, *, #261, .T. ) ;
#31 = ORIENTED_EDGE ( 'NONE', *, *, #192, .T. ) ;
#32 = CLOSED_SHELL ( 'NONE', ( #326, #305, #80, #226, #202, #91, #103, #318, #77, #135, #338, #37 ) ) ;
#33 = EDGE_CURVE ( 'NONE', #197, #129, #189, .T. ) ;
#34 = AXIS2_PLACEMENT_3D ( 'NONE', #104, #179, #193 ) ;
#35 = EDGE_LOOP ( 'NONE', ( #139, #250, #31, #343 ) ) ;
#36 = MECHANICAL_DESIGN_GEOMETRIC_PRESENTATION_REPRESENTATION (  '', ( #58 ), #286 ) ;
#37 = ADVANCED_FACE ( 'NONE', ( #329 ), #29, .T. ) ;
#38 = DIMENSIONAL_EXPONENTS ( 1.000000000000000000, 0.0000000000000000000, 0.0000000000000000000, 0.0000000000000000000, 0.0000000000000000000, 0.0000000000000000000, 0.0000000000000000000 ) ;
#39 = UNCERTAINTY_MEASURE_WITH_UNIT (LENGTH_MEASURE( 1.000000000000000082E-05 ), #214, 'distance_accuracy_value', 'NONE');
#40 = CARTESIAN_POINT ( 'NONE',  ( 1.224646799147353454E-16, 0.0000000000000000000, 1.000000000000000000 ) ) ;
#41 = VECTOR ( 'NONE', #165, 39.37007874015748143 ) ;
#42 =( NAMED_UNIT ( * ) SI_UNIT ( $, .STERADIAN. ) SOLID_ANGLE_UNIT ( ) );
#43 = PLANE ( 'NONE',  #212 ) ;
#44 = ORIENTED_EDGE ( 'NONE', *, *, #180, .T. ) ;
#45 = PRESENTATION_LAYER_ASSIGNMENT (  '', '', ( #58 ) ) ;
#46 = ORIENTED_EDGE ( 'NONE', *, *, #6, .T. ) ;
#47 = CARTESIAN_POINT ( 'NONE',  ( 0.2197500000000000286, 0.0000000000000000000, 0.0000000000000000000 ) ) ;
#48 = EDGE_LOOP ( 'NONE', ( #63, #30 ) ) ;
#49 = CARTESIAN_POINT ( 'NONE',  ( 0.2497500000000001386, 0.0000000000000000000, 1.000000000000000000 ) ) ;
#50 = APPLICATION_CONTEXT ( 'automotive_design' ) ;
#51 = DIRECTION ( 'NONE',  ( -1.000000000000000000, 0.0000000000000000000, 0.0000000000000000000 ) ) ;
#52 = DIMENSIONAL_EXPONENTS ( 1.000000000000000000, 0.0000000000000000000, 0.0000000000000000000, 0.0000000000000000000, 0.0000000000000000000, 0.0000000000000000000, 0.0000000000000000000 ) ;
#53 = DIRECTION ( 'NONE',  ( 1.000000000000000000, 0.0000000000000000000, 0.0000000000000000000 ) ) ;
#54 = EDGE_CURVE ( 'NONE', #106, #129, #205, .T. ) ;
#55 = CARTESIAN_POINT ( 'NONE',  ( -0.2197500000000000286, 2.874858360998411759E-17, 0.0000000000000000000 ) ) ;
#56 = EDGE_LOOP ( 'NONE', ( #46, #280, #7, #127 ) ) ;
#57 = DIRECTION ( 'NONE',  ( -0.1736481776669311639, 2.126576849575782392E-17, 0.9848077530122080203 ) ) ;
#58 = STYLED_ITEM ( 'NONE', ( #187 ), #83 ) ;
#59 = EDGE_CURVE ( 'NONE', #252, #304, #265, .T. ) ;
#60 = CARTESIAN_POINT ( 'NONE',  ( 0.2350000000000011524, 2.969768487932338510E-17, 3.000000000000000444 ) ) ;
#61 = SURFACE_STYLE_FILL_AREA ( #248 ) ;
#62 = FILL_AREA_STYLE ('',( #312 ) ) ;
#63 = ORIENTED_EDGE ( 'NONE', *, *, #242, .T. ) ;
#64 =( GEOMETRIC_REPRESENTATION_CONTEXT ( 3 ) GLOBAL_UNCERTAINTY_ASSIGNED_CONTEXT ( ( #295 ) ) GLOBAL_UNIT_ASSIGNED_CONTEXT ( ( #308, #162, #227 ) ) REPRESENTATION_CONTEXT ( 'NONE', 'WORKASPACE' ) );
#65 = EDGE_CURVE ( 'NONE', #225, #134, #157, .T. ) ;
#66 = CARTESIAN_POINT ( 'NONE',  ( 0.2500000000000001110, 3.061616997868383634E-17, 1.001417820454904462 ) ) ;
#67 = DIRECTION ( 'NONE',  ( -1.224646799147353454E-16, -0.0000000000000000000, -1.000000000000000000 ) ) ;
#68 = ORIENTED_EDGE ( 'NONE', *, *, #322, .F. ) ;
#69 = CARTESIAN_POINT ( 'NONE',  ( 0.0000000000000000000, 0.0000000000000000000, 3.000000000000000444 ) ) ;
#70 = PRODUCT ( 'Micro_GEC-500-3-030', 'Micro_GEC-500-3-030', '', ( #254 ) ) ;
#71 = CARTESIAN_POINT ( 'NONE',  ( -0.2500000000000000000, 0.0000000000000000000, 3.000000000000000444 ) ) ;
#72 = CARTESIAN_POINT ( 'NONE',  ( 0.2497499999999999998, 3.058555380870514950E-17, -3.058555380870515566E-17 ) ) ;
#73 = CARTESIAN_POINT ( 'NONE',  ( 0.0000000000000000000, 0.0000000000000000000, 3.000000000000000444 ) ) ;
#74 = ORIENTED_EDGE ( 'NONE', *, *, #273, .F. ) ;
#75 = PLANE ( 'NONE',  #220 ) ;
#76 = ORIENTED_EDGE ( 'NONE', *, *, #172, .F. ) ;
#77 = ADVANCED_FACE ( 'NONE', ( #215 ), #219, .T. ) ;
#78 = CIRCLE ( 'NONE', #274, 0.02999999999999998848 ) ;
#79 = DIRECTION ( 'NONE',  ( 1.000000000000000000, 0.0000000000000000000, 0.0000000000000000000 ) ) ;
#80 = ADVANCED_FACE ( 'NONE', ( #113 ), #307, .T. ) ;
#81 = AXIS2_PLACEMENT_3D ( 'NONE', #209, #332, #79 ) ;
#82 = DIRECTION ( 'NONE',  ( -1.000000000000000000, 0.0000000000000000000, 0.0000000000000000000 ) ) ;
#83 = MANIFOLD_SOLID_BREP ( 'Fillet1', #32 ) ;
#84 = EDGE_LOOP ( 'NONE', ( #293, #287, #88, #143 ) ) ;
#85 = DIRECTION ( 'NONE',  ( 1.224646799147353454E-16, 0.0000000000000000000, 1.000000000000000000 ) ) ;
#86 = EDGE_CURVE ( 'NONE', #304, #216, #198, .T. ) ;
#87 = AXIS2_PLACEMENT_3D ( 'NONE', #271, #236, #100 ) ;
#88 = ORIENTED_EDGE ( 'NONE', *, *, #86, .T. ) ;
#89 = APPLICATION_PROTOCOL_DEFINITION ( 'draft international standard', 'automotive_design', 1998, #50 ) ;
#90 = CARTESIAN_POINT ( 'NONE',  ( -0.2497499999999999998, 0.0000000000000000000, 3.058555380870515566E-17 ) ) ;
#91 = ADVANCED_FACE ( 'NONE', ( #228 ), #222, .T. ) ;
#92 = SHAPE_DEFINITION_REPRESENTATION ( #2, #188 ) ;
#93 = DIRECTION ( 'NONE',  ( 1.000000000000000000, 0.0000000000000000000, 0.0000000000000000000 ) ) ;
#94 = AXIS2_PLACEMENT_3D ( 'NONE', #73, #350, #263 ) ;
#95 = CARTESIAN_POINT ( 'NONE',  ( 0.0000000000000000000, 0.0000000000000000000, 3.000000000000000444 ) ) ;
#96 = FACE_OUTER_BOUND ( 'NONE', #241, .T. ) ;
#97 = DIRECTION ( 'NONE',  ( -0.0000000000000000000, -0.0000000000000000000, -1.000000000000000000 ) ) ;
#98 = EDGE_CURVE ( 'NONE', #129, #106, #229, .T. ) ;
#99 = AXIS2_PLACEMENT_3D ( 'NONE', #243, #9, #101 ) ;
#100 = DIRECTION ( 'NONE',  ( 1.000000000000000000, 0.0000000000000000000, 0.0000000000000000000 ) ) ;
#101 = DIRECTION ( 'NONE',  ( 1.000000000000000000, 0.0000000000000000000, 0.0000000000000000000 ) ) ;
#102 = VECTOR ( 'NONE', #57, 39.37007874015747433 ) ;
#103 = ADVANCED_FACE ( 'NONE', ( #314 ), #43, .T. ) ;
#104 = CARTESIAN_POINT ( 'NONE',  ( 0.0000000000000000000, 0.0000000000000000000, 2.985000000000001208 ) ) ;
#105 = DIRECTION ( 'NONE',  ( 0.0000000000000000000, -1.000000000000000000, 0.0000000000000000000 ) ) ;
#106 = VERTEX_POINT ( 'NONE', #285 ) ;
#107 = AXIS2_PLACEMENT_3D ( 'NONE', #246, #8, #82 ) ;
#108 = AXIS2_PLACEMENT_3D ( 'NONE', #334, #105, #207 ) ;
#109 = CIRCLE ( 'NONE', #87, 0.2500000000000000000 ) ;
#110 = DIRECTION ( 'NONE',  ( 1.000000000000000000, 0.0000000000000000000, 0.0000000000000000000 ) ) ;
#111 = PRESENTATION_LAYER_ASSIGNMENT (  '', '', ( #270 ) ) ;
#112 =( NAMED_UNIT ( * ) PLANE_ANGLE_UNIT ( ) SI_UNIT ( $, .RADIAN. ) );
#113 = FACE_OUTER_BOUND ( 'NONE', #195, .T. ) ;
#114 = VECTOR ( 'NONE', #232, 39.37007874015748854 ) ;
#115 = CYLINDRICAL_SURFACE ( 'NONE', #199, 0.2497499999999999998 ) ;
#116 = ORIENTED_EDGE ( 'NONE', *, *, #65, .T. ) ;
#117 = ORIENTED_EDGE ( 'NONE', *, *, #331, .T. ) ;
#118 = DIRECTION ( 'NONE',  ( 1.000000000000000000, 0.0000000000000000000, 0.0000000000000000000 ) ) ;
#119 = DIRECTION ( 'NONE',  ( -1.000000000000000000, 0.0000000000000000000, 0.0000000000000000000 ) ) ;
#120 = CARTESIAN_POINT ( 'NONE',  ( 0.2500000000000000000, 3.061616997868382402E-17, 2.985000000000001208 ) ) ;
#121 = VECTOR ( 'NONE', #28, 39.37007874015748854 ) ;
#122 = CIRCLE ( 'NONE', #324, 0.2500000000000000000 ) ;
#123 = PRODUCT_RELATED_PRODUCT_CATEGORY ( 'part', '', ( #70 ) ) ;
#124 = CARTESIAN_POINT ( 'NONE',  ( -0.2350000000000011524, 0.0000000000000000000, 3.000000000000000444 ) ) ;
#125 = CARTESIAN_POINT ( 'NONE',  ( 0.0000000000000000000, 0.0000000000000000000, 0.0000000000000000000 ) ) ;
#126 = VERTEX_POINT ( 'NONE', #1 ) ;
#127 = ORIENTED_EDGE ( 'NONE', *, *, #192, .F. ) ;
#128 = CARTESIAN_POINT ( 'NONE',  ( 3.673940397442060731E-18, 0.0000000000000000000, 0.0000000000000000000 ) ) ;
#129 = VERTEX_POINT ( 'NONE', #171 ) ;
#130 = ORIENTED_EDGE ( 'NONE', *, *, #333, .T. ) ;
#131 = AXIS2_PLACEMENT_3D ( 'NONE', #208, #152, #239 ) ;
#132 = ORIENTED_EDGE ( 'NONE', *, *, #261, .F. ) ;
#133 = DIRECTION ( 'NONE',  ( 0.1736481776669313304, 0.0000000000000000000, 0.9848077530122077983 ) ) ;
#134 = VERTEX_POINT ( 'NONE', #66 ) ;
#135 = ADVANCED_FACE ( 'NONE', ( #25 ), #115, .T. ) ;
#136 = ORIENTED_EDGE ( 'NONE', *, *, #65, .F. ) ;
#137 = PRESENTATION_STYLE_ASSIGNMENT (( #345 ) ) ;
#138 = APPLICATION_PROTOCOL_DEFINITION ( 'draft international standard', 'automotive_design', 1998, #168 ) ;
#139 = ORIENTED_EDGE ( 'NONE', *, *, #200, .F. ) ;
#140 = LINE ( 'NONE', #124, #121 ) ;
#141 = COLOUR_RGB ( '',0.7921568627450980005, 0.8196078431372548767, 0.9333333333333333481 ) ;
#142 = LINE ( 'NONE', #72, #335 ) ;
#143 = ORIENTED_EDGE ( 'NONE', *, *, #331, .F. ) ;
#144 = DIRECTION ( 'NONE',  ( -1.000000000000000000, 0.0000000000000000000, 0.0000000000000000000 ) ) ;
#145 =( LENGTH_UNIT ( ) NAMED_UNIT ( * ) SI_UNIT ( $, .METRE. ) );
#146 = DIRECTION ( 'NONE',  ( -1.224646799147353454E-16, -0.0000000000000000000, -1.000000000000000000 ) ) ;
#147 = UNCERTAINTY_MEASURE_WITH_UNIT (LENGTH_MEASURE( 1.000000000000000082E-05 ), #284, 'distance_accuracy_value', 'NONE');
#148 = VECTOR ( 'NONE', #310, 39.37007874015748143 ) ;
#149 = DIRECTION ( 'NONE',  ( 1.000000000000000000, 0.0000000000000000000, 0.0000000000000000000 ) ) ;
#150 = CARTESIAN_POINT ( 'NONE',  ( 3.673940397442060731E-18, 0.0000000000000000000, 0.03000000000000000583 ) ) ;
#151 = CYLINDRICAL_SURFACE ( 'NONE', #185, 0.2497499999999999998 ) ;
#152 = DIRECTION ( 'NONE',  ( 0.0000000000000000000, 0.0000000000000000000, 1.000000000000000000 ) ) ;
#153 = CIRCLE ( 'NONE', #249, 0.2197500000000000286 ) ;
#154 = CARTESIAN_POINT ( 'NONE',  ( 3.673940397442060731E-18, 0.0000000000000000000, 0.02999999999999999889 ) ) ;
#155 = VERTEX_POINT ( 'NONE', #288 ) ;
#156 = ORIENTED_EDGE ( 'NONE', *, *, #59, .F. ) ;
#157 = LINE ( 'NONE', #213, #351 ) ;
#158 = ORIENTED_EDGE ( 'NONE', *, *, #33, .T. ) ;
#159 =( NAMED_UNIT ( * ) SI_UNIT ( $, .STERADIAN. ) SOLID_ANGLE_UNIT ( ) );
#160 = ORIENTED_EDGE ( 'NONE', *, *, #6, .F. ) ;
#161 = AXIS2_PLACEMENT_3D ( 'NONE', #194, #235, #93 ) ;
#162 =( NAMED_UNIT ( * ) PLANE_ANGLE_UNIT ( ) SI_UNIT ( $, .RADIAN. ) );
#163 = FACE_OUTER_BOUND ( 'NONE', #260, .T. ) ;
#164 = LENGTH_MEASURE_WITH_UNIT ( LENGTH_MEASURE( 0.02539999999999999897 ), #340 );
#165 = DIRECTION ( 'NONE',  ( -1.224646799147353454E-16, -0.0000000000000000000, -1.000000000000000000 ) ) ;
#166 = CIRCLE ( 'NONE', #161, 0.2197500000000000286 ) ;
#167 = ORIENTED_EDGE ( 'NONE', *, *, #242, .F. ) ;
#168 = APPLICATION_CONTEXT ( 'automotive_design' ) ;
#169 = SURFACE_SIDE_STYLE ('',( #258 ) ) ;
#170 = CARTESIAN_POINT ( 'NONE',  ( 0.2350000000000011524, 2.877919977996294002E-17, 3.000000000000000444 ) ) ;
#171 = CARTESIAN_POINT ( 'NONE',  ( 0.2497499999999999998, 3.058555380870514950E-17, 0.03000000000000000583 ) ) ;
#172 = EDGE_CURVE ( 'NONE', #225, #126, #178, .T. ) ;
#173 = CARTESIAN_POINT ( 'NONE',  ( -0.2500000000000000000, 0.0000000000000000000, 2.985000000000001208 ) ) ;
#174 = VECTOR ( 'NONE', #204, 39.37007874015748143 ) ;
#175 = CARTESIAN_POINT ( 'NONE',  ( 3.673940397442060731E-18, 0.0000000000000000000, 0.02999999999999999889 ) ) ;
#176 = CARTESIAN_POINT ( 'NONE',  ( 0.0000000000000000000, 0.0000000000000000000, 0.0000000000000000000 ) ) ;
#177 = DIRECTION ( 'NONE',  ( 1.000000000000000000, 0.0000000000000000000, 0.0000000000000000000 ) ) ;
#178 = CIRCLE ( 'NONE', #256, 0.2497499999999999998 ) ;
#179 = DIRECTION ( 'NONE',  ( 0.0000000000000000000, 0.0000000000000000000, -1.000000000000000000 ) ) ;
#180 = EDGE_CURVE ( 'NONE', #341, #197, #166, .T. ) ;
#181 = LINE ( 'NONE', #272, #102 ) ;
#182 = CIRCLE ( 'NONE', #107, 0.2497499999999999998 ) ;
#183 = EDGE_LOOP ( 'NONE', ( #132, #302, #184, #276 ) ) ;
#184 = ORIENTED_EDGE ( 'NONE', *, *, #275, .F. ) ;
#185 = AXIS2_PLACEMENT_3D ( 'NONE', #269, #323, #24 ) ;
#186 = CARTESIAN_POINT ( 'NONE',  ( 0.2500000000000000000, 3.061616997868382402E-17, 3.000000000000000444 ) ) ;
#187 = PRESENTATION_STYLE_ASSIGNMENT (( #278 ) ) ;
#188 = ADVANCED_BREP_SHAPE_REPRESENTATION ( 'Micro_GEC-500-3-030', ( #83, #15 ), #64 ) ;
#189 = CIRCLE ( 'NONE', #108, 0.02999999999999999889 ) ;
#190 = ORIENTED_EDGE ( 'NONE', *, *, #253, .T. ) ;
#191 = AXIS2_PLACEMENT_3D ( 'NONE', #69, #233, #144 ) ;
#192 = EDGE_CURVE ( 'NONE', #126, #106, #346, .T. ) ;
#193 = DIRECTION ( 'NONE',  ( 1.000000000000000000, 0.0000000000000000000, 0.0000000000000000000 ) ) ;
#194 = CARTESIAN_POINT ( 'NONE',  ( 3.673940397442060731E-18, 0.0000000000000000000, 0.0000000000000000000 ) ) ;
#195 = EDGE_LOOP ( 'NONE', ( #160, #301, #190, #136 ) ) ;
#196 = DIRECTION ( 'NONE',  ( -0.0000000000000000000, -0.0000000000000000000, -1.000000000000000000 ) ) ;
#197 = VERTEX_POINT ( 'NONE', #47 ) ;
#198 = LINE ( 'NONE', #71, #148 ) ;
#199 = AXIS2_PLACEMENT_3D ( 'NONE', #125, #67, #16 ) ;
#200 = EDGE_CURVE ( 'NONE', #225, #129, #142, .T. ) ;
#201 = DIRECTION ( 'NONE',  ( 1.000000000000000000, 0.0000000000000000000, -0.0000000000000000000 ) ) ;
#202 = ADVANCED_FACE ( 'NONE', ( #163 ), #259, .T. ) ;
#203 = CARTESIAN_POINT ( 'NONE',  ( -0.2197500000000000286, 2.691161341126309185E-17, 0.02999999999999999889 ) ) ;
#204 = DIRECTION ( 'NONE',  ( -0.0000000000000000000, -0.0000000000000000000, -1.000000000000000000 ) ) ;
#205 = CIRCLE ( 'NONE', #99, 0.2497499999999999998 ) ;
#206 = DIRECTION ( 'NONE',  ( 0.0000000000000000000, 0.0000000000000000000, 1.000000000000000000 ) ) ;
#207 = DIRECTION ( 'NONE',  ( 0.0000000000000000000, 0.0000000000000000000, -1.000000000000000000 ) ) ;
#208 = CARTESIAN_POINT ( 'NONE',  ( 0.0000000000000000000, 0.0000000000000000000, 3.000000000000000444 ) ) ;
#209 = CARTESIAN_POINT ( 'NONE',  ( 0.0000000000000000000, 0.0000000000000000000, 2.985000000000001208 ) ) ;
#210 = ORIENTED_EDGE ( 'NONE', *, *, #86, .F. ) ;
#211 = AXIS2_PLACEMENT_3D ( 'NONE', #154, #328, #177 ) ;
#212 = AXIS2_PLACEMENT_3D ( 'NONE', #224, #268, #201 ) ;
#213 = CARTESIAN_POINT ( 'NONE',  ( 0.2497500000000001386, 0.0000000000000000000, 1.000000000000000000 ) ) ;
#214 =( CONVERSION_BASED_UNIT ( 'INCH', #303 ) LENGTH_UNIT ( ) NAMED_UNIT ( #247 ) );
#215 = FACE_OUTER_BOUND ( 'NONE', #300, .T. ) ;
#216 = VERTEX_POINT ( 'NONE', #21 ) ;
#217 = ORIENTED_EDGE ( 'NONE', *, *, #54, .F. ) ;
#218 = ORIENTED_EDGE ( 'NONE', *, *, #231, .T. ) ;
#219 = CONICAL_SURFACE ( 'NONE', #292, 0.2497499999999999998, 0.1745329251994338360 ) ;
#220 = AXIS2_PLACEMENT_3D ( 'NONE', #176, #234, #3 ) ;
#221 = EDGE_LOOP ( 'NONE', ( #68, #167, #218, #156 ) ) ;
#222 = CYLINDRICAL_SURFACE ( 'NONE', #237, 0.2500000000000000000 ) ;
#223 = EDGE_LOOP ( 'NONE', ( #14, #44 ) ) ;
#224 = CARTESIAN_POINT ( 'NONE',  ( 0.0000000000000000000, 0.0000000000000000000, 3.000000000000000444 ) ) ;
#225 = VERTEX_POINT ( 'NONE', #49 ) ;
#226 = ADVANCED_FACE ( 'NONE', ( #291 ), #279, .T. ) ;
#227 =( NAMED_UNIT ( * ) SI_UNIT ( $, .STERADIAN. ) SOLID_ANGLE_UNIT ( ) );
#228 = FACE_OUTER_BOUND ( 'NONE', #84, .T. ) ;
#229 = CIRCLE ( 'NONE', #10, 0.2497499999999999998 ) ;
#230 = AXIS2_PLACEMENT_3D ( 'NONE', #175, #206, #319 ) ;
#231 = EDGE_CURVE ( 'NONE', #155, #304, #140, .T. ) ;
#232 = DIRECTION ( 'NONE',  ( 0.7071067811865402453, 8.659560562354845344E-17, -0.7071067811865546782 ) ) ;
#233 = DIRECTION ( 'NONE',  ( 0.0000000000000000000, 0.0000000000000000000, -1.000000000000000000 ) ) ;
#234 = DIRECTION ( 'NONE',  ( 0.0000000000000000000, 0.0000000000000000000, 1.000000000000000000 ) ) ;
#235 = DIRECTION ( 'NONE',  ( -0.0000000000000000000, -0.0000000000000000000, -1.000000000000000000 ) ) ;
#236 = DIRECTION ( 'NONE',  ( -1.224646799147353454E-16, -0.0000000000000000000, -1.000000000000000000 ) ) ;
#237 = AXIS2_PLACEMENT_3D ( 'NONE', #95, #196, #348 ) ;
#238 = CONICAL_SURFACE ( 'NONE', #94, 0.2350000000000011524, 0.7853981633974380649 ) ;
#239 = DIRECTION ( 'NONE',  ( 1.000000000000000000, 0.0000000000000000000, 0.0000000000000000000 ) ) ;
#240 = DIRECTION ( 'NONE',  ( 1.000000000000000000, 0.0000000000000000000, 0.0000000000000000000 ) ) ;
#241 = EDGE_LOOP ( 'NONE', ( #321, #130, #257, #17 ) ) ;
#242 = EDGE_CURVE ( 'NONE', #155, #289, #244, .T. ) ;
#243 = CARTESIAN_POINT ( 'NONE',  ( 3.673940397442060731E-18, 0.0000000000000000000, 0.03000000000000000583 ) ) ;
#244 = CIRCLE ( 'NONE', #330, 0.2350000000000011524 ) ;
#245 = ORIENTED_EDGE ( 'NONE', *, *, #297, .T. ) ;
#246 = CARTESIAN_POINT ( 'NONE',  ( 1.224646799147353454E-16, 0.0000000000000000000, 1.000000000000000000 ) ) ;
#247 = DIMENSIONAL_EXPONENTS ( 1.000000000000000000, 0.0000000000000000000, 0.0000000000000000000, 0.0000000000000000000, 0.0000000000000000000, 0.0000000000000000000, 0.0000000000000000000 ) ;
#248 = FILL_AREA_STYLE ('',( #277 ) ) ;
#249 = AXIS2_PLACEMENT_3D ( 'NONE', #128, #327, #240 ) ;
#250 = ORIENTED_EDGE ( 'NONE', *, *, #172, .T. ) ;
#251 = DIRECTION ( 'NONE',  ( 1.000000000000000000, 0.0000000000000000000, 0.0000000000000000000 ) ) ;
#252 = VERTEX_POINT ( 'NONE', #120 ) ;
#253 = EDGE_CURVE ( 'NONE', #216, #134, #109, .T. ) ;
#254 = PRODUCT_CONTEXT ( 'NONE', #168, 'mechanical' ) ;
#255 = CARTESIAN_POINT ( 'NONE',  ( 1.224646799147353454E-16, 0.0000000000000000000, 1.000000000000000000 ) ) ;
#256 = AXIS2_PLACEMENT_3D ( 'NONE', #255, #313, #51 ) ;
#257 = ORIENTED_EDGE ( 'NONE', *, *, #98, .F. ) ;
#258 = SURFACE_STYLE_FILL_AREA ( #62 ) ;
#259 = CYLINDRICAL_SURFACE ( 'NONE', #315, 0.2500000000000000000 ) ;
#260 = EDGE_LOOP ( 'NONE', ( #309, #245, #311, #210 ) ) ;
#261 = EDGE_CURVE ( 'NONE', #289, #155, #26, .T. ) ;
#262 = CARTESIAN_POINT ( 'NONE',  ( 0.0000000000000000000, 0.0000000000000000000, 3.000000000000000444 ) ) ;
#263 = DIRECTION ( 'NONE',  ( -1.000000000000000000, 0.0000000000000000000, 0.0000000000000000000 ) ) ;
#264 = DIRECTION ( 'NONE',  ( 1.000000000000000000, 0.0000000000000000000, 0.0000000000000000000 ) ) ;
#265 = CIRCLE ( 'NONE', #81, 0.2500000000000000000 ) ;
#266 = COLOUR_RGB ( '',0.7921568627450980005, 0.8196078431372548767, 0.9333333333333333481 ) ;
#267 = DIRECTION ( 'NONE',  ( -1.000000000000000000, 1.224646799147353454E-16, 0.0000000000000000000 ) ) ;
#268 = DIRECTION ( 'NONE',  ( 0.0000000000000000000, 0.0000000000000000000, 1.000000000000000000 ) ) ;
#269 = CARTESIAN_POINT ( 'NONE',  ( 0.0000000000000000000, 0.0000000000000000000, 0.0000000000000000000 ) ) ;
#270 = STYLED_ITEM ( 'NONE', ( #137 ), #188 ) ;
#271 = CARTESIAN_POINT ( 'NONE',  ( 1.226383128429217700E-16, 0.0000000000000000000, 1.001417820454904462 ) ) ;
#272 = CARTESIAN_POINT ( 'NONE',  ( -0.2497499999999998888, 3.058555380870514950E-17, 1.000000000000000000 ) ) ;
#273 = EDGE_CURVE ( 'NONE', #197, #341, #153, .T. ) ;
#274 = AXIS2_PLACEMENT_3D ( 'NONE', #203, #290, #267 ) ;
#275 = EDGE_CURVE ( 'NONE', #304, #252, #342, .T. ) ;
#276 = ORIENTED_EDGE ( 'NONE', *, *, #231, .F. ) ;
#277 = FILL_AREA_STYLE_COLOUR ( '', #141 ) ;
#278 = SURFACE_STYLE_USAGE ( .BOTH. , #12 ) ;
#279 = CONICAL_SURFACE ( 'NONE', #191, 0.2350000000000011524, 0.7853981633974380649 ) ;
#280 = ORIENTED_EDGE ( 'NONE', *, *, #200, .T. ) ;
#281 = MECHANICAL_DESIGN_GEOMETRIC_PRESENTATION_REPRESENTATION (  '', ( #270 ), #299 ) ;
#282 = CARTESIAN_POINT ( 'NONE',  ( 0.0000000000000000000, 0.0000000000000000000, 0.0000000000000000000 ) ) ;
#283 = LENGTH_MEASURE_WITH_UNIT ( LENGTH_MEASURE( 0.02539999999999999897 ), #145 );
#284 =( CONVERSION_BASED_UNIT ( 'INCH', #164 ) LENGTH_UNIT ( ) NAMED_UNIT ( #52 ) );
#285 = CARTESIAN_POINT ( 'NONE',  ( -0.2497499999999999998, 0.0000000000000000000, 0.03000000000000000583 ) ) ;
#286 =( GEOMETRIC_REPRESENTATION_CONTEXT ( 3 ) GLOBAL_UNCERTAINTY_ASSIGNED_CONTEXT ( ( #39 ) ) GLOBAL_UNIT_ASSIGNED_CONTEXT ( ( #214, #112, #42 ) ) REPRESENTATION_CONTEXT ( 'NONE', 'WORKASPACE' ) );
#287 = ORIENTED_EDGE ( 'NONE', *, *, #59, .T. ) ;
#288 = CARTESIAN_POINT ( 'NONE',  ( -0.2350000000000011524, 0.0000000000000000000, 3.000000000000000444 ) ) ;
#289 = VERTEX_POINT ( 'NONE', #60 ) ;
#290 = DIRECTION ( 'NONE',  ( 1.224646799147353207E-16, 1.000000000000000000, -0.0000000000000000000 ) ) ;
#291 = FACE_OUTER_BOUND ( 'NONE', #183, .T. ) ;
#292 = AXIS2_PLACEMENT_3D ( 'NONE', #339, #337, #110 ) ;
#293 = ORIENTED_EDGE ( 'NONE', *, *, #297, .F. ) ;
#294 = DIRECTION ( 'NONE',  ( -1.224646799147353454E-16, -0.0000000000000000000, -1.000000000000000000 ) ) ;
#295 = UNCERTAINTY_MEASURE_WITH_UNIT (LENGTH_MEASURE( 1.000000000000000082E-05 ), #308, 'distance_accuracy_value', 'NONE');
#296 = FACE_OUTER_BOUND ( 'NONE', #56, .T. ) ;
#297 = EDGE_CURVE ( 'NONE', #252, #134, #11, .T. ) ;
#298 = AXIS2_PLACEMENT_3D ( 'NONE', #40, #85, #251 ) ;
#299 =( GEOMETRIC_REPRESENTATION_CONTEXT ( 3 ) GLOBAL_UNCERTAINTY_ASSIGNED_CONTEXT ( ( #147 ) ) GLOBAL_UNIT_ASSIGNED_CONTEXT ( ( #284, #18, #159 ) ) REPRESENTATION_CONTEXT ( 'NONE', 'WORKASPACE' ) );
#300 = EDGE_LOOP ( 'NONE', ( #347, #76, #116, #117 ) ) ;
#301 = ORIENTED_EDGE ( 'NONE', *, *, #23, .T. ) ;
#302 = ORIENTED_EDGE ( 'NONE', *, *, #322, .T. ) ;
#303 = LENGTH_MEASURE_WITH_UNIT ( LENGTH_MEASURE( 0.02539999999999999897 ), #306 );
#304 = VERTEX_POINT ( 'NONE', #173 ) ;
#305 = ADVANCED_FACE ( 'NONE', ( #296 ), #151, .T. ) ;
#306 =( LENGTH_UNIT ( ) NAMED_UNIT ( * ) SI_UNIT ( $, .METRE. ) );
#307 = CONICAL_SURFACE ( 'NONE', #298, 0.2497499999999999998, 0.1745329251994338360 ) ;
#308 =( CONVERSION_BASED_UNIT ( 'INCH', #283 ) LENGTH_UNIT ( ) NAMED_UNIT ( #38 ) );
#309 = ORIENTED_EDGE ( 'NONE', *, *, #275, .T. ) ;
#310 = DIRECTION ( 'NONE',  ( -0.0000000000000000000, -0.0000000000000000000, -1.000000000000000000 ) ) ;
#311 = ORIENTED_EDGE ( 'NONE', *, *, #253, .F. ) ;
#312 = FILL_AREA_STYLE_COLOUR ( '', #266 ) ;
#313 = DIRECTION ( 'NONE',  ( -1.224646799147353454E-16, -0.0000000000000000000, -1.000000000000000000 ) ) ;
#314 = FACE_OUTER_BOUND ( 'NONE', #48, .T. ) ;
#315 = AXIS2_PLACEMENT_3D ( 'NONE', #19, #97, #119 ) ;
#316 = FACE_OUTER_BOUND ( 'NONE', #221, .T. ) ;
#317 = DIRECTION ( 'NONE',  ( 0.0000000000000000000, 0.0000000000000000000, 1.000000000000000000 ) ) ;
#318 = ADVANCED_FACE ( 'NONE', ( #316 ), #238, .T. ) ;
#319 = DIRECTION ( 'NONE',  ( 1.000000000000000000, 0.0000000000000000000, 0.0000000000000000000 ) ) ;
#320 = DIRECTION ( 'NONE',  ( 0.0000000000000000000, 0.0000000000000000000, 1.000000000000000000 ) ) ;
#321 = ORIENTED_EDGE ( 'NONE', *, *, #180, .F. ) ;
#322 = EDGE_CURVE ( 'NONE', #289, #252, #4, .T. ) ;
#323 = DIRECTION ( 'NONE',  ( -1.224646799147353454E-16, -0.0000000000000000000, -1.000000000000000000 ) ) ;
#324 = AXIS2_PLACEMENT_3D ( 'NONE', #325, #294, #149 ) ;
#325 = CARTESIAN_POINT ( 'NONE',  ( 1.226383128429217700E-16, 0.0000000000000000000, 1.001417820454904462 ) ) ;
#326 = ADVANCED_FACE ( 'NONE', ( #96 ), #5, .T. ) ;
#327 = DIRECTION ( 'NONE',  ( -0.0000000000000000000, -0.0000000000000000000, -1.000000000000000000 ) ) ;
#328 = DIRECTION ( 'NONE',  ( 0.0000000000000000000, 0.0000000000000000000, 1.000000000000000000 ) ) ;
#329 = FACE_OUTER_BOUND ( 'NONE', #349, .T. ) ;
#330 = AXIS2_PLACEMENT_3D ( 'NONE', #262, #320, #53 ) ;
#331 = EDGE_CURVE ( 'NONE', #134, #216, #122, .T. ) ;
#332 = DIRECTION ( 'NONE',  ( 0.0000000000000000000, 0.0000000000000000000, -1.000000000000000000 ) ) ;
#333 = EDGE_CURVE ( 'NONE', #341, #106, #78, .T. ) ;
#334 = CARTESIAN_POINT ( 'NONE',  ( 0.2197500000000000286, 0.0000000000000000000, 0.02999999999999999889 ) ) ;
#335 = VECTOR ( 'NONE', #146, 39.37007874015748143 ) ;
#336 = PRODUCT_DEFINITION_CONTEXT ( 'detailed design', #50, 'design' ) ;
#337 = DIRECTION ( 'NONE',  ( 1.224646799147353454E-16, 0.0000000000000000000, 1.000000000000000000 ) ) ;
#338 = ADVANCED_FACE ( 'NONE', ( #27 ), #75, .F. ) ;
#339 = CARTESIAN_POINT ( 'NONE',  ( 1.224646799147353454E-16, 0.0000000000000000000, 1.000000000000000000 ) ) ;
#340 =( LENGTH_UNIT ( ) NAMED_UNIT ( * ) SI_UNIT ( $, .METRE. ) );
#341 = VERTEX_POINT ( 'NONE', #55 ) ;
#342 = CIRCLE ( 'NONE', #34, 0.2500000000000000000 ) ;
#343 = ORIENTED_EDGE ( 'NONE', *, *, #54, .T. ) ;
#344 = DIRECTION ( 'NONE',  ( 0.0000000000000000000, 0.0000000000000000000, 1.000000000000000000 ) ) ;
#345 = SURFACE_STYLE_USAGE ( .BOTH. , #169 ) ;
#346 = LINE ( 'NONE', #90, #41 ) ;
#347 = ORIENTED_EDGE ( 'NONE', *, *, #23, .F. ) ;
#348 = DIRECTION ( 'NONE',  ( -1.000000000000000000, 0.0000000000000000000, 0.0000000000000000000 ) ) ;
#349 = EDGE_LOOP ( 'NONE', ( #20, #74, #158, #217 ) ) ;
#350 = DIRECTION ( 'NONE',  ( 0.0000000000000000000, 0.0000000000000000000, -1.000000000000000000 ) ) ;
#351 = VECTOR ( 'NONE', #133, 39.37007874015748143 ) ;
ENDSEC;
END-ISO-10303-21;
