ISO-10303-21;
HEADER;
FILE_DESCRIPTION (( 'STEP AP214' ),
    '1' );
FILE_NAME ('83286.STEP',
    '2023-06-30T22:55:50',
    ( '' ),
    ( '' ),
    'SwSTEP 2.0',
    'SolidWorks 2023',
    '' );
FILE_SCHEMA (( 'AUTOMOTIVE_DESIGN' ));
ENDSEC;

DATA;
#1 = SURFACE_SIDE_STYLE ('',( #83 ) ) ;
#2 = CARTESIAN_POINT ( 'NONE',  ( 0.000000000000000000, 0.1250000000000000278, 0.000000000000000000 ) ) ;
#3 = COLOUR_RGB ( '',0.7921568627450980005, 0.8196078431372548767, 0.9333333333333333481 ) ;
#4 = CYLINDRICAL_SURFACE ( 'NONE', #234, 0.1249999999999999167 ) ;
#5 = CIRCLE ( 'NONE', #18, 0.1249999999999998473 ) ;
#6 = COLOUR_RGB ( '',0.7921568627450980005, 0.8196078431372548767, 0.9333333333333333481 ) ;
#7 = UNCERTAINTY_MEASURE_WITH_UNIT (LENGTH_MEASURE( 1.000000000000000082E-05 ), #367, 'distance_accuracy_value', 'NONE');
#8 = DIRECTION ( 'NONE',  ( 1.000000000000000000, 0.000000000000000000, 0.000000000000000000 ) ) ;
#9 =( NAMED_UNIT ( * ) SI_UNIT ( $, .STERADIAN. ) SOLID_ANGLE_UNIT ( ) );
#10 = ORIENTED_EDGE ( 'NONE', *, *, #49, .F. ) ;
#11 =( NAMED_UNIT ( * ) PLANE_ANGLE_UNIT ( ) SI_UNIT ( $, .RADIAN. ) );
#12 = ORIENTED_EDGE ( 'NONE', *, *, #85, .F. ) ;
#13 = DIRECTION ( 'NONE',  ( -1.574545884618025728E-16, 1.000000000000000000, -0.000000000000000000 ) ) ;
#14 = VERTEX_POINT ( 'NONE', #251 ) ;
#15 = ADVANCED_FACE ( 'NONE', ( #45 ), #172, .T. ) ;
#16 = ORIENTED_EDGE ( 'NONE', *, *, #65, .F. ) ;
#17 =( GEOMETRIC_REPRESENTATION_CONTEXT ( 3 ) GLOBAL_UNCERTAINTY_ASSIGNED_CONTEXT ( ( #280 ) ) GLOBAL_UNIT_ASSIGNED_CONTEXT ( ( #354, #11, #291 ) ) REPRESENTATION_CONTEXT ( 'NONE', 'WORKASPACE' ) );
#18 = AXIS2_PLACEMENT_3D ( 'NONE', #22, #248, #144 ) ;
#19 = FILL_AREA_STYLE_COLOUR ( '', #46 ) ;
#20 = EDGE_CURVE ( 'NONE', #76, #63, #33, .T. ) ;
#21 = UNCERTAINTY_MEASURE_WITH_UNIT (LENGTH_MEASURE( 1.000000000000000082E-05 ), #275, 'distance_accuracy_value', 'NONE');
#22 = CARTESIAN_POINT ( 'NONE',  ( 0.000000000000000000, 1.250000000000000000, 0.000000000000000000 ) ) ;
#23 = APPLICATION_CONTEXT ( 'automotive_design' ) ;
#24 = FILL_AREA_STYLE ('',( #19 ) ) ;
#25 =( CONVERSION_BASED_UNIT ( 'INCH', #50 ) LENGTH_UNIT ( ) NAMED_UNIT ( #274 ) );
#26 = ADVANCED_FACE ( 'NONE', ( #112 ), #137, .T. ) ;
#27 = DIRECTION ( 'NONE',  ( 0.000000000000000000, 0.000000000000000000, -1.000000000000000000 ) ) ;
#28 = LINE ( 'NONE', #228, #182 ) ;
#29 = LENGTH_MEASURE_WITH_UNIT ( LENGTH_MEASURE( 0.02539999999999999897 ), #99 );
#30 = CARTESIAN_POINT ( 'NONE',  ( 0.1249999999999999861, 0.1250000000000000278, 0.000000000000000000 ) ) ;
#31 = DIRECTION ( 'NONE',  ( 0.000000000000000000, -0.000000000000000000, 1.000000000000000000 ) ) ;
#32 = COLOUR_RGB ( '',1.000000000000000000, 0.000000000000000000, 0.000000000000000000 ) ;
#33 = CIRCLE ( 'NONE', #307, 0.1249999999999999861 ) ;
#34 = DIRECTION ( 'NONE',  ( 1.000000000000000000, 1.574545884618025728E-16, 0.000000000000000000 ) ) ;
#35 = DIRECTION ( 'NONE',  ( 0.000000000000000000, 0.000000000000000000, -1.000000000000000000 ) ) ;
#36 = ORIENTED_EDGE ( 'NONE', *, *, #232, .T. ) ;
#37 = CYLINDRICAL_SURFACE ( 'NONE', #69, 0.1249999999999999167 ) ;
#38 = SURFACE_SIDE_STYLE ('',( #93 ) ) ;
#39 = ORIENTED_EDGE ( 'NONE', *, *, #321, .T. ) ;
#40 = LENGTH_MEASURE_WITH_UNIT ( LENGTH_MEASURE( 0.02539999999999999897 ), #70 );
#41 = VERTEX_POINT ( 'NONE', #225 ) ;
#42 = ADVANCED_FACE ( 'NONE', ( #75 ), #48, .T. ) ;
#43 = DIRECTION ( 'NONE',  ( -1.574545884618025728E-16, 1.000000000000000000, -0.000000000000000000 ) ) ;
#44 = SURFACE_STYLE_FILL_AREA ( #79 ) ;
#45 = FACE_OUTER_BOUND ( 'NONE', #102, .T. ) ;
#46 = COLOUR_RGB ( '',1.000000000000000000, 0.000000000000000000, 0.000000000000000000 ) ;
#47 = FACE_OUTER_BOUND ( 'NONE', #356, .T. ) ;
#48 = CYLINDRICAL_SURFACE ( 'NONE', #121, 0.1249999999999997918 ) ;
#49 = EDGE_CURVE ( 'NONE', #14, #191, #5, .T. ) ;
#50 = LENGTH_MEASURE_WITH_UNIT ( LENGTH_MEASURE( 0.02539999999999999897 ), #278 );
#51 = DIRECTION ( 'NONE',  ( -0.000000000000000000, -1.000000000000000000, -0.000000000000000000 ) ) ;
#52 = DIRECTION ( 'NONE',  ( -1.000000000000000000, 0.000000000000000000, 0.000000000000000000 ) ) ;
#53 = STYLED_ITEM ( 'NONE', ( #256 ), #329 ) ;
#54 = EDGE_CURVE ( 'NONE', #333, #159, #229, .T. ) ;
#55 = DIRECTION ( 'NONE',  ( 0.000000000000000000, 0.000000000000000000, -1.000000000000000000 ) ) ;
#56 = DIRECTION ( 'NONE',  ( 0.000000000000000000, 0.000000000000000000, 1.000000000000000000 ) ) ;
#57 = DIRECTION ( 'NONE',  ( -0.000000000000000000, -1.000000000000000000, -0.000000000000000000 ) ) ;
#58 = FILL_AREA_STYLE ('',( #89 ) ) ;
#59 = LINE ( 'NONE', #175, #145 ) ;
#60 = SURFACE_SIDE_STYLE ('',( #358 ) ) ;
#61 =( GEOMETRIC_REPRESENTATION_CONTEXT ( 3 ) GLOBAL_UNCERTAINTY_ASSIGNED_CONTEXT ( ( #304 ) ) GLOBAL_UNIT_ASSIGNED_CONTEXT ( ( #25, #84, #224 ) ) REPRESENTATION_CONTEXT ( 'NONE', 'WORKASPACE' ) );
#62 = LENGTH_MEASURE_WITH_UNIT ( LENGTH_MEASURE( 0.02539999999999999897 ), #243 );
#63 = VERTEX_POINT ( 'NONE', #174 ) ;
#64 = PRESENTATION_STYLE_ASSIGNMENT (( #120 ) ) ;
#65 = EDGE_CURVE ( 'NONE', #41, #337, #324, .T. ) ;
#66 = EDGE_LOOP ( 'NONE', ( #10, #157 ) ) ;
#67 = SURFACE_SIDE_STYLE ('',( #127 ) ) ;
#68 = ORIENTED_EDGE ( 'NONE', *, *, #284, .T. ) ;
#69 = AXIS2_PLACEMENT_3D ( 'NONE', #246, #218, #334 ) ;
#70 =( LENGTH_UNIT ( ) NAMED_UNIT ( * ) SI_UNIT ( $, .METRE. ) );
#71 = ORIENTED_EDGE ( 'NONE', *, *, #80, .T. ) ;
#72 = MECHANICAL_DESIGN_GEOMETRIC_PRESENTATION_REPRESENTATION (  '', ( #250 ), #215 ) ;
#73 = CARTESIAN_POINT ( 'NONE',  ( 0.1249999999999998473, 1.250000000000000000, 1.530808498934189660E-17 ) ) ;
#74 = CARTESIAN_POINT ( 'NONE',  ( 0.1249999999999998751, 3.000000000000000444, 1.530808498934189968E-17 ) ) ;
#75 = FACE_OUTER_BOUND ( 'NONE', #331, .T. ) ;
#76 = VERTEX_POINT ( 'NONE', #30 ) ;
#77 = LENGTH_MEASURE_WITH_UNIT ( LENGTH_MEASURE( 0.02539999999999999897 ), #252 );
#78 = CARTESIAN_POINT ( 'NONE',  ( -6.123233995736772199E-17, 3.000000000000000444, 0.000000000000000000 ) ) ;
#79 = FILL_AREA_STYLE ('',( #169 ) ) ;
#80 = EDGE_CURVE ( 'NONE', #268, #266, #371, .T. ) ;
#81 = PRESENTATION_STYLE_ASSIGNMENT (( #173 ) ) ;
#82 = CARTESIAN_POINT ( 'NONE',  ( 1.530808498934190276E-17, 0.000000000000000000, 0.1249999999999999167 ) ) ;
#83 = SURFACE_STYLE_FILL_AREA ( #344 ) ;
#84 =( NAMED_UNIT ( * ) PLANE_ANGLE_UNIT ( ) SI_UNIT ( $, .RADIAN. ) );
#85 = EDGE_CURVE ( 'NONE', #41, #136, #257, .T. ) ;
#86 =( LENGTH_UNIT ( ) NAMED_UNIT ( * ) SI_UNIT ( $, .METRE. ) );
#87 = MECHANICAL_DESIGN_GEOMETRIC_PRESENTATION_REPRESENTATION (  '', ( #53 ), #189 ) ;
#88 = COLOUR_RGB ( '',1.000000000000000000, 0.000000000000000000, 0.000000000000000000 ) ;
#89 = FILL_AREA_STYLE_COLOUR ( '', #32 ) ;
#90 = DIRECTION ( 'NONE',  ( -0.000000000000000000, -1.000000000000000000, -0.000000000000000000 ) ) ;
#91 = PRODUCT_DEFINITION_CONTEXT ( 'detailed design', #23, 'design' ) ;
#92 = PLANE ( 'NONE',  #263 ) ;
#93 = SURFACE_STYLE_FILL_AREA ( #237 ) ;
#94 = EDGE_CURVE ( 'NONE', #266, #268, #147, .T. ) ;
#95 = ORIENTED_EDGE ( 'NONE', *, *, #54, .T. ) ;
#96 = PRESENTATION_LAYER_ASSIGNMENT (  '', '', ( #53 ) ) ;
#97 = AXIS2_PLACEMENT_3D ( 'NONE', #114, #259, #202 ) ;
#98 = ORIENTED_EDGE ( 'NONE', *, *, #216, .F. ) ;
#99 =( LENGTH_UNIT ( ) NAMED_UNIT ( * ) SI_UNIT ( $, .METRE. ) );
#100 = PRODUCT ( '83286', '83286', '', ( #289 ) ) ;
#101 = FILL_AREA_STYLE_COLOUR ( '', #6 ) ;
#102 = EDGE_LOOP ( 'NONE', ( #133, #163, #209, #212 ) ) ;
#103 = EDGE_CURVE ( 'NONE', #337, #76, #362, .T. ) ;
#104 = ORIENTED_EDGE ( 'NONE', *, *, #103, .T. ) ;
#105 = STYLED_ITEM ( 'NONE', ( #330 ), #296 ) ;
#106 = DIRECTION ( 'NONE',  ( -1.000000000000000000, 0.000000000000000000, 0.000000000000000000 ) ) ;
#107 = EDGE_LOOP ( 'NONE', ( #110, #36, #132, #217, #98 ) ) ;
#108 = LENGTH_MEASURE_WITH_UNIT ( LENGTH_MEASURE( 0.02539999999999999897 ), #141 );
#109 = FACE_OUTER_BOUND ( 'NONE', #131, .T. ) ;
#110 = ORIENTED_EDGE ( 'NONE', *, *, #49, .T. ) ;
#111 = CIRCLE ( 'NONE', #171, 0.1249999999999998473 ) ;
#112 = FACE_OUTER_BOUND ( 'NONE', #186, .T. ) ;
#113 = DIRECTION ( 'NONE',  ( 1.000000000000000000, 0.000000000000000000, 0.000000000000000000 ) ) ;
#114 = CARTESIAN_POINT ( 'NONE',  ( -1.530808498934191509E-17, 0.1250000000000000000, 0.000000000000000000 ) ) ;
#115 = SURFACE_SIDE_STYLE ('',( #226 ) ) ;
#116 = AXIS2_PLACEMENT_3D ( 'NONE', #351, #231, #255 ) ;
#117 =( NAMED_UNIT ( * ) PLANE_ANGLE_UNIT ( ) SI_UNIT ( $, .RADIAN. ) );
#118 = CARTESIAN_POINT ( 'NONE',  ( -7.654042494670957545E-18, 0.000000000000000000, 0.000000000000000000 ) ) ;
#119 = MECHANICAL_DESIGN_GEOMETRIC_PRESENTATION_REPRESENTATION (  '', ( #105 ), #166 ) ;
#120 = SURFACE_STYLE_USAGE ( .BOTH. , #60 ) ;
#121 = AXIS2_PLACEMENT_3D ( 'NONE', #78, #197, #219 ) ;
#122 =( CONVERSION_BASED_UNIT ( 'INCH', #149 ) LENGTH_UNIT ( ) NAMED_UNIT ( #293 ) );
#123 = PLANE ( 'NONE',  #154 ) ;
#124 = EDGE_CURVE ( 'NONE', #266, #159, #28, .T. ) ;
#125 = CARTESIAN_POINT ( 'NONE',  ( -6.123233995736772199E-17, 3.000000000000000444, 0.000000000000000000 ) ) ;
#126 = DIRECTION ( 'NONE',  ( -1.000000000000000000, -1.574545884618025728E-16, 0.000000000000000000 ) ) ;
#127 = SURFACE_STYLE_FILL_AREA ( #352 ) ;
#128 = ORIENTED_EDGE ( 'NONE', *, *, #94, .T. ) ;
#129 = DIRECTION ( 'NONE',  ( -1.000000000000000000, 0.000000000000000000, 0.000000000000000000 ) ) ;
#130 = DIMENSIONAL_EXPONENTS ( 1.000000000000000000, 0.000000000000000000, 0.000000000000000000, 0.000000000000000000, 0.000000000000000000, 0.000000000000000000, 0.000000000000000000 ) ;
#131 = EDGE_LOOP ( 'NONE', ( #192, #164 ) ) ;
#132 = ORIENTED_EDGE ( 'NONE', *, *, #20, .F. ) ;
#133 = ORIENTED_EDGE ( 'NONE', *, *, #165, .T. ) ;
#134 = MECHANICAL_DESIGN_GEOMETRIC_PRESENTATION_REPRESENTATION (  '', ( #311 ), #17 ) ;
#135 = AXIS2_PLACEMENT_3D ( 'NONE', #168, #143, #113 ) ;
#136 = VERTEX_POINT ( 'NONE', #118 ) ;
#137 = CYLINDRICAL_SURFACE ( 'NONE', #281, 0.1249999999999997918 ) ;
#138 = VECTOR ( 'NONE', #51, 39.37007874015748143 ) ;
#139 = ORIENTED_EDGE ( 'NONE', *, *, #336, .F. ) ;
#140 = CIRCLE ( 'NONE', #366, 0.1249999999999999861 ) ;
#141 =( LENGTH_UNIT ( ) NAMED_UNIT ( * ) SI_UNIT ( $, .METRE. ) );
#142 = PRODUCT_RELATED_PRODUCT_CATEGORY ( 'part', '', ( #100 ) ) ;
#143 = DIRECTION ( 'NONE',  ( 0.000000000000000000, 0.000000000000000000, 1.000000000000000000 ) ) ;
#144 = DIRECTION ( 'NONE',  ( 0.000000000000000000, 0.000000000000000000, -1.000000000000000000 ) ) ;
#145 = VECTOR ( 'NONE', #343, 39.37007874015748143 ) ;
#146 =( NAMED_UNIT ( * ) SI_UNIT ( $, .STERADIAN. ) SOLID_ANGLE_UNIT ( ) );
#147 = CIRCLE ( 'NONE', #195, 0.1249999999999996392 ) ;
#148 = LINE ( 'NONE', #82, #138 ) ;
#149 = LENGTH_MEASURE_WITH_UNIT ( LENGTH_MEASURE( 0.02539999999999999897 ), #86 );
#150 = APPLICATION_PROTOCOL_DEFINITION ( 'draft international standard', 'automotive_design', 1998, #23 ) ;
#151 = DIRECTION ( 'NONE',  ( 0.000000000000000000, 0.000000000000000000, -1.000000000000000000 ) ) ;
#152 = DIRECTION ( 'NONE',  ( 0.000000000000000000, 1.000000000000000000, 0.000000000000000000 ) ) ;
#153 = EDGE_CURVE ( 'NONE', #191, #14, #111, .T. ) ;
#154 = AXIS2_PLACEMENT_3D ( 'NONE', #183, #152, #31 ) ;
#155 = FILL_AREA_STYLE_COLOUR ( '', #277 ) ;
#156 =( NAMED_UNIT ( * ) SI_UNIT ( $, .STERADIAN. ) SOLID_ANGLE_UNIT ( ) );
#157 = ORIENTED_EDGE ( 'NONE', *, *, #153, .F. ) ;
#158 = CARTESIAN_POINT ( 'NONE',  ( 2.143131898507868297E-16, 1.250000000000000000, 0.000000000000000000 ) ) ;
#159 = VERTEX_POINT ( 'NONE', #207 ) ;
#160 = DIMENSIONAL_EXPONENTS ( 1.000000000000000000, 0.000000000000000000, 0.000000000000000000, 0.000000000000000000, 0.000000000000000000, 0.000000000000000000, 0.000000000000000000 ) ;
#161 = AXIS2_PLACEMENT_3D ( 'NONE', #125, #13, #129 ) ;
#162 = SURFACE_STYLE_USAGE ( .BOTH. , #38 ) ;
#163 = ORIENTED_EDGE ( 'NONE', *, *, #85, .T. ) ;
#164 = ORIENTED_EDGE ( 'NONE', *, *, #80, .F. ) ;
#165 = EDGE_CURVE ( 'NONE', #63, #41, #140, .T. ) ;
#166 =( GEOMETRIC_REPRESENTATION_CONTEXT ( 3 ) GLOBAL_UNCERTAINTY_ASSIGNED_CONTEXT ( ( #353 ) ) GLOBAL_UNIT_ASSIGNED_CONTEXT ( ( #273, #325, #265 ) ) REPRESENTATION_CONTEXT ( 'NONE', 'WORKASPACE' ) );
#167 = AXIS2_PLACEMENT_3D ( 'NONE', #320, #90, #347 ) ;
#168 = CARTESIAN_POINT ( 'NONE',  ( -1.530808498934191509E-17, 0.1250000000000000000, 0.000000000000000000 ) ) ;
#169 = FILL_AREA_STYLE_COLOUR ( '', #88 ) ;
#170 = PRODUCT_DEFINITION_FORMATION_WITH_SPECIFIED_SOURCE ( 'ANY', '', #100, .NOT_KNOWN. ) ;
#171 = AXIS2_PLACEMENT_3D ( 'NONE', #179, #177, #151 ) ;
#172 = SPHERICAL_SURFACE ( 'NONE', #135, 0.1250000000000000000 ) ;
#173 = SURFACE_STYLE_USAGE ( .BOTH. , #115 ) ;
#174 = CARTESIAN_POINT ( 'NONE',  ( 1.530808498934191201E-17, 0.1250000000000000278, 0.1249999999999999584 ) ) ;
#175 = CARTESIAN_POINT ( 'NONE',  ( 0.000000000000000000, 0.000000000000000000, -0.1249999999999999167 ) ) ;
#176 =( CONVERSION_BASED_UNIT ( 'INCH', #29 ) LENGTH_UNIT ( ) NAMED_UNIT ( #187 ) );
#177 = DIRECTION ( 'NONE',  ( -0.000000000000000000, -1.000000000000000000, -0.000000000000000000 ) ) ;
#178 = DIRECTION ( 'NONE',  ( 1.000000000000000000, 0.000000000000000000, 0.000000000000000000 ) ) ;
#179 = CARTESIAN_POINT ( 'NONE',  ( 0.000000000000000000, 1.250000000000000000, 0.000000000000000000 ) ) ;
#180 = CARTESIAN_POINT ( 'NONE',  ( 0.1249999999999998751, 3.000000000000000444, 0.000000000000000000 ) ) ;
#181 = PRODUCT_DEFINITION_SHAPE ( 'NONE', 'NONE',  #249 ) ;
#182 = VECTOR ( 'NONE', #205, 39.37007874015748143 ) ;
#183 = CARTESIAN_POINT ( 'NONE',  ( 0.000000000000000000, 1.250000000000000000, 0.000000000000000000 ) ) ;
#184 = DIMENSIONAL_EXPONENTS ( 1.000000000000000000, 0.000000000000000000, 0.000000000000000000, 0.000000000000000000, 0.000000000000000000, 0.000000000000000000, 0.000000000000000000 ) ;
#185 = APPLICATION_CONTEXT ( 'automotive_design' ) ;
#186 = EDGE_LOOP ( 'NONE', ( #139, #71, #360, #194 ) ) ;
#187 = DIMENSIONAL_EXPONENTS ( 1.000000000000000000, 0.000000000000000000, 0.000000000000000000, 0.000000000000000000, 0.000000000000000000, 0.000000000000000000, 0.000000000000000000 ) ;
#188 = CARTESIAN_POINT ( 'NONE',  ( -1.530808498934191509E-17, 0.1250000000000000000, 0.000000000000000000 ) ) ;
#189 =( GEOMETRIC_REPRESENTATION_CONTEXT ( 3 ) GLOBAL_UNCERTAINTY_ASSIGNED_CONTEXT ( ( #21 ) ) GLOBAL_UNIT_ASSIGNED_CONTEXT ( ( #275, #200, #286 ) ) REPRESENTATION_CONTEXT ( 'NONE', 'WORKASPACE' ) );
#190 = CIRCLE ( 'NONE', #210, 0.1250000000000000000 ) ;
#191 = VERTEX_POINT ( 'NONE', #285 ) ;
#192 = ORIENTED_EDGE ( 'NONE', *, *, #94, .F. ) ;
#193 = LINE ( 'NONE', #306, #213 ) ;
#194 = ORIENTED_EDGE ( 'NONE', *, *, #54, .F. ) ;
#195 = AXIS2_PLACEMENT_3D ( 'NONE', #203, #201, #318 ) ;
#196 = SURFACE_STYLE_USAGE ( .BOTH. , #221 ) ;
#197 = DIRECTION ( 'NONE',  ( -1.574545884618025728E-16, 1.000000000000000000, -0.000000000000000000 ) ) ;
#198 = FILL_AREA_STYLE_COLOUR ( '', #3 ) ;
#199 = PRESENTATION_LAYER_ASSIGNMENT (  '', '', ( #105 ) ) ;
#200 =( NAMED_UNIT ( * ) PLANE_ANGLE_UNIT ( ) SI_UNIT ( $, .RADIAN. ) );
#201 = DIRECTION ( 'NONE',  ( -1.574545884618025728E-16, 1.000000000000000000, -0.000000000000000000 ) ) ;
#202 = DIRECTION ( 'NONE',  ( 1.000000000000000000, 0.000000000000000000, -1.224646799147353207E-16 ) ) ;
#203 = CARTESIAN_POINT ( 'NONE',  ( 2.143131898507868297E-16, 1.250000000000000000, 0.000000000000000000 ) ) ;
#204 = STYLED_ITEM ( 'NONE', ( #81 ), #328 ) ;
#205 = DIRECTION ( 'NONE',  ( -1.574545884618025728E-16, 1.000000000000000000, -0.000000000000000000 ) ) ;
#206 =( LENGTH_UNIT ( ) NAMED_UNIT ( * ) SI_UNIT ( $, .METRE. ) );
#207 = CARTESIAN_POINT ( 'NONE',  ( -0.1250000000000000278, 3.000000000000000444, 0.000000000000000000 ) ) ;
#208 = SURFACE_STYLE_USAGE ( .BOTH. , #67 ) ;
#209 = ORIENTED_EDGE ( 'NONE', *, *, #284, .F. ) ;
#210 = AXIS2_PLACEMENT_3D ( 'NONE', #355, #297, #106 ) ;
#211 = AXIS2_PLACEMENT_3D ( 'NONE', #287, #369, #52 ) ;
#212 = ORIENTED_EDGE ( 'NONE', *, *, #20, .T. ) ;
#213 = VECTOR ( 'NONE', #43, 39.37007874015748143 ) ;
#214 = FACE_OUTER_BOUND ( 'NONE', #240, .T. ) ;
#215 =( GEOMETRIC_REPRESENTATION_CONTEXT ( 3 ) GLOBAL_UNCERTAINTY_ASSIGNED_CONTEXT ( ( #270 ) ) GLOBAL_UNIT_ASSIGNED_CONTEXT ( ( #122, #233, #9 ) ) REPRESENTATION_CONTEXT ( 'NONE', 'WORKASPACE' ) );
#216 = EDGE_CURVE ( 'NONE', #14, #337, #59, .T. ) ;
#217 = ORIENTED_EDGE ( 'NONE', *, *, #103, .F. ) ;
#218 = DIRECTION ( 'NONE',  ( -0.000000000000000000, -1.000000000000000000, -0.000000000000000000 ) ) ;
#219 = DIRECTION ( 'NONE',  ( -1.000000000000000000, 0.000000000000000000, 0.000000000000000000 ) ) ;
#220 = CARTESIAN_POINT ( 'NONE',  ( 0.000000000000000000, 0.1250000000000000278, 0.000000000000000000 ) ) ;
#221 = SURFACE_SIDE_STYLE ('',( #44 ) ) ;
#222 = CARTESIAN_POINT ( 'NONE',  ( -6.123233995736772199E-17, 3.000000000000000444, 0.000000000000000000 ) ) ;
#223 = UNCERTAINTY_MEASURE_WITH_UNIT (LENGTH_MEASURE( 1.000000000000000082E-05 ), #341, 'distance_accuracy_value', 'NONE');
#224 =( NAMED_UNIT ( * ) SI_UNIT ( $, .STERADIAN. ) SOLID_ANGLE_UNIT ( ) );
#225 = CARTESIAN_POINT ( 'NONE',  ( -0.1250000000000000000, 0.1250000000000000278, 1.530808498934191201E-17 ) ) ;
#226 = SURFACE_STYLE_FILL_AREA ( #313 ) ;
#227 = CIRCLE ( 'NONE', #161, 0.1249999999999999445 ) ;
#228 = CARTESIAN_POINT ( 'NONE',  ( -0.1249999999999998612, 3.000000000000000444, 0.000000000000000000 ) ) ;
#229 = CIRCLE ( 'NONE', #116, 0.1249999999999999445 ) ;
#230 = DIRECTION ( 'NONE',  ( -0.000000000000000000, -1.000000000000000000, -0.000000000000000000 ) ) ;
#231 = DIRECTION ( 'NONE',  ( -1.574545884618025728E-16, 1.000000000000000000, -0.000000000000000000 ) ) ;
#232 = EDGE_CURVE ( 'NONE', #191, #63, #148, .T. ) ;
#233 =( NAMED_UNIT ( * ) PLANE_ANGLE_UNIT ( ) SI_UNIT ( $, .RADIAN. ) );
#234 = AXIS2_PLACEMENT_3D ( 'NONE', #359, #361, #35 ) ;
#235 = AXIS2_PLACEMENT_3D ( 'NONE', #188, #267, #8 ) ;
#236 = DIRECTION ( 'NONE',  ( 1.574545884618025728E-16, -1.000000000000000000, 0.000000000000000000 ) ) ;
#237 = FILL_AREA_STYLE ('',( #101 ) ) ;
#238 = ORIENTED_EDGE ( 'NONE', *, *, #336, .T. ) ;
#239 = SPHERICAL_SURFACE ( 'NONE', #235, 0.1250000000000000000 ) ;
#240 = EDGE_LOOP ( 'NONE', ( #12, #298, #104, #68 ) ) ;
#241 = CARTESIAN_POINT ( 'NONE',  ( -0.1249999999999994171, 1.250000000000000000, 0.000000000000000000 ) ) ;
#242 = ORIENTED_EDGE ( 'NONE', *, *, #216, .T. ) ;
#243 =( LENGTH_UNIT ( ) NAMED_UNIT ( * ) SI_UNIT ( $, .METRE. ) );
#244 = PRESENTATION_LAYER_ASSIGNMENT (  '', '', ( #311 ) ) ;
#245 =( GEOMETRIC_REPRESENTATION_CONTEXT ( 3 ) GLOBAL_UNCERTAINTY_ASSIGNED_CONTEXT ( ( #299 ) ) GLOBAL_UNIT_ASSIGNED_CONTEXT ( ( #176, #117, #156 ) ) REPRESENTATION_CONTEXT ( 'NONE', 'WORKASPACE' ) );
#246 = CARTESIAN_POINT ( 'NONE',  ( 0.000000000000000000, 0.000000000000000000, 0.000000000000000000 ) ) ;
#247 = ORIENTED_EDGE ( 'NONE', *, *, #153, .T. ) ;
#248 = DIRECTION ( 'NONE',  ( -0.000000000000000000, -1.000000000000000000, -0.000000000000000000 ) ) ;
#249 = PRODUCT_DEFINITION ( 'UNKNOWN', '', #170, #91 ) ;
#250 = STYLED_ITEM ( 'NONE', ( #262 ), #254 ) ;
#251 = CARTESIAN_POINT ( 'NONE',  ( 0.000000000000000000, 1.250000000000000000, -0.1249999999999998473 ) ) ;
#252 =( LENGTH_UNIT ( ) NAMED_UNIT ( * ) SI_UNIT ( $, .METRE. ) );
#253 = SURFACE_STYLE_FILL_AREA ( #24 ) ;
#254 = ADVANCED_FACE ( 'NONE', ( #290 ), #4, .T. ) ;
#255 = DIRECTION ( 'NONE',  ( -1.000000000000000000, 0.000000000000000000, 0.000000000000000000 ) ) ;
#256 = PRESENTATION_STYLE_ASSIGNMENT (( #258 ) ) ;
#257 = CIRCLE ( 'NONE', #97, 0.1250000000000000000 ) ;
#258 = SURFACE_STYLE_USAGE ( .BOTH. , #368 ) ;
#259 = DIRECTION ( 'NONE',  ( 1.224646799147353207E-16, -0.000000000000000000, 1.000000000000000000 ) ) ;
#260 = LENGTH_MEASURE_WITH_UNIT ( LENGTH_MEASURE( 0.02539999999999999897 ), #206 );
#261 = SHAPE_DEFINITION_REPRESENTATION ( #181, #310 ) ;
#262 = PRESENTATION_STYLE_ASSIGNMENT (( #314 ) ) ;
#263 = AXIS2_PLACEMENT_3D ( 'NONE', #158, #349, #126 ) ;
#264 = AXIS2_PLACEMENT_3D ( 'NONE', #180, #236, #34 ) ;
#265 =( NAMED_UNIT ( * ) SI_UNIT ( $, .STERADIAN. ) SOLID_ANGLE_UNIT ( ) );
#266 = VERTEX_POINT ( 'NONE', #241 ) ;
#267 = DIRECTION ( 'NONE',  ( 0.000000000000000000, 0.000000000000000000, 1.000000000000000000 ) ) ;
#268 = VERTEX_POINT ( 'NONE', #73 ) ;
#269 =( GEOMETRIC_REPRESENTATION_CONTEXT ( 3 ) GLOBAL_UNCERTAINTY_ASSIGNED_CONTEXT ( ( #223 ) ) GLOBAL_UNIT_ASSIGNED_CONTEXT ( ( #341, #312, #146 ) ) REPRESENTATION_CONTEXT ( 'NONE', 'WORKASPACE' ) );
#270 = UNCERTAINTY_MEASURE_WITH_UNIT (LENGTH_MEASURE( 1.000000000000000082E-05 ), #122, 'distance_accuracy_value', 'NONE');
#271 = PRESENTATION_STYLE_ASSIGNMENT (( #162 ) ) ;
#272 = ORIENTED_EDGE ( 'NONE', *, *, #165, .F. ) ;
#273 =( CONVERSION_BASED_UNIT ( 'INCH', #62 ) LENGTH_UNIT ( ) NAMED_UNIT ( #305 ) );
#274 = DIMENSIONAL_EXPONENTS ( 1.000000000000000000, 0.000000000000000000, 0.000000000000000000, 0.000000000000000000, 0.000000000000000000, 0.000000000000000000, 0.000000000000000000 ) ;
#275 =( CONVERSION_BASED_UNIT ( 'INCH', #108 ) LENGTH_UNIT ( ) NAMED_UNIT ( #160 ) );
#276 = ORIENTED_EDGE ( 'NONE', *, *, #124, .F. ) ;
#277 = COLOUR_RGB ( '',1.000000000000000000, 0.000000000000000000, 0.000000000000000000 ) ;
#278 =( LENGTH_UNIT ( ) NAMED_UNIT ( * ) SI_UNIT ( $, .METRE. ) );
#279 =( NAMED_UNIT ( * ) PLANE_ANGLE_UNIT ( ) SI_UNIT ( $, .RADIAN. ) );
#280 = UNCERTAINTY_MEASURE_WITH_UNIT (LENGTH_MEASURE( 1.000000000000000082E-05 ), #354, 'distance_accuracy_value', 'NONE');
#281 = AXIS2_PLACEMENT_3D ( 'NONE', #222, #340, #282 ) ;
#282 = DIRECTION ( 'NONE',  ( -1.000000000000000000, 0.000000000000000000, 0.000000000000000000 ) ) ;
#283 = STYLED_ITEM ( 'NONE', ( #271 ), #327 ) ;
#284 = EDGE_CURVE ( 'NONE', #76, #136, #190, .T. ) ;
#285 = CARTESIAN_POINT ( 'NONE',  ( 1.530808498934189968E-17, 1.250000000000000000, 0.1249999999999998473 ) ) ;
#286 =( NAMED_UNIT ( * ) SI_UNIT ( $, .STERADIAN. ) SOLID_ANGLE_UNIT ( ) );
#287 = CARTESIAN_POINT ( 'NONE',  ( 2.143131898507868297E-16, 1.250000000000000000, 0.000000000000000000 ) ) ;
#288 = PLANE ( 'NONE',  #264 ) ;
#289 = PRODUCT_CONTEXT ( 'NONE', #185, 'mechanical' ) ;
#290 = FACE_OUTER_BOUND ( 'NONE', #107, .T. ) ;
#291 =( NAMED_UNIT ( * ) SI_UNIT ( $, .STERADIAN. ) SOLID_ANGLE_UNIT ( ) );
#292 = PRESENTATION_LAYER_ASSIGNMENT (  '', '', ( #283 ) ) ;
#293 = DIMENSIONAL_EXPONENTS ( 1.000000000000000000, 0.000000000000000000, 0.000000000000000000, 0.000000000000000000, 0.000000000000000000, 0.000000000000000000, 0.000000000000000000 ) ;
#294 = CLOSED_SHELL ( 'NONE', ( #15, #254, #364, #329, #296 ) ) ;
#295 = FACE_OUTER_BOUND ( 'NONE', #326, .T. ) ;
#296 = ADVANCED_FACE ( 'NONE', ( #214 ), #239, .T. ) ;
#297 = DIRECTION ( 'NONE',  ( 0.000000000000000000, 0.000000000000000000, -1.000000000000000000 ) ) ;
#298 = ORIENTED_EDGE ( 'NONE', *, *, #65, .T. ) ;
#299 = UNCERTAINTY_MEASURE_WITH_UNIT (LENGTH_MEASURE( 1.000000000000000082E-05 ), #176, 'distance_accuracy_value', 'NONE');
#300 = ORIENTED_EDGE ( 'NONE', *, *, #321, .F. ) ;
#301 = STYLED_ITEM ( 'NONE', ( #309 ), #15 ) ;
#302 = CLOSED_SHELL ( 'NONE', ( #42, #350, #26, #373 ) ) ;
#303 = ORIENTED_EDGE ( 'NONE', *, *, #232, .F. ) ;
#304 = UNCERTAINTY_MEASURE_WITH_UNIT (LENGTH_MEASURE( 1.000000000000000082E-05 ), #25, 'distance_accuracy_value', 'NONE');
#305 = DIMENSIONAL_EXPONENTS ( 1.000000000000000000, 0.000000000000000000, 0.000000000000000000, 0.000000000000000000, 0.000000000000000000, 0.000000000000000000, 0.000000000000000000 ) ;
#306 = CARTESIAN_POINT ( 'NONE',  ( 0.1249999999999997224, 3.000000000000000444, 1.530808498934189044E-17 ) ) ;
#307 = AXIS2_PLACEMENT_3D ( 'NONE', #220, #308, #335 ) ;
#308 = DIRECTION ( 'NONE',  ( -0.000000000000000000, -1.000000000000000000, -0.000000000000000000 ) ) ;
#309 = PRESENTATION_STYLE_ASSIGNMENT (( #196 ) ) ;
#310 = ADVANCED_BREP_SHAPE_REPRESENTATION ( '83286', ( #327, #328, #346 ), #245 ) ;
#311 = STYLED_ITEM ( 'NONE', ( #64 ), #364 ) ;
#312 =( NAMED_UNIT ( * ) PLANE_ANGLE_UNIT ( ) SI_UNIT ( $, .RADIAN. ) );
#313 = FILL_AREA_STYLE ('',( #198 ) ) ;
#314 = SURFACE_STYLE_USAGE ( .BOTH. , #1 ) ;
#315 = AXIS2_PLACEMENT_3D ( 'NONE', #372, #57, #55 ) ;
#316 = FILL_AREA_STYLE_COLOUR ( '', #348 ) ;
#317 = CARTESIAN_POINT ( 'NONE',  ( 0.000000000000000000, 0.000000000000000000, 0.000000000000000000 ) ) ;
#318 = DIRECTION ( 'NONE',  ( -1.000000000000000000, 0.000000000000000000, 0.000000000000000000 ) ) ;
#319 = FACE_OUTER_BOUND ( 'NONE', #66, .T. ) ;
#320 = CARTESIAN_POINT ( 'NONE',  ( 0.000000000000000000, 0.1250000000000000278, 0.000000000000000000 ) ) ;
#321 = EDGE_CURVE ( 'NONE', #159, #333, #227, .T. ) ;
#322 = DIMENSIONAL_EXPONENTS ( 1.000000000000000000, 0.000000000000000000, 0.000000000000000000, 0.000000000000000000, 0.000000000000000000, 0.000000000000000000, 0.000000000000000000 ) ;
#323 = PRESENTATION_LAYER_ASSIGNMENT (  '', '', ( #204 ) ) ;
#324 = CIRCLE ( 'NONE', #167, 0.1249999999999999861 ) ;
#325 =( NAMED_UNIT ( * ) PLANE_ANGLE_UNIT ( ) SI_UNIT ( $, .RADIAN. ) );
#326 = EDGE_LOOP ( 'NONE', ( #39, #95 ) ) ;
#327 = MANIFOLD_SOLID_BREP ( 'Revolve - Cutting Edge', #294 ) ;
#328 = MANIFOLD_SOLID_BREP ( 'Revolve - Tool Body (Straight Shanked)', #302 ) ;
#329 = ADVANCED_FACE ( 'NONE', ( #47 ), #37, .T. ) ;
#330 = PRESENTATION_STYLE_ASSIGNMENT (( #208 ) ) ;
#331 = EDGE_LOOP ( 'NONE', ( #128, #238, #300, #276 ) ) ;
#332 = MECHANICAL_DESIGN_GEOMETRIC_PRESENTATION_REPRESENTATION (  '', ( #283 ), #269 ) ;
#333 = VERTEX_POINT ( 'NONE', #74 ) ;
#334 = DIRECTION ( 'NONE',  ( 0.000000000000000000, 0.000000000000000000, -1.000000000000000000 ) ) ;
#335 = DIRECTION ( 'NONE',  ( 0.000000000000000000, 0.000000000000000000, -1.000000000000000000 ) ) ;
#336 = EDGE_CURVE ( 'NONE', #268, #333, #193, .T. ) ;
#337 = VERTEX_POINT ( 'NONE', #365 ) ;
#338 = MECHANICAL_DESIGN_GEOMETRIC_PRESENTATION_REPRESENTATION (  '', ( #301 ), #363 ) ;
#339 =( NAMED_UNIT ( * ) SI_UNIT ( $, .STERADIAN. ) SOLID_ANGLE_UNIT ( ) );
#340 = DIRECTION ( 'NONE',  ( -1.574545884618025728E-16, 1.000000000000000000, -0.000000000000000000 ) ) ;
#341 =( CONVERSION_BASED_UNIT ( 'INCH', #40 ) LENGTH_UNIT ( ) NAMED_UNIT ( #130 ) );
#342 = PRESENTATION_LAYER_ASSIGNMENT (  '', '', ( #250 ) ) ;
#343 = DIRECTION ( 'NONE',  ( -0.000000000000000000, -1.000000000000000000, -0.000000000000000000 ) ) ;
#344 = FILL_AREA_STYLE ('',( #316 ) ) ;
#345 = APPLICATION_PROTOCOL_DEFINITION ( 'draft international standard', 'automotive_design', 1998, #185 ) ;
#346 = AXIS2_PLACEMENT_3D ( 'NONE', #317, #56, #178 ) ;
#347 = DIRECTION ( 'NONE',  ( 0.000000000000000000, 0.000000000000000000, -1.000000000000000000 ) ) ;
#348 = COLOUR_RGB ( '',1.000000000000000000, 0.000000000000000000, 0.000000000000000000 ) ;
#349 = DIRECTION ( 'NONE',  ( -1.574545884618025728E-16, 1.000000000000000000, 0.000000000000000000 ) ) ;
#350 = ADVANCED_FACE ( 'NONE', ( #109 ), #92, .F. ) ;
#351 = CARTESIAN_POINT ( 'NONE',  ( -6.123233995736772199E-17, 3.000000000000000444, 0.000000000000000000 ) ) ;
#352 = FILL_AREA_STYLE ('',( #155 ) ) ;
#353 = UNCERTAINTY_MEASURE_WITH_UNIT (LENGTH_MEASURE( 1.000000000000000082E-05 ), #273, 'distance_accuracy_value', 'NONE');
#354 =( CONVERSION_BASED_UNIT ( 'INCH', #260 ) LENGTH_UNIT ( ) NAMED_UNIT ( #184 ) );
#355 = CARTESIAN_POINT ( 'NONE',  ( -1.530808498934191509E-17, 0.1250000000000000000, 0.000000000000000000 ) ) ;
#356 = EDGE_LOOP ( 'NONE', ( #303, #247, #242, #16, #272 ) ) ;
#357 = PRESENTATION_LAYER_ASSIGNMENT (  '', '', ( #301 ) ) ;
#358 = SURFACE_STYLE_FILL_AREA ( #58 ) ;
#359 = CARTESIAN_POINT ( 'NONE',  ( 0.000000000000000000, 0.000000000000000000, 0.000000000000000000 ) ) ;
#360 = ORIENTED_EDGE ( 'NONE', *, *, #124, .T. ) ;
#361 = DIRECTION ( 'NONE',  ( -0.000000000000000000, -1.000000000000000000, -0.000000000000000000 ) ) ;
#362 = CIRCLE ( 'NONE', #315, 0.1249999999999999861 ) ;
#363 =( GEOMETRIC_REPRESENTATION_CONTEXT ( 3 ) GLOBAL_UNCERTAINTY_ASSIGNED_CONTEXT ( ( #7 ) ) GLOBAL_UNIT_ASSIGNED_CONTEXT ( ( #367, #279, #339 ) ) REPRESENTATION_CONTEXT ( 'NONE', 'WORKASPACE' ) );
#364 = ADVANCED_FACE ( 'NONE', ( #319 ), #123, .T. ) ;
#365 = CARTESIAN_POINT ( 'NONE',  ( 0.000000000000000000, 0.1250000000000000278, -0.1249999999999999861 ) ) ;
#366 = AXIS2_PLACEMENT_3D ( 'NONE', #2, #230, #27 ) ;
#367 =( CONVERSION_BASED_UNIT ( 'INCH', #77 ) LENGTH_UNIT ( ) NAMED_UNIT ( #322 ) );
#368 = SURFACE_SIDE_STYLE ('',( #253 ) ) ;
#369 = DIRECTION ( 'NONE',  ( -1.574545884618025728E-16, 1.000000000000000000, -0.000000000000000000 ) ) ;
#370 = MECHANICAL_DESIGN_GEOMETRIC_PRESENTATION_REPRESENTATION (  '', ( #204 ), #61 ) ;
#371 = CIRCLE ( 'NONE', #211, 0.1249999999999996392 ) ;
#372 = CARTESIAN_POINT ( 'NONE',  ( 0.000000000000000000, 0.1250000000000000278, 0.000000000000000000 ) ) ;
#373 = ADVANCED_FACE ( 'NONE', ( #295 ), #288, .F. ) ;
ENDSEC;
END-ISO-10303-21;
