ISO-10303-21;
HEADER;
FILE_DESCRIPTION (( 'STEP AP214' ),
    '1' );
FILE_NAME ('Micro_RSCM-050-2X.STEP',
    '2021-09-03T17:57:48',
    ( '' ),
    ( '' ),
    'SwSTEP 2.0',
    'SolidWorks 2020',
    '' );
FILE_SCHEMA (( 'AUTOMOTIVE_DESIGN' ));
ENDSEC;

DATA;
#1 = ORIENTED_EDGE ( 'NONE', *, *, #198, .F. ) ;
#2 = ADVANCED_FACE ( 'NONE', ( #235 ), #217, .T. ) ;
#3 = CARTESIAN_POINT ( 'NONE',  ( 0.0000000000000000000, 0.0000000000000000000, 0.0000000000000000000 ) ) ;
#4 = CARTESIAN_POINT ( 'NONE',  ( 0.0000000000000000000, 0.0000000000000000000, 0.0000000000000000000 ) ) ;
#5 = CARTESIAN_POINT ( 'NONE',  ( 0.0000000000000000000, 0.0000000000000000000, 1.968503999999999809 ) ) ;
#6 = MANIFOLD_SOLID_BREP ( 'Mirror1', #207 ) ;
#7 = LINE ( 'NONE', #71, #131 ) ;
#8 = MECHANICAL_DESIGN_GEOMETRIC_PRESENTATION_REPRESENTATION (  '', ( #189 ), #56 ) ;
#9 =( LENGTH_UNIT ( ) NAMED_UNIT ( * ) SI_UNIT ( $, .METRE. ) );
#10 = LINE ( 'NONE', #219, #145 ) ;
#11 = CARTESIAN_POINT ( 'NONE',  ( 0.0000000000000000000, 0.0000000000000000000, 1.968503999999999809 ) ) ;
#12 = CIRCLE ( 'NONE', #100, 0.003936999999999995191 ) ;
#13 = UNCERTAINTY_MEASURE_WITH_UNIT (LENGTH_MEASURE( 1.000000000000000082E-05 ), #232, 'distance_accuracy_value', 'NONE');
#14 = DIRECTION ( 'NONE',  ( -1.000000000000000000, 0.0000000000000000000, 0.0000000000000000000 ) ) ;
#15 = VECTOR ( 'NONE', #154, 39.37007874015748854 ) ;
#16 = PRODUCT_DEFINITION ( 'UNKNOWN', '', #103, #92 ) ;
#17 = EDGE_LOOP ( 'NONE', ( #37, #117 ) ) ;
#18 = ORIENTED_EDGE ( 'NONE', *, *, #105, .F. ) ;
#19 = DIRECTION ( 'NONE',  ( -0.0000000000000000000, -0.0000000000000000000, -1.000000000000000000 ) ) ;
#20 =( NAMED_UNIT ( * ) PLANE_ANGLE_UNIT ( ) SI_UNIT ( $, .RADIAN. ) );
#21 = AXIS2_PLACEMENT_3D ( 'NONE', #118, #86, #242 ) ;
#22 = EDGE_LOOP ( 'NONE', ( #167, #202, #89, #224 ) ) ;
#23 = EDGE_CURVE ( 'NONE', #166, #45, #236, .T. ) ;
#24 = DIRECTION ( 'NONE',  ( -1.000000000000000000, 0.0000000000000000000, 0.0000000000000000000 ) ) ;
#25 = SURFACE_STYLE_USAGE ( .BOTH. , #213 ) ;
#26 = AXIS2_PLACEMENT_3D ( 'NONE', #5, #96, #210 ) ;
#27 = VECTOR ( 'NONE', #120, 39.37007874015748143 ) ;
#28 = CYLINDRICAL_SURFACE ( 'NONE', #33, 0.09842500000000001248 ) ;
#29 = AXIS2_PLACEMENT_3D ( 'NONE', #47, #197, #68 ) ;
#30 = DIRECTION ( 'NONE',  ( 0.0000000000000000000, 0.0000000000000000000, -1.000000000000000000 ) ) ;
#31 = DIMENSIONAL_EXPONENTS ( 1.000000000000000000, 0.0000000000000000000, 0.0000000000000000000, 0.0000000000000000000, 0.0000000000000000000, 0.0000000000000000000, 0.0000000000000000000 ) ;
#32 = DIRECTION ( 'NONE',  ( 1.000000000000000000, 0.0000000000000000000, -0.0000000000000000000 ) ) ;
#33 = AXIS2_PLACEMENT_3D ( 'NONE', #11, #199, #83 ) ;
#34 = CARTESIAN_POINT ( 'NONE',  ( 0.09842500000000001248, 1.205358612060782468E-17, 0.1636580167055674828 ) ) ;
#35 = ORIENTED_EDGE ( 'NONE', *, *, #243, .T. ) ;
#36 = ORIENTED_EDGE ( 'NONE', *, *, #181, .F. ) ;
#37 = ORIENTED_EDGE ( 'NONE', *, *, #23, .T. ) ;
#38 = EDGE_LOOP ( 'NONE', ( #35, #74, #36, #102 ) ) ;
#39 = ADVANCED_FACE ( 'NONE', ( #132 ), #208, .T. ) ;
#40 = CIRCLE ( 'NONE', #221, 0.003936999999999995191 ) ;
#41 = FACE_OUTER_BOUND ( 'NONE', #112, .T. ) ;
#42 = DIRECTION ( 'NONE',  ( 0.0000000000000000000, 0.0000000000000000000, -1.000000000000000000 ) ) ;
#43 = SURFACE_STYLE_USAGE ( .BOTH. , #134 ) ;
#44 = DIRECTION ( 'NONE',  ( -0.0000000000000000000, -0.0000000000000000000, -1.000000000000000000 ) ) ;
#45 = VERTEX_POINT ( 'NONE', #156 ) ;
#46 = CARTESIAN_POINT ( 'NONE',  ( 0.0000000000000000000, 0.0000000000000000000, 1.968503999999999809 ) ) ;
#47 = CARTESIAN_POINT ( 'NONE',  ( 0.0000000000000000000, 0.0000000000000000000, 1.804845983294432576 ) ) ;
#48 = VECTOR ( 'NONE', #49, 39.37007874015748854 ) ;
#49 = DIRECTION ( 'NONE',  ( -0.5000000000000013323, 6.123233995736782060E-17, 0.8660254037844377084 ) ) ;
#50 = CARTESIAN_POINT ( 'NONE',  ( 0.0000000000000000000, 0.0000000000000000000, 1.968503999999999809 ) ) ;
#51 = DIRECTION ( 'NONE',  ( 1.000000000000000000, 0.0000000000000000000, -0.0000000000000000000 ) ) ;
#52 = ADVANCED_FACE ( 'NONE', ( #41 ), #152, .T. ) ;
#53 = DIRECTION ( 'NONE',  ( -1.000000000000000000, 0.0000000000000000000, 0.0000000000000000000 ) ) ;
#54 = EDGE_LOOP ( 'NONE', ( #129, #148, #164, #1 ) ) ;
#55 = VERTEX_POINT ( 'NONE', #138 ) ;
#56 =( GEOMETRIC_REPRESENTATION_CONTEXT ( 3 ) GLOBAL_UNCERTAINTY_ASSIGNED_CONTEXT ( ( #13 ) ) GLOBAL_UNIT_ASSIGNED_CONTEXT ( ( #232, #20, #234 ) ) REPRESENTATION_CONTEXT ( 'NONE', 'WORKASPACE' ) );
#57 = PRODUCT_RELATED_PRODUCT_CATEGORY ( 'part', '', ( #203 ) ) ;
#58 = FILL_AREA_STYLE ('',( #78 ) ) ;
#59 = AXIS2_PLACEMENT_3D ( 'NONE', #122, #177, #51 ) ;
#60 = DIRECTION ( 'NONE',  ( 1.000000000000000000, 0.0000000000000000000, 0.0000000000000000000 ) ) ;
#61 = CARTESIAN_POINT ( 'NONE',  ( 0.0000000000000000000, 0.0000000000000000000, 0.0000000000000000000 ) ) ;
#62 = ORIENTED_EDGE ( 'NONE', *, *, #187, .T. ) ;
#63 = DIRECTION ( 'NONE',  ( 0.0000000000000000000, 0.0000000000000000000, 1.000000000000000000 ) ) ;
#64 = ADVANCED_FACE ( 'NONE', ( #77 ), #225, .T. ) ;
#65 = DIRECTION ( 'NONE',  ( 1.000000000000000000, 0.0000000000000000000, 0.0000000000000000000 ) ) ;
#66 = DIRECTION ( 'NONE',  ( 0.5000000000000013323, 0.0000000000000000000, 0.8660254037844377084 ) ) ;
#67 = COLOUR_RGB ( '',0.7921568627450980005, 0.8196078431372548767, 0.9333333333333333481 ) ;
#68 = DIRECTION ( 'NONE',  ( -1.000000000000000000, 0.0000000000000000000, 0.0000000000000000000 ) ) ;
#69 = CARTESIAN_POINT ( 'NONE',  ( -0.003936999999999995191, -6.267864782716066490E-18, 1.968503999999999809 ) ) ;
#70 = EDGE_CURVE ( 'NONE', #165, #91, #75, .T. ) ;
#71 = CARTESIAN_POINT ( 'NONE',  ( 0.003936999999999995191, 0.0000000000000000000, 0.0000000000000000000 ) ) ;
#72 = CIRCLE ( 'NONE', #162, 0.09842500000000001248 ) ;
#73 = ORIENTED_EDGE ( 'NONE', *, *, #198, .T. ) ;
#74 = ORIENTED_EDGE ( 'NONE', *, *, #124, .T. ) ;
#75 = LINE ( 'NONE', #93, #15 ) ;
#76 = DIRECTION ( 'NONE',  ( -0.0000000000000000000, -0.0000000000000000000, -1.000000000000000000 ) ) ;
#77 = FACE_OUTER_BOUND ( 'NONE', #104, .T. ) ;
#78 = FILL_AREA_STYLE_COLOUR ( '', #67 ) ;
#79 = FILL_AREA_STYLE ('',( #244 ) ) ;
#80 = APPLICATION_PROTOCOL_DEFINITION ( 'draft international standard', 'automotive_design', 1998, #204 ) ;
#81 = AXIS2_PLACEMENT_3D ( 'NONE', #185, #42, #65 ) ;
#82 = DIRECTION ( 'NONE',  ( -0.0000000000000000000, -0.0000000000000000000, -1.000000000000000000 ) ) ;
#83 = DIRECTION ( 'NONE',  ( -1.000000000000000000, 0.0000000000000000000, 0.0000000000000000000 ) ) ;
#84 = PRESENTATION_LAYER_ASSIGNMENT (  '', '', ( #189 ) ) ;
#85 = CARTESIAN_POINT ( 'NONE',  ( 0.0000000000000000000, 0.0000000000000000000, 1.968503999999999809 ) ) ;
#86 = DIRECTION ( 'NONE',  ( 0.0000000000000000000, 0.0000000000000000000, 1.000000000000000000 ) ) ;
#87 = APPLICATION_PROTOCOL_DEFINITION ( 'draft international standard', 'automotive_design', 1998, #190 ) ;
#88 = AXIS2_PLACEMENT_3D ( 'NONE', #241, #125, #193 ) ;
#89 = ORIENTED_EDGE ( 'NONE', *, *, #105, .T. ) ;
#90 = EDGE_LOOP ( 'NONE', ( #188, #94, #106, #107 ) ) ;
#91 = VERTEX_POINT ( 'NONE', #169 ) ;
#92 = PRODUCT_DEFINITION_CONTEXT ( 'detailed design', #204, 'design' ) ;
#93 = CARTESIAN_POINT ( 'NONE',  ( -0.003936999999999995191, -4.821434448243123477E-19, 1.968503999999999809 ) ) ;
#94 = ORIENTED_EDGE ( 'NONE', *, *, #143, .T. ) ;
#95 = EDGE_CURVE ( 'NONE', #45, #166, #40, .T. ) ;
#96 = DIRECTION ( 'NONE',  ( 0.0000000000000000000, 0.0000000000000000000, -1.000000000000000000 ) ) ;
#97 = AXIS2_PLACEMENT_3D ( 'NONE', #3, #192, #60 ) ;
#98 = CARTESIAN_POINT ( 'NONE',  ( 0.0000000000000000000, 0.0000000000000000000, 0.1636580167055674828 ) ) ;
#99 = ADVANCED_FACE ( 'NONE', ( #229 ), #110, .T. ) ;
#100 = AXIS2_PLACEMENT_3D ( 'NONE', #50, #30, #160 ) ;
#101 = CARTESIAN_POINT ( 'NONE',  ( 0.09842500000000001248, 1.205358612060782468E-17, 1.968503999999999809 ) ) ;
#102 = ORIENTED_EDGE ( 'NONE', *, *, #155, .F. ) ;
#103 = PRODUCT_DEFINITION_FORMATION_WITH_SPECIFIED_SOURCE ( 'ANY', '', #203, .NOT_KNOWN. ) ;
#104 = EDGE_LOOP ( 'NONE', ( #248, #226, #73, #62 ) ) ;
#105 = EDGE_CURVE ( 'NONE', #55, #206, #10, .T. ) ;
#106 = ORIENTED_EDGE ( 'NONE', *, *, #155, .T. ) ;
#107 = ORIENTED_EDGE ( 'NONE', *, *, #187, .F. ) ;
#108 =( GEOMETRIC_REPRESENTATION_CONTEXT ( 3 ) GLOBAL_UNCERTAINTY_ASSIGNED_CONTEXT ( ( #223 ) ) GLOBAL_UNIT_ASSIGNED_CONTEXT ( ( #216, #142, #146 ) ) REPRESENTATION_CONTEXT ( 'NONE', 'WORKASPACE' ) );
#109 = ADVANCED_FACE ( 'NONE', ( #220 ), #201, .F. ) ;
#110 = PLANE ( 'NONE',  #179 ) ;
#111 = PRODUCT_CONTEXT ( 'NONE', #190, 'mechanical' ) ;
#112 = EDGE_LOOP ( 'NONE', ( #182, #150, #147, #18 ) ) ;
#113 = SHAPE_DEFINITION_REPRESENTATION ( #215, #123 ) ;
#114 = AXIS2_PLACEMENT_3D ( 'NONE', #61, #63, #209 ) ;
#115 = LENGTH_MEASURE_WITH_UNIT ( LENGTH_MEASURE( 0.02539999999999999897 ), #133 );
#116 = EDGE_CURVE ( 'NONE', #165, #55, #12, .T. ) ;
#117 = ORIENTED_EDGE ( 'NONE', *, *, #95, .T. ) ;
#118 = CARTESIAN_POINT ( 'NONE',  ( 0.0000000000000000000, 0.0000000000000000000, 0.0000000000000000000 ) ) ;
#119 = AXIS2_PLACEMENT_3D ( 'NONE', #85, #139, #239 ) ;
#120 = DIRECTION ( 'NONE',  ( -0.0000000000000000000, -0.0000000000000000000, -1.000000000000000000 ) ) ;
#121 = LINE ( 'NONE', #101, #27 ) ;
#122 = CARTESIAN_POINT ( 'NONE',  ( 0.0000000000000000000, 0.0000000000000000000, 0.0000000000000000000 ) ) ;
#123 = ADVANCED_BREP_SHAPE_REPRESENTATION ( 'Micro_RSCM-050-2X', ( #6, #114 ), #108 ) ;
#124 = EDGE_CURVE ( 'NONE', #206, #128, #121, .T. ) ;
#125 = DIRECTION ( 'NONE',  ( 0.0000000000000000000, 0.0000000000000000000, -1.000000000000000000 ) ) ;
#126 = ORIENTED_EDGE ( 'NONE', *, *, #116, .F. ) ;
#127 = COLOUR_RGB ( '',0.7921568627450980005, 0.8196078431372548767, 0.9333333333333333481 ) ;
#128 = VERTEX_POINT ( 'NONE', #34 ) ;
#129 = ORIENTED_EDGE ( 'NONE', *, *, #95, .F. ) ;
#130 = CARTESIAN_POINT ( 'NONE',  ( 0.0000000000000000000, 0.0000000000000000000, 0.0000000000000000000 ) ) ;
#131 = VECTOR ( 'NONE', #66, 39.37007874015748854 ) ;
#132 = FACE_OUTER_BOUND ( 'NONE', #38, .T. ) ;
#133 =( LENGTH_UNIT ( ) NAMED_UNIT ( * ) SI_UNIT ( $, .METRE. ) );
#134 = SURFACE_SIDE_STYLE ('',( #136 ) ) ;
#135 = DIRECTION ( 'NONE',  ( -1.000000000000000000, 0.0000000000000000000, 0.0000000000000000000 ) ) ;
#136 = SURFACE_STYLE_FILL_AREA ( #79 ) ;
#137 = CIRCLE ( 'NONE', #88, 0.09842500000000001248 ) ;
#138 = CARTESIAN_POINT ( 'NONE',  ( 0.003936999999999995191, 0.0000000000000000000, 1.968503999999999809 ) ) ;
#139 = DIRECTION ( 'NONE',  ( 0.0000000000000000000, 0.0000000000000000000, -1.000000000000000000 ) ) ;
#140 = STYLED_ITEM ( 'NONE', ( #186 ), #6 ) ;
#141 = LINE ( 'NONE', #158, #149 ) ;
#142 =( NAMED_UNIT ( * ) PLANE_ANGLE_UNIT ( ) SI_UNIT ( $, .RADIAN. ) );
#143 = EDGE_CURVE ( 'NONE', #206, #91, #137, .T. ) ;
#144 = CARTESIAN_POINT ( 'NONE',  ( -0.003936999999999995191, 4.821434448243123477E-19, 0.0000000000000000000 ) ) ;
#145 = VECTOR ( 'NONE', #161, 39.37007874015748854 ) ;
#146 =( NAMED_UNIT ( * ) SI_UNIT ( $, .STERADIAN. ) SOLID_ANGLE_UNIT ( ) );
#147 = ORIENTED_EDGE ( 'NONE', *, *, #143, .F. ) ;
#148 = ORIENTED_EDGE ( 'NONE', *, *, #172, .T. ) ;
#149 = VECTOR ( 'NONE', #82, 39.37007874015748143 ) ;
#150 = ORIENTED_EDGE ( 'NONE', *, *, #70, .T. ) ;
#151 = DIRECTION ( 'NONE',  ( -1.000000000000000000, 0.0000000000000000000, 0.0000000000000000000 ) ) ;
#152 = CONICAL_SURFACE ( 'NONE', #81, 0.003936999999999995191, 0.5235987755983005920 ) ;
#153 = PRESENTATION_STYLE_ASSIGNMENT (( #43 ) ) ;
#154 = DIRECTION ( 'NONE',  ( -0.5000000000000013323, -6.123233995736782060E-17, -0.8660254037844377084 ) ) ;
#155 = EDGE_CURVE ( 'NONE', #91, #173, #141, .T. ) ;
#156 = CARTESIAN_POINT ( 'NONE',  ( -0.003936999999999995191, 6.267864782716068801E-18, 0.0000000000000000000 ) ) ;
#157 = CARTESIAN_POINT ( 'NONE',  ( 0.003936999999999995191, 0.0000000000000000000, 0.0000000000000000000 ) ) ;
#158 = CARTESIAN_POINT ( 'NONE',  ( -0.09842500000000001248, 0.0000000000000000000, 1.968503999999999809 ) ) ;
#159 = FACE_OUTER_BOUND ( 'NONE', #90, .T. ) ;
#160 = DIRECTION ( 'NONE',  ( -1.000000000000000000, 0.0000000000000000000, 0.0000000000000000000 ) ) ;
#161 = DIRECTION ( 'NONE',  ( 0.5000000000000013323, 0.0000000000000000000, -0.8660254037844377084 ) ) ;
#162 = AXIS2_PLACEMENT_3D ( 'NONE', #98, #180, #14 ) ;
#163 = CIRCLE ( 'NONE', #29, 0.09842500000000001248 ) ;
#164 = ORIENTED_EDGE ( 'NONE', *, *, #181, .T. ) ;
#165 = VERTEX_POINT ( 'NONE', #69 ) ;
#166 = VERTEX_POINT ( 'NONE', #157 ) ;
#167 = ORIENTED_EDGE ( 'NONE', *, *, #70, .F. ) ;
#168 =( LENGTH_UNIT ( ) NAMED_UNIT ( * ) SI_UNIT ( $, .METRE. ) );
#169 = CARTESIAN_POINT ( 'NONE',  ( -0.09842500000000001248, 0.0000000000000000000, 1.804845983294432576 ) ) ;
#170 =( GEOMETRIC_REPRESENTATION_CONTEXT ( 3 ) GLOBAL_UNCERTAINTY_ASSIGNED_CONTEXT ( ( #249 ) ) GLOBAL_UNIT_ASSIGNED_CONTEXT ( ( #211, #191, #174 ) ) REPRESENTATION_CONTEXT ( 'NONE', 'WORKASPACE' ) );
#171 = CARTESIAN_POINT ( 'NONE',  ( 0.0000000000000000000, 0.0000000000000000000, 1.968503999999999809 ) ) ;
#172 = EDGE_CURVE ( 'NONE', #45, #173, #238, .T. ) ;
#173 = VERTEX_POINT ( 'NONE', #178 ) ;
#174 =( NAMED_UNIT ( * ) SI_UNIT ( $, .STERADIAN. ) SOLID_ANGLE_UNIT ( ) );
#175 = CARTESIAN_POINT ( 'NONE',  ( 0.0000000000000000000, 0.0000000000000000000, 0.1636580167055674828 ) ) ;
#176 = AXIS2_PLACEMENT_3D ( 'NONE', #130, #44, #135 ) ;
#177 = DIRECTION ( 'NONE',  ( 0.0000000000000000000, 0.0000000000000000000, 1.000000000000000000 ) ) ;
#178 = CARTESIAN_POINT ( 'NONE',  ( -0.09842500000000001248, 0.0000000000000000000, 0.1636580167055674828 ) ) ;
#179 = AXIS2_PLACEMENT_3D ( 'NONE', #171, #231, #32 ) ;
#180 = DIRECTION ( 'NONE',  ( -0.0000000000000000000, -0.0000000000000000000, -1.000000000000000000 ) ) ;
#181 = EDGE_CURVE ( 'NONE', #173, #128, #72, .T. ) ;
#182 = ORIENTED_EDGE ( 'NONE', *, *, #228, .T. ) ;
#183 = ADVANCED_FACE ( 'NONE', ( #214 ), #227, .T. ) ;
#184 = ORIENTED_EDGE ( 'NONE', *, *, #228, .F. ) ;
#185 = CARTESIAN_POINT ( 'NONE',  ( 0.0000000000000000000, 0.0000000000000000000, 1.968503999999999809 ) ) ;
#186 = PRESENTATION_STYLE_ASSIGNMENT (( #25 ) ) ;
#187 = EDGE_CURVE ( 'NONE', #128, #173, #240, .T. ) ;
#188 = ORIENTED_EDGE ( 'NONE', *, *, #124, .F. ) ;
#189 = STYLED_ITEM ( 'NONE', ( #153 ), #123 ) ;
#190 = APPLICATION_CONTEXT ( 'automotive_design' ) ;
#191 =( NAMED_UNIT ( * ) PLANE_ANGLE_UNIT ( ) SI_UNIT ( $, .RADIAN. ) );
#192 = DIRECTION ( 'NONE',  ( 0.0000000000000000000, 0.0000000000000000000, 1.000000000000000000 ) ) ;
#193 = DIRECTION ( 'NONE',  ( -1.000000000000000000, 0.0000000000000000000, 0.0000000000000000000 ) ) ;
#194 = MECHANICAL_DESIGN_GEOMETRIC_PRESENTATION_REPRESENTATION (  '', ( #140 ), #170 ) ;
#195 = CIRCLE ( 'NONE', #119, 0.003936999999999995191 ) ;
#196 = CARTESIAN_POINT ( 'NONE',  ( 0.09842500000000001248, 1.205358612060782468E-17, 1.804845983294432576 ) ) ;
#197 = DIRECTION ( 'NONE',  ( 0.0000000000000000000, 0.0000000000000000000, -1.000000000000000000 ) ) ;
#198 = EDGE_CURVE ( 'NONE', #166, #128, #7, .T. ) ;
#199 = DIRECTION ( 'NONE',  ( -0.0000000000000000000, -0.0000000000000000000, -1.000000000000000000 ) ) ;
#200 = AXIS2_PLACEMENT_3D ( 'NONE', #46, #19, #24 ) ;
#201 = PLANE ( 'NONE',  #59 ) ;
#202 = ORIENTED_EDGE ( 'NONE', *, *, #116, .T. ) ;
#203 = PRODUCT ( 'Micro_RSCM-050-2X', 'Micro_RSCM-050-2X', '', ( #111 ) ) ;
#204 = APPLICATION_CONTEXT ( 'automotive_design' ) ;
#205 = EDGE_LOOP ( 'NONE', ( #184, #126 ) ) ;
#206 = VERTEX_POINT ( 'NONE', #196 ) ;
#207 = CLOSED_SHELL ( 'NONE', ( #52, #183, #39, #212, #64, #109, #2, #99 ) ) ;
#208 = CYLINDRICAL_SURFACE ( 'NONE', #200, 0.09842500000000001248 ) ;
#209 = DIRECTION ( 'NONE',  ( 1.000000000000000000, 0.0000000000000000000, 0.0000000000000000000 ) ) ;
#210 = DIRECTION ( 'NONE',  ( 1.000000000000000000, 0.0000000000000000000, 0.0000000000000000000 ) ) ;
#211 =( CONVERSION_BASED_UNIT ( 'INCH', #115 ) LENGTH_UNIT ( ) NAMED_UNIT ( #222 ) );
#212 = ADVANCED_FACE ( 'NONE', ( #159 ), #28, .T. ) ;
#213 = SURFACE_SIDE_STYLE ('',( #233 ) ) ;
#214 = FACE_OUTER_BOUND ( 'NONE', #54, .T. ) ;
#215 = PRODUCT_DEFINITION_SHAPE ( 'NONE', 'NONE',  #16 ) ;
#216 =( CONVERSION_BASED_UNIT ( 'INCH', #218 ) LENGTH_UNIT ( ) NAMED_UNIT ( #31 ) );
#217 = CONICAL_SURFACE ( 'NONE', #26, 0.003936999999999995191, 0.5235987755983005920 ) ;
#218 = LENGTH_MEASURE_WITH_UNIT ( LENGTH_MEASURE( 0.02539999999999999897 ), #9 );
#219 = CARTESIAN_POINT ( 'NONE',  ( 0.003936999999999995191, 0.0000000000000000000, 1.968503999999999809 ) ) ;
#220 = FACE_OUTER_BOUND ( 'NONE', #17, .T. ) ;
#221 = AXIS2_PLACEMENT_3D ( 'NONE', #4, #76, #151 ) ;
#222 = DIMENSIONAL_EXPONENTS ( 1.000000000000000000, 0.0000000000000000000, 0.0000000000000000000, 0.0000000000000000000, 0.0000000000000000000, 0.0000000000000000000, 0.0000000000000000000 ) ;
#223 = UNCERTAINTY_MEASURE_WITH_UNIT (LENGTH_MEASURE( 1.000000000000000082E-05 ), #216, 'distance_accuracy_value', 'NONE');
#224 = ORIENTED_EDGE ( 'NONE', *, *, #243, .F. ) ;
#225 = CONICAL_SURFACE ( 'NONE', #97, 0.003936999999999995191, 0.5235987755983005920 ) ;
#226 = ORIENTED_EDGE ( 'NONE', *, *, #23, .F. ) ;
#227 = CONICAL_SURFACE ( 'NONE', #21, 0.003936999999999995191, 0.5235987755983005920 ) ;
#228 = EDGE_CURVE ( 'NONE', #55, #165, #195, .T. ) ;
#229 = FACE_OUTER_BOUND ( 'NONE', #205, .T. ) ;
#230 = LENGTH_MEASURE_WITH_UNIT ( LENGTH_MEASURE( 0.02539999999999999897 ), #168 );
#231 = DIRECTION ( 'NONE',  ( 0.0000000000000000000, 0.0000000000000000000, 1.000000000000000000 ) ) ;
#232 =( CONVERSION_BASED_UNIT ( 'INCH', #230 ) LENGTH_UNIT ( ) NAMED_UNIT ( #246 ) );
#233 = SURFACE_STYLE_FILL_AREA ( #58 ) ;
#234 =( NAMED_UNIT ( * ) SI_UNIT ( $, .STERADIAN. ) SOLID_ANGLE_UNIT ( ) );
#235 = FACE_OUTER_BOUND ( 'NONE', #22, .T. ) ;
#236 = CIRCLE ( 'NONE', #176, 0.003936999999999995191 ) ;
#237 = DIRECTION ( 'NONE',  ( -0.0000000000000000000, -0.0000000000000000000, -1.000000000000000000 ) ) ;
#238 = LINE ( 'NONE', #144, #48 ) ;
#239 = DIRECTION ( 'NONE',  ( -1.000000000000000000, 0.0000000000000000000, 0.0000000000000000000 ) ) ;
#240 = CIRCLE ( 'NONE', #247, 0.09842500000000001248 ) ;
#241 = CARTESIAN_POINT ( 'NONE',  ( 0.0000000000000000000, 0.0000000000000000000, 1.804845983294432576 ) ) ;
#242 = DIRECTION ( 'NONE',  ( 1.000000000000000000, 0.0000000000000000000, 0.0000000000000000000 ) ) ;
#243 = EDGE_CURVE ( 'NONE', #91, #206, #163, .T. ) ;
#244 = FILL_AREA_STYLE_COLOUR ( '', #127 ) ;
#245 = PRESENTATION_LAYER_ASSIGNMENT (  '', '', ( #140 ) ) ;
#246 = DIMENSIONAL_EXPONENTS ( 1.000000000000000000, 0.0000000000000000000, 0.0000000000000000000, 0.0000000000000000000, 0.0000000000000000000, 0.0000000000000000000, 0.0000000000000000000 ) ;
#247 = AXIS2_PLACEMENT_3D ( 'NONE', #175, #237, #53 ) ;
#248 = ORIENTED_EDGE ( 'NONE', *, *, #172, .F. ) ;
#249 = UNCERTAINTY_MEASURE_WITH_UNIT (LENGTH_MEASURE( 1.000000000000000082E-05 ), #211, 'distance_accuracy_value', 'NONE');
ENDSEC;
END-ISO-10303-21;
