ISO-10303-21;
HEADER;
FILE_DESCRIPTION (( 'STEP AP214' ),
    '1' );
FILE_NAME ('Micro_GEM-109-3.STEP',
    '2021-09-01T19:26:36',
    ( '' ),
    ( '' ),
    'SwSTEP 2.0',
    'SolidWorks 2020',
    '' );
FILE_SCHEMA (( 'AUTOMOTIVE_DESIGN' ));
ENDSEC;

DATA;
#1 = CARTESIAN_POINT ( 'NONE',  ( -0.05464529999999995225, 6.692119173344685866E-18, 0.3750000000000000555 ) ) ;
#2 = CYLINDRICAL_SURFACE ( 'NONE', #209, 0.05464529999999999388 ) ;
#3 = CARTESIAN_POINT ( 'NONE',  ( 0.0000000000000000000, 0.0000000000000000000, 1.500000000000000222 ) ) ;
#4 = EDGE_CURVE ( 'NONE', #5, #262, #117, .T. ) ;
#5 = VERTEX_POINT ( 'NONE', #201 ) ;
#6 = EDGE_LOOP ( 'NONE', ( #47, #239, #11, #171 ) ) ;
#7 = APPLICATION_PROTOCOL_DEFINITION ( 'draft international standard', 'automotive_design', 1998, #120 ) ;
#8 = EDGE_CURVE ( 'NONE', #118, #5, #147, .T. ) ;
#9 = FACE_OUTER_BOUND ( 'NONE', #78, .T. ) ;
#10 = ORIENTED_EDGE ( 'NONE', *, *, #13, .T. ) ;
#11 = ORIENTED_EDGE ( 'NONE', *, *, #113, .T. ) ;
#12 = ORIENTED_EDGE ( 'NONE', *, *, #291, .F. ) ;
#13 = EDGE_CURVE ( 'NONE', #118, #287, #293, .T. ) ;
#14 = VECTOR ( 'NONE', #99, 39.37007874015748143 ) ;
#15 = CARTESIAN_POINT ( 'NONE',  ( 0.0000000000000000000, 0.0000000000000000000, 1.500000000000000222 ) ) ;
#16 = CARTESIAN_POINT ( 'NONE',  ( -0.05464529999999999388, 0.0000000000000000000, 1.338423834668937635E-17 ) ) ;
#17 = DIRECTION ( 'NONE',  ( -1.000000000000000000, 0.0000000000000000000, 0.0000000000000000000 ) ) ;
#18 = AXIS2_PLACEMENT_3D ( 'NONE', #134, #159, #17 ) ;
#19 = DIRECTION ( 'NONE',  ( 0.0000000000000000000, 0.0000000000000000000, -1.000000000000000000 ) ) ;
#20 = APPLICATION_PROTOCOL_DEFINITION ( 'draft international standard', 'automotive_design', 1998, #265 ) ;
#21 = DIRECTION ( 'NONE',  ( -1.000000000000000000, 0.0000000000000000000, 1.224646799147353700E-16 ) ) ;
#22 = ADVANCED_FACE ( 'NONE', ( #191 ), #150, .T. ) ;
#23 = LINE ( 'NONE', #184, #42 ) ;
#24 = PRODUCT_RELATED_PRODUCT_CATEGORY ( 'part', '', ( #140 ) ) ;
#25 = PRESENTATION_STYLE_ASSIGNMENT (( #153 ) ) ;
#26 = EDGE_CURVE ( 'NONE', #51, #29, #31, .T. ) ;
#27 = ORIENTED_EDGE ( 'NONE', *, *, #8, .F. ) ;
#28 = MECHANICAL_DESIGN_GEOMETRIC_PRESENTATION_REPRESENTATION (  '', ( #30 ), #203 ) ;
#29 = VERTEX_POINT ( 'NONE', #16 ) ;
#30 = STYLED_ITEM ( 'NONE', ( #25 ), #142 ) ;
#31 = LINE ( 'NONE', #121, #174 ) ;
#32 = CARTESIAN_POINT ( 'NONE',  ( 0.0000000000000000000, 0.0000000000000000000, 1.500000000000000222 ) ) ;
#33 = PLANE ( 'NONE',  #234 ) ;
#34 = ORIENTED_EDGE ( 'NONE', *, *, #243, .F. ) ;
#35 = PRESENTATION_LAYER_ASSIGNMENT (  '', '', ( #146 ) ) ;
#36 = EDGE_LOOP ( 'NONE', ( #138, #76, #77, #125 ) ) ;
#37 = PRESENTATION_STYLE_ASSIGNMENT (( #109 ) ) ;
#38 = CARTESIAN_POINT ( 'NONE',  ( 0.0000000000000000000, 0.0000000000000000000, 1.485000000000000764 ) ) ;
#39 =( NAMED_UNIT ( * ) PLANE_ANGLE_UNIT ( ) SI_UNIT ( $, .RADIAN. ) );
#40 = FILL_AREA_STYLE ('',( #274 ) ) ;
#41 = LENGTH_MEASURE_WITH_UNIT ( LENGTH_MEASURE( 0.02539999999999999897 ), #229 );
#42 = VECTOR ( 'NONE', #231, 39.37007874015748854 ) ;
#43 = CARTESIAN_POINT ( 'NONE',  ( 0.0000000000000000000, 0.0000000000000000000, 0.0000000000000000000 ) ) ;
#44 = AXIS2_PLACEMENT_3D ( 'NONE', #273, #249, #131 ) ;
#45 = ORIENTED_EDGE ( 'NONE', *, *, #221, .F. ) ;
#46 = CIRCLE ( 'NONE', #244, 0.04750000000000064587 ) ;
#47 = ORIENTED_EDGE ( 'NONE', *, *, #267, .F. ) ;
#48 = ORIENTED_EDGE ( 'NONE', *, *, #148, .T. ) ;
#49 = AXIS2_PLACEMENT_3D ( 'NONE', #59, #129, #107 ) ;
#50 = AXIS2_PLACEMENT_3D ( 'NONE', #43, #185, #72 ) ;
#51 = VERTEX_POINT ( 'NONE', #119 ) ;
#52 = EDGE_CURVE ( 'NONE', #57, #5, #270, .T. ) ;
#53 = CARTESIAN_POINT ( 'NONE',  ( 4.592425496802576684E-17, 0.0000000000000000000, 0.3750000000000000555 ) ) ;
#54 = DIRECTION ( 'NONE',  ( 0.0000000000000000000, 0.0000000000000000000, 1.000000000000000000 ) ) ;
#55 = VECTOR ( 'NONE', #128, 39.37007874015748143 ) ;
#56 = DIRECTION ( 'NONE',  ( 0.0000000000000000000, 0.0000000000000000000, 1.000000000000000000 ) ) ;
#57 = VERTEX_POINT ( 'NONE', #170 ) ;
#58 = LINE ( 'NONE', #272, #297 ) ;
#59 = CARTESIAN_POINT ( 'NONE',  ( 0.0000000000000000000, 0.0000000000000000000, 0.0000000000000000000 ) ) ;
#60 = EDGE_CURVE ( 'NONE', #189, #285, #224, .T. ) ;
#61 = FACE_OUTER_BOUND ( 'NONE', #102, .T. ) ;
#62 = DIRECTION ( 'NONE',  ( -0.0000000000000000000, -0.0000000000000000000, -1.000000000000000000 ) ) ;
#63 = AXIS2_PLACEMENT_3D ( 'NONE', #176, #277, #80 ) ;
#64 =( CONVERSION_BASED_UNIT ( 'INCH', #246 ) LENGTH_UNIT ( ) NAMED_UNIT ( #247 ) );
#65 = SURFACE_SIDE_STYLE ('',( #299 ) ) ;
#66 = DIRECTION ( 'NONE',  ( 0.0000000000000000000, 0.0000000000000000000, 1.000000000000000000 ) ) ;
#67 = DIMENSIONAL_EXPONENTS ( 1.000000000000000000, 0.0000000000000000000, 0.0000000000000000000, 0.0000000000000000000, 0.0000000000000000000, 0.0000000000000000000, 0.0000000000000000000 ) ;
#68 = DIRECTION ( 'NONE',  ( -1.000000000000000000, 0.0000000000000000000, 1.224646799147353700E-16 ) ) ;
#69 = CIRCLE ( 'NONE', #259, 0.06250000000000002776 ) ;
#70 = ADVANCED_FACE ( 'NONE', ( #152 ), #241, .T. ) ;
#71 = EDGE_LOOP ( 'NONE', ( #258, #214, #212, #245 ) ) ;
#72 = DIRECTION ( 'NONE',  ( 1.000000000000000000, 0.0000000000000000000, 0.0000000000000000000 ) ) ;
#73 = ADVANCED_FACE ( 'NONE', ( #266 ), #33, .T. ) ;
#74 = ORIENTED_EDGE ( 'NONE', *, *, #52, .T. ) ;
#75 = ORIENTED_EDGE ( 'NONE', *, *, #291, .T. ) ;
#76 = ORIENTED_EDGE ( 'NONE', *, *, #275, .T. ) ;
#77 = ORIENTED_EDGE ( 'NONE', *, *, #26, .T. ) ;
#78 = EDGE_LOOP ( 'NONE', ( #240, #166 ) ) ;
#79 = DIRECTION ( 'NONE',  ( 1.000000000000000000, 0.0000000000000000000, 0.0000000000000000000 ) ) ;
#80 = DIRECTION ( 'NONE',  ( 1.000000000000000000, 0.0000000000000000000, 0.0000000000000000000 ) ) ;
#81 =( NAMED_UNIT ( * ) PLANE_ANGLE_UNIT ( ) SI_UNIT ( $, .RADIAN. ) );
#82 = FACE_OUTER_BOUND ( 'NONE', #36, .T. ) ;
#83 = CARTESIAN_POINT ( 'NONE',  ( -0.06249999999999997224, 0.0000000000000000000, 0.4195462173085511837 ) ) ;
#84 = FACE_OUTER_BOUND ( 'NONE', #71, .T. ) ;
#85 = CARTESIAN_POINT ( 'NONE',  ( 0.0000000000000000000, 0.0000000000000000000, 1.500000000000000222 ) ) ;
#86 = CONICAL_SURFACE ( 'NONE', #198, 0.04750000000000064587, 0.7853981633974466137 ) ;
#87 = DIRECTION ( 'NONE',  ( 0.0000000000000000000, 0.0000000000000000000, -1.000000000000000000 ) ) ;
#88 = CARTESIAN_POINT ( 'NONE',  ( 0.0000000000000000000, 0.0000000000000000000, 1.500000000000000222 ) ) ;
#89 = CARTESIAN_POINT ( 'NONE',  ( 0.0000000000000000000, 0.0000000000000000000, 1.500000000000000222 ) ) ;
#90 = DIRECTION ( 'NONE',  ( 0.0000000000000000000, 0.0000000000000000000, -1.000000000000000000 ) ) ;
#91 = VERTEX_POINT ( 'NONE', #292 ) ;
#92 = ADVANCED_BREP_SHAPE_REPRESENTATION ( 'Micro_GEM-109-3', ( #142, #50 ), #151 ) ;
#93 = VECTOR ( 'NONE', #211, 39.37007874015747433 ) ;
#94 = ORIENTED_EDGE ( 'NONE', *, *, #156, .F. ) ;
#95 = ADVANCED_FACE ( 'NONE', ( #199 ), #101, .T. ) ;
#96 = ORIENTED_EDGE ( 'NONE', *, *, #4, .T. ) ;
#97 = ORIENTED_EDGE ( 'NONE', *, *, #4, .F. ) ;
#98 = CARTESIAN_POINT ( 'NONE',  ( 5.137959321212973182E-17, 0.0000000000000000000, 0.4195462173085511837 ) ) ;
#99 = DIRECTION ( 'NONE',  ( -1.224646799147353700E-16, -0.0000000000000000000, -1.000000000000000000 ) ) ;
#100 = ORIENTED_EDGE ( 'NONE', *, *, #215, .T. ) ;
#101 = CONICAL_SURFACE ( 'NONE', #136, 0.04750000000000064587, 0.7853981633974466137 ) ;
#102 = EDGE_LOOP ( 'NONE', ( #94, #225, #163, #27 ) ) ;
#103 = DIRECTION ( 'NONE',  ( 1.000000000000000000, 0.0000000000000000000, 0.0000000000000000000 ) ) ;
#104 = DIRECTION ( 'NONE',  ( 0.0000000000000000000, 0.0000000000000000000, -1.000000000000000000 ) ) ;
#105 = DIRECTION ( 'NONE',  ( -1.224646799147353700E-16, -0.0000000000000000000, -1.000000000000000000 ) ) ;
#106 =( LENGTH_UNIT ( ) NAMED_UNIT ( * ) SI_UNIT ( $, .METRE. ) );
#107 = DIRECTION ( 'NONE',  ( -1.000000000000000000, 0.0000000000000000000, 1.224646799147353700E-16 ) ) ;
#108 = CARTESIAN_POINT ( 'NONE',  ( 0.05464530000000004245, 0.0000000000000000000, 0.3750000000000000555 ) ) ;
#109 = SURFACE_STYLE_USAGE ( .BOTH. , #250 ) ;
#110 = AXIS2_PLACEMENT_3D ( 'NONE', #179, #252, #68 ) ;
#111 = LINE ( 'NONE', #1, #93 ) ;
#112 = COLOUR_RGB ( '',0.7921568627450980005, 0.8196078431372548767, 0.9333333333333333481 ) ;
#113 = EDGE_CURVE ( 'NONE', #189, #91, #23, .T. ) ;
#114 = ORIENTED_EDGE ( 'NONE', *, *, #26, .F. ) ;
#115 = AXIS2_PLACEMENT_3D ( 'NONE', #230, #105, #279 ) ;
#116 = EDGE_CURVE ( 'NONE', #287, #29, #256, .T. ) ;
#117 = CIRCLE ( 'NONE', #130, 0.06250000000000002776 ) ;
#118 = VERTEX_POINT ( 'NONE', #108 ) ;
#119 = CARTESIAN_POINT ( 'NONE',  ( -0.05464529999999995225, 7.173080834007822861E-18, 0.3750000000000000555 ) ) ;
#120 = APPLICATION_CONTEXT ( 'automotive_design' ) ;
#121 = CARTESIAN_POINT ( 'NONE',  ( -0.05464529999999999388, 0.0000000000000000000, 6.692119173344688177E-18 ) ) ;
#122 = UNCERTAINTY_MEASURE_WITH_UNIT (LENGTH_MEASURE( 1.000000000000000082E-05 ), #64, 'distance_accuracy_value', 'NONE');
#123 = DIRECTION ( 'NONE',  ( 0.0000000000000000000, 0.0000000000000000000, 1.000000000000000000 ) ) ;
#124 = ADVANCED_FACE ( 'NONE', ( #61 ), #195, .T. ) ;
#125 = ORIENTED_EDGE ( 'NONE', *, *, #116, .F. ) ;
#126 = FACE_OUTER_BOUND ( 'NONE', #286, .T. ) ;
#127 = DIRECTION ( 'NONE',  ( 1.000000000000000000, 0.0000000000000000000, -0.0000000000000000000 ) ) ;
#128 = DIRECTION ( 'NONE',  ( 0.1736481776669313581, 0.0000000000000000000, 0.9848077530122077983 ) ) ;
#129 = DIRECTION ( 'NONE',  ( -1.224646799147353700E-16, -0.0000000000000000000, -1.000000000000000000 ) ) ;
#130 = AXIS2_PLACEMENT_3D ( 'NONE', #145, #268, #103 ) ;
#131 = DIRECTION ( 'NONE',  ( -1.000000000000000000, 0.0000000000000000000, 0.0000000000000000000 ) ) ;
#132 = AXIS2_PLACEMENT_3D ( 'NONE', #38, #19, #206 ) ;
#133 = CARTESIAN_POINT ( 'NONE',  ( -0.04750000000000064587, 0.0000000000000000000, 1.500000000000000222 ) ) ;
#134 = CARTESIAN_POINT ( 'NONE',  ( 4.592425496802576684E-17, 0.0000000000000000000, 0.3750000000000000555 ) ) ;
#135 = CYLINDRICAL_SURFACE ( 'NONE', #190, 0.06250000000000002776 ) ;
#136 = AXIS2_PLACEMENT_3D ( 'NONE', #89, #87, #296 ) ;
#137 = SHAPE_DEFINITION_REPRESENTATION ( #257, #92 ) ;
#138 = ORIENTED_EDGE ( 'NONE', *, *, #13, .F. ) ;
#139 = ORIENTED_EDGE ( 'NONE', *, *, #156, .T. ) ;
#140 = PRODUCT ( 'Micro_GEM-109-3', 'Micro_GEM-109-3', '', ( #282 ) ) ;
#141 = ORIENTED_EDGE ( 'NONE', *, *, #235, .T. ) ;
#142 = MANIFOLD_SOLID_BREP ( 'Cut-Revolve1', #236 ) ;
#143 = ORIENTED_EDGE ( 'NONE', *, *, #275, .F. ) ;
#144 = CIRCLE ( 'NONE', #110, 0.05464529999999999388 ) ;
#145 = CARTESIAN_POINT ( 'NONE',  ( 5.137959321212973182E-17, 0.0000000000000000000, 0.4195462173085511837 ) ) ;
#146 = STYLED_ITEM ( 'NONE', ( #37 ), #92 ) ;
#147 = LINE ( 'NONE', #288, #55 ) ;
#148 = EDGE_CURVE ( 'NONE', #57, #91, #69, .T. ) ;
#149 = DIRECTION ( 'NONE',  ( 1.000000000000000000, 0.0000000000000000000, 0.0000000000000000000 ) ) ;
#150 = CYLINDRICAL_SURFACE ( 'NONE', #167, 0.06250000000000002776 ) ;
#151 =( GEOMETRIC_REPRESENTATION_CONTEXT ( 3 ) GLOBAL_UNCERTAINTY_ASSIGNED_CONTEXT ( ( #122 ) ) GLOBAL_UNIT_ASSIGNED_CONTEXT ( ( #64, #81, #177 ) ) REPRESENTATION_CONTEXT ( 'NONE', 'WORKASPACE' ) );
#152 = FACE_OUTER_BOUND ( 'NONE', #280, .T. ) ;
#153 = SURFACE_STYLE_USAGE ( .BOTH. , #65 ) ;
#154 =( NAMED_UNIT ( * ) SI_UNIT ( $, .STERADIAN. ) SOLID_ANGLE_UNIT ( ) );
#155 = PRESENTATION_LAYER_ASSIGNMENT (  '', '', ( #30 ) ) ;
#156 = EDGE_CURVE ( 'NONE', #51, #118, #281, .T. ) ;
#157 =( NAMED_UNIT ( * ) SI_UNIT ( $, .STERADIAN. ) SOLID_ANGLE_UNIT ( ) );
#158 = PRODUCT_DEFINITION ( 'UNKNOWN', '', #283, #263 ) ;
#159 = DIRECTION ( 'NONE',  ( -1.224646799147353700E-16, -0.0000000000000000000, -1.000000000000000000 ) ) ;
#160 = CYLINDRICAL_SURFACE ( 'NONE', #49, 0.05464529999999999388 ) ;
#161 = COLOUR_RGB ( '',0.7921568627450980005, 0.8196078431372548767, 0.9333333333333333481 ) ;
#162 =( GEOMETRIC_REPRESENTATION_CONTEXT ( 3 ) GLOBAL_UNCERTAINTY_ASSIGNED_CONTEXT ( ( #197 ) ) GLOBAL_UNIT_ASSIGNED_CONTEXT ( ( #276, #39, #154 ) ) REPRESENTATION_CONTEXT ( 'NONE', 'WORKASPACE' ) );
#163 = ORIENTED_EDGE ( 'NONE', *, *, #243, .T. ) ;
#164 = AXIS2_PLACEMENT_3D ( 'NONE', #219, #54, #79 ) ;
#165 = CIRCLE ( 'NONE', #44, 0.05464529999999999388 ) ;
#166 = ORIENTED_EDGE ( 'NONE', *, *, #116, .T. ) ;
#167 = AXIS2_PLACEMENT_3D ( 'NONE', #32, #196, #238 ) ;
#168 = DIRECTION ( 'NONE',  ( 1.224646799147353700E-16, 0.0000000000000000000, 1.000000000000000000 ) ) ;
#169 = ADVANCED_FACE ( 'NONE', ( #82 ), #2, .T. ) ;
#170 = CARTESIAN_POINT ( 'NONE',  ( 0.06250000000000002776, 7.654042494670959086E-18, 1.485000000000000764 ) ) ;
#171 = ORIENTED_EDGE ( 'NONE', *, *, #148, .F. ) ;
#172 = DIRECTION ( 'NONE',  ( -1.000000000000000000, 0.0000000000000000000, 0.0000000000000000000 ) ) ;
#173 = CARTESIAN_POINT ( 'NONE',  ( 0.05464529999999999388, 6.692119173344685866E-18, -6.692119173344688177E-18 ) ) ;
#174 = VECTOR ( 'NONE', #193, 39.37007874015748143 ) ;
#175 = FILL_AREA_STYLE ('',( #248 ) ) ;
#176 = CARTESIAN_POINT ( 'NONE',  ( 4.592425496802576684E-17, 0.0000000000000000000, 0.3750000000000000555 ) ) ;
#177 =( NAMED_UNIT ( * ) SI_UNIT ( $, .STERADIAN. ) SOLID_ANGLE_UNIT ( ) );
#178 = DIRECTION ( 'NONE',  ( 0.7071067811865462405, 8.659560562354916834E-17, -0.7071067811865486830 ) ) ;
#179 = CARTESIAN_POINT ( 'NONE',  ( 8.195482325149207809E-34, 0.0000000000000000000, 6.692119173344688177E-18 ) ) ;
#180 = CARTESIAN_POINT ( 'NONE',  ( 0.05464529999999999388, 6.692119173344685866E-18, 0.0000000000000000000 ) ) ;
#181 = LENGTH_MEASURE_WITH_UNIT ( LENGTH_MEASURE( 0.02539999999999999897 ), #254 );
#182 = DIRECTION ( 'NONE',  ( -1.000000000000000000, 0.0000000000000000000, 0.0000000000000000000 ) ) ;
#183 = DIRECTION ( 'NONE',  ( -1.224646799147353700E-16, -0.0000000000000000000, -1.000000000000000000 ) ) ;
#184 = CARTESIAN_POINT ( 'NONE',  ( -0.04750000000000064587, 0.0000000000000000000, 1.500000000000000222 ) ) ;
#185 = DIRECTION ( 'NONE',  ( 0.0000000000000000000, 0.0000000000000000000, 1.000000000000000000 ) ) ;
#186 = CIRCLE ( 'NONE', #132, 0.06250000000000002776 ) ;
#187 = VECTOR ( 'NONE', #178, 39.37007874015748854 ) ;
#188 = ORIENTED_EDGE ( 'NONE', *, *, #52, .F. ) ;
#189 = VERTEX_POINT ( 'NONE', #133 ) ;
#190 = AXIS2_PLACEMENT_3D ( 'NONE', #85, #298, #182 ) ;
#191 = FACE_OUTER_BOUND ( 'NONE', #218, .T. ) ;
#192 = PLANE ( 'NONE',  #260 ) ;
#193 = DIRECTION ( 'NONE',  ( -1.224646799147353700E-16, -0.0000000000000000000, -1.000000000000000000 ) ) ;
#194 = EDGE_CURVE ( 'NONE', #29, #287, #144, .T. ) ;
#195 = CONICAL_SURFACE ( 'NONE', #63, 0.05464529999999999388, 0.1745329251994338637 ) ;
#196 = DIRECTION ( 'NONE',  ( -0.0000000000000000000, -0.0000000000000000000, -1.000000000000000000 ) ) ;
#197 = UNCERTAINTY_MEASURE_WITH_UNIT (LENGTH_MEASURE( 1.000000000000000082E-05 ), #276, 'distance_accuracy_value', 'NONE');
#198 = AXIS2_PLACEMENT_3D ( 'NONE', #3, #90, #172 ) ;
#199 = FACE_OUTER_BOUND ( 'NONE', #6, .T. ) ;
#200 = CARTESIAN_POINT ( 'NONE',  ( 0.0000000000000000000, 0.0000000000000000000, 0.0000000000000000000 ) ) ;
#201 = CARTESIAN_POINT ( 'NONE',  ( 0.06250000000000008327, 7.654042494670966789E-18, 0.4195462173085511837 ) ) ;
#202 = CARTESIAN_POINT ( 'NONE',  ( 0.0000000000000000000, 0.0000000000000000000, 1.485000000000000764 ) ) ;
#203 =( GEOMETRIC_REPRESENTATION_CONTEXT ( 3 ) GLOBAL_UNCERTAINTY_ASSIGNED_CONTEXT ( ( #220 ) ) GLOBAL_UNIT_ASSIGNED_CONTEXT ( ( #208, #205, #157 ) ) REPRESENTATION_CONTEXT ( 'NONE', 'WORKASPACE' ) );
#204 = CARTESIAN_POINT ( 'NONE',  ( 0.04750000000000064587, 5.817072295950006528E-18, 1.500000000000000222 ) ) ;
#205 =( NAMED_UNIT ( * ) PLANE_ANGLE_UNIT ( ) SI_UNIT ( $, .RADIAN. ) );
#206 = DIRECTION ( 'NONE',  ( 1.000000000000000000, 0.0000000000000000000, 0.0000000000000000000 ) ) ;
#207 = ADVANCED_FACE ( 'NONE', ( #228 ), #160, .T. ) ;
#208 =( CONVERSION_BASED_UNIT ( 'INCH', #181 ) LENGTH_UNIT ( ) NAMED_UNIT ( #213 ) );
#209 = AXIS2_PLACEMENT_3D ( 'NONE', #233, #183, #21 ) ;
#210 = MECHANICAL_DESIGN_GEOMETRIC_PRESENTATION_REPRESENTATION (  '', ( #146 ), #162 ) ;
#211 = DIRECTION ( 'NONE',  ( -0.1736481776669311639, 2.126576849575783008E-17, 0.9848077530122080203 ) ) ;
#212 = ORIENTED_EDGE ( 'NONE', *, *, #215, .F. ) ;
#213 = DIMENSIONAL_EXPONENTS ( 1.000000000000000000, 0.0000000000000000000, 0.0000000000000000000, 0.0000000000000000000, 0.0000000000000000000, 0.0000000000000000000, 0.0000000000000000000 ) ;
#214 = ORIENTED_EDGE ( 'NONE', *, *, #267, .T. ) ;
#215 = EDGE_CURVE ( 'NONE', #91, #57, #186, .T. ) ;
#216 = DIRECTION ( 'NONE',  ( -1.224646799147353700E-16, -0.0000000000000000000, -1.000000000000000000 ) ) ;
#217 = VECTOR ( 'NONE', #289, 39.37007874015748143 ) ;
#218 = EDGE_LOOP ( 'NONE', ( #188, #48, #75, #97 ) ) ;
#219 = CARTESIAN_POINT ( 'NONE',  ( 0.0000000000000000000, 0.0000000000000000000, 1.500000000000000222 ) ) ;
#220 = UNCERTAINTY_MEASURE_WITH_UNIT (LENGTH_MEASURE( 1.000000000000000082E-05 ), #208, 'distance_accuracy_value', 'NONE');
#221 = EDGE_CURVE ( 'NONE', #51, #262, #111, .T. ) ;
#222 = DIRECTION ( 'NONE',  ( 1.000000000000000000, 0.0000000000000000000, 0.0000000000000000000 ) ) ;
#223 = CARTESIAN_POINT ( 'NONE',  ( 0.06250000000000002776, 7.654042494670959086E-18, 1.500000000000000222 ) ) ;
#224 = CIRCLE ( 'NONE', #164, 0.04750000000000064587 ) ;
#225 = ORIENTED_EDGE ( 'NONE', *, *, #221, .T. ) ;
#226 = ORIENTED_EDGE ( 'NONE', *, *, #8, .T. ) ;
#227 = ADVANCED_FACE ( 'NONE', ( #84 ), #86, .T. ) ;
#228 = FACE_OUTER_BOUND ( 'NONE', #237, .T. ) ;
#229 =( LENGTH_UNIT ( ) NAMED_UNIT ( * ) SI_UNIT ( $, .METRE. ) );
#230 = CARTESIAN_POINT ( 'NONE',  ( 8.195482325149207809E-34, 0.0000000000000000000, 6.692119173344688177E-18 ) ) ;
#231 = DIRECTION ( 'NONE',  ( -0.7071067811865462405, 0.0000000000000000000, -0.7071067811865486830 ) ) ;
#232 = CARTESIAN_POINT ( 'NONE',  ( 0.04750000000000064587, 6.735557395310483192E-18, 1.500000000000000222 ) ) ;
#233 = CARTESIAN_POINT ( 'NONE',  ( 0.0000000000000000000, 0.0000000000000000000, 0.0000000000000000000 ) ) ;
#234 = AXIS2_PLACEMENT_3D ( 'NONE', #15, #123, #264 ) ;
#235 = EDGE_CURVE ( 'NONE', #285, #189, #46, .T. ) ;
#236 = CLOSED_SHELL ( 'NONE', ( #207, #124, #227, #294, #22, #73, #95, #70, #169, #255 ) ) ;
#237 = EDGE_LOOP ( 'NONE', ( #139, #10, #242, #114 ) ) ;
#238 = DIRECTION ( 'NONE',  ( -1.000000000000000000, 0.0000000000000000000, 0.0000000000000000000 ) ) ;
#239 = ORIENTED_EDGE ( 'NONE', *, *, #60, .F. ) ;
#240 = ORIENTED_EDGE ( 'NONE', *, *, #194, .T. ) ;
#241 = CONICAL_SURFACE ( 'NONE', #269, 0.05464529999999999388, 0.1745329251994338637 ) ;
#242 = ORIENTED_EDGE ( 'NONE', *, *, #194, .F. ) ;
#243 = EDGE_CURVE ( 'NONE', #262, #5, #290, .T. ) ;
#244 = AXIS2_PLACEMENT_3D ( 'NONE', #88, #66, #253 ) ;
#245 = ORIENTED_EDGE ( 'NONE', *, *, #113, .F. ) ;
#246 = LENGTH_MEASURE_WITH_UNIT ( LENGTH_MEASURE( 0.02539999999999999897 ), #106 );
#247 = DIMENSIONAL_EXPONENTS ( 1.000000000000000000, 0.0000000000000000000, 0.0000000000000000000, 0.0000000000000000000, 0.0000000000000000000, 0.0000000000000000000, 0.0000000000000000000 ) ;
#248 = FILL_AREA_STYLE_COLOUR ( '', #112 ) ;
#249 = DIRECTION ( 'NONE',  ( -1.224646799147353700E-16, -0.0000000000000000000, -1.000000000000000000 ) ) ;
#250 = SURFACE_SIDE_STYLE ('',( #251 ) ) ;
#251 = SURFACE_STYLE_FILL_AREA ( #175 ) ;
#252 = DIRECTION ( 'NONE',  ( -1.224646799147353700E-16, -0.0000000000000000000, -1.000000000000000000 ) ) ;
#253 = DIRECTION ( 'NONE',  ( 1.000000000000000000, 0.0000000000000000000, 0.0000000000000000000 ) ) ;
#254 =( LENGTH_UNIT ( ) NAMED_UNIT ( * ) SI_UNIT ( $, .METRE. ) );
#255 = ADVANCED_FACE ( 'NONE', ( #9 ), #192, .F. ) ;
#256 = CIRCLE ( 'NONE', #115, 0.05464529999999999388 ) ;
#257 = PRODUCT_DEFINITION_SHAPE ( 'NONE', 'NONE',  #158 ) ;
#258 = ORIENTED_EDGE ( 'NONE', *, *, #235, .F. ) ;
#259 = AXIS2_PLACEMENT_3D ( 'NONE', #202, #104, #271 ) ;
#260 = AXIS2_PLACEMENT_3D ( 'NONE', #200, #56, #127 ) ;
#261 = ORIENTED_EDGE ( 'NONE', *, *, #60, .T. ) ;
#262 = VERTEX_POINT ( 'NONE', #83 ) ;
#263 = PRODUCT_DEFINITION_CONTEXT ( 'detailed design', #120, 'design' ) ;
#264 = DIRECTION ( 'NONE',  ( 1.000000000000000000, 0.0000000000000000000, -0.0000000000000000000 ) ) ;
#265 = APPLICATION_CONTEXT ( 'automotive_design' ) ;
#266 = FACE_OUTER_BOUND ( 'NONE', #284, .T. ) ;
#267 = EDGE_CURVE ( 'NONE', #285, #57, #295, .T. ) ;
#268 = DIRECTION ( 'NONE',  ( -1.224646799147353700E-16, -0.0000000000000000000, -1.000000000000000000 ) ) ;
#269 = AXIS2_PLACEMENT_3D ( 'NONE', #53, #168, #149 ) ;
#270 = LINE ( 'NONE', #223, #217 ) ;
#271 = DIRECTION ( 'NONE',  ( 1.000000000000000000, 0.0000000000000000000, 0.0000000000000000000 ) ) ;
#272 = CARTESIAN_POINT ( 'NONE',  ( -0.06250000000000002776, 0.0000000000000000000, 1.500000000000000222 ) ) ;
#273 = CARTESIAN_POINT ( 'NONE',  ( 4.592425496802576684E-17, 0.0000000000000000000, 0.3750000000000000555 ) ) ;
#274 = FILL_AREA_STYLE_COLOUR ( '', #161 ) ;
#275 = EDGE_CURVE ( 'NONE', #118, #51, #165, .T. ) ;
#276 =( CONVERSION_BASED_UNIT ( 'INCH', #41 ) LENGTH_UNIT ( ) NAMED_UNIT ( #67 ) );
#277 = DIRECTION ( 'NONE',  ( 1.224646799147353700E-16, 0.0000000000000000000, 1.000000000000000000 ) ) ;
#278 = AXIS2_PLACEMENT_3D ( 'NONE', #98, #216, #222 ) ;
#279 = DIRECTION ( 'NONE',  ( -1.000000000000000000, 0.0000000000000000000, 1.224646799147353700E-16 ) ) ;
#280 = EDGE_LOOP ( 'NONE', ( #45, #143, #226, #96 ) ) ;
#281 = CIRCLE ( 'NONE', #18, 0.05464529999999999388 ) ;
#282 = PRODUCT_CONTEXT ( 'NONE', #265, 'mechanical' ) ;
#283 = PRODUCT_DEFINITION_FORMATION_WITH_SPECIFIED_SOURCE ( 'ANY', '', #140, .NOT_KNOWN. ) ;
#284 = EDGE_LOOP ( 'NONE', ( #261, #141 ) ) ;
#285 = VERTEX_POINT ( 'NONE', #232 ) ;
#286 = EDGE_LOOP ( 'NONE', ( #100, #74, #34, #12 ) ) ;
#287 = VERTEX_POINT ( 'NONE', #180 ) ;
#288 = CARTESIAN_POINT ( 'NONE',  ( 0.05464530000000004245, 0.0000000000000000000, 0.3750000000000000555 ) ) ;
#289 = DIRECTION ( 'NONE',  ( -0.0000000000000000000, -0.0000000000000000000, -1.000000000000000000 ) ) ;
#290 = CIRCLE ( 'NONE', #278, 0.06250000000000002776 ) ;
#291 = EDGE_CURVE ( 'NONE', #91, #262, #58, .T. ) ;
#292 = CARTESIAN_POINT ( 'NONE',  ( -0.06250000000000002776, 0.0000000000000000000, 1.485000000000000764 ) ) ;
#293 = LINE ( 'NONE', #173, #14 ) ;
#294 = ADVANCED_FACE ( 'NONE', ( #126 ), #135, .T. ) ;
#295 = LINE ( 'NONE', #204, #187 ) ;
#296 = DIRECTION ( 'NONE',  ( -1.000000000000000000, 0.0000000000000000000, 0.0000000000000000000 ) ) ;
#297 = VECTOR ( 'NONE', #62, 39.37007874015748143 ) ;
#298 = DIRECTION ( 'NONE',  ( -0.0000000000000000000, -0.0000000000000000000, -1.000000000000000000 ) ) ;
#299 = SURFACE_STYLE_FILL_AREA ( #40 ) ;
ENDSEC;
END-ISO-10303-21;
