ISO-10303-21;
HEADER;
FILE_DESCRIPTION (( 'STEP AP214' ),
    '1' );
FILE_NAME ('81417.STEP',
    '2023-06-23T01:36:25',
    ( '' ),
    ( '' ),
    'SwSTEP 2.0',
    'SolidWorks 2023',
    '' );
FILE_SCHEMA (( 'AUTOMOTIVE_DESIGN' ));
ENDSEC;

DATA;
#1 = AXIS2_PLACEMENT_3D ( 'NONE', #264, #216, #8 ) ;
#2 = EDGE_CURVE ( 'NONE', #233, #87, #210, .T. ) ;
#3 = DIRECTION ( 'NONE',  ( -1.088574932575424772E-16, 1.000000000000000000, -0.000000000000000000 ) ) ;
#4 = CARTESIAN_POINT ( 'NONE',  ( 0.000000000000000000, 0.000000000000000000, 0.000000000000000000 ) ) ;
#5 = APPLICATION_PROTOCOL_DEFINITION ( 'draft international standard', 'automotive_design', 1998, #215 ) ;
#6 = DIRECTION ( 'NONE',  ( 0.000000000000000000, 0.000000000000000000, -1.000000000000000000 ) ) ;
#7 = VECTOR ( 'NONE', #151, 39.37007874015748143 ) ;
#8 = DIRECTION ( 'NONE',  ( -1.000000000000000000, 0.000000000000000000, 0.000000000000000000 ) ) ;
#9 =( NAMED_UNIT ( * ) PLANE_ANGLE_UNIT ( ) SI_UNIT ( $, .RADIAN. ) );
#10 = VECTOR ( 'NONE', #159, 39.37007874015748143 ) ;
#11 =( NAMED_UNIT ( * ) SI_UNIT ( $, .STERADIAN. ) SOLID_ANGLE_UNIT ( ) );
#12 = PRODUCT_RELATED_PRODUCT_CATEGORY ( 'part', '', ( #118 ) ) ;
#13 = MECHANICAL_DESIGN_GEOMETRIC_PRESENTATION_REPRESENTATION (  '', ( #237 ), #191 ) ;
#14 = CARTESIAN_POINT ( 'NONE',  ( -2.449293598294705921E-16, 5.000000000000000000, 0.000000000000000000 ) ) ;
#15 = DIRECTION ( 'NONE',  ( -0.000000000000000000, -1.000000000000000000, -0.000000000000000000 ) ) ;
#16 = VERTEX_POINT ( 'NONE', #120 ) ;
#17 = DIMENSIONAL_EXPONENTS ( 1.000000000000000000, 0.000000000000000000, 0.000000000000000000, 0.000000000000000000, 0.000000000000000000, 0.000000000000000000, 0.000000000000000000 ) ;
#18 = CLOSED_SHELL ( 'NONE', ( #95, #295, #218, #55 ) ) ;
#19 = ORIENTED_EDGE ( 'NONE', *, *, #128, .T. ) ;
#20 =( CONVERSION_BASED_UNIT ( 'INCH', #160 ) LENGTH_UNIT ( ) NAMED_UNIT ( #17 ) );
#21 = ORIENTED_EDGE ( 'NONE', *, *, #223, .F. ) ;
#22 =( LENGTH_UNIT ( ) NAMED_UNIT ( * ) SI_UNIT ( $, .METRE. ) );
#23 = EDGE_CURVE ( 'NONE', #87, #233, #221, .T. ) ;
#24 =( LENGTH_UNIT ( ) NAMED_UNIT ( * ) SI_UNIT ( $, .METRE. ) );
#25 = CARTESIAN_POINT ( 'NONE',  ( 4.592425496802575451E-17, 2.750000000000000000, 0.3750000000000000555 ) ) ;
#26 = ADVANCED_FACE ( 'NONE', ( #51 ), #265, .T. ) ;
#27 = CARTESIAN_POINT ( 'NONE',  ( 0.3750000000000000555, 5.000000000000000000, 0.000000000000000000 ) ) ;
#28 = CARTESIAN_POINT ( 'NONE',  ( 0.000000000000000000, 0.000000000000000000, 0.000000000000000000 ) ) ;
#29 = COLOUR_RGB ( '',1.000000000000000000, 0.000000000000000000, 0.000000000000000000 ) ;
#30 = COLOUR_RGB ( '',0.7921568627450980005, 0.8196078431372548767, 0.9333333333333333481 ) ;
#31 = DIRECTION ( 'NONE',  ( -1.000000000000000000, 0.000000000000000000, 0.000000000000000000 ) ) ;
#32 = PRESENTATION_STYLE_ASSIGNMENT (( #245 ) ) ;
#33 =( CONVERSION_BASED_UNIT ( 'INCH', #144 ) LENGTH_UNIT ( ) NAMED_UNIT ( #246 ) );
#34 = FILL_AREA_STYLE ('',( #296 ) ) ;
#35 = SURFACE_SIDE_STYLE ('',( #59 ) ) ;
#36 = APPLICATION_CONTEXT ( 'automotive_design' ) ;
#37 = DIRECTION ( 'NONE',  ( -1.000000000000000000, 0.000000000000000000, 0.000000000000000000 ) ) ;
#38 = CLOSED_SHELL ( 'NONE', ( #26, #207, #153, #231 ) ) ;
#39 = DIRECTION ( 'NONE',  ( 0.000000000000000000, 0.000000000000000000, -1.000000000000000000 ) ) ;
#40 = CIRCLE ( 'NONE', #200, 0.3750000000000000555 ) ;
#41 = EDGE_LOOP ( 'NONE', ( #193, #181, #184, #204 ) ) ;
#42 = ORIENTED_EDGE ( 'NONE', *, *, #109, .F. ) ;
#43 = EDGE_LOOP ( 'NONE', ( #82, #206, #133, #42 ) ) ;
#44 = FILL_AREA_STYLE ('',( #155 ) ) ;
#45 = SURFACE_STYLE_USAGE ( .BOTH. , #35 ) ;
#46 =( NAMED_UNIT ( * ) SI_UNIT ( $, .STERADIAN. ) SOLID_ANGLE_UNIT ( ) );
#47 = STYLED_ITEM ( 'NONE', ( #175 ), #166 ) ;
#48 = CYLINDRICAL_SURFACE ( 'NONE', #145, 0.3750000000000001665 ) ;
#49 = EDGE_LOOP ( 'NONE', ( #21, #228 ) ) ;
#50 = DIRECTION ( 'NONE',  ( -1.000000000000000000, 0.000000000000000000, 0.000000000000000000 ) ) ;
#51 = FACE_OUTER_BOUND ( 'NONE', #66, .T. ) ;
#52 = COLOUR_RGB ( '',1.000000000000000000, 0.000000000000000000, 0.000000000000000000 ) ;
#53 = AXIS2_PLACEMENT_3D ( 'NONE', #127, #301, #137 ) ;
#54 = DIRECTION ( 'NONE',  ( 0.000000000000000000, 0.000000000000000000, 1.000000000000000000 ) ) ;
#55 = ADVANCED_FACE ( 'NONE', ( #167 ), #91, .F. ) ;
#56 = LINE ( 'NONE', #148, #7 ) ;
#57 = UNCERTAINTY_MEASURE_WITH_UNIT (LENGTH_MEASURE( 1.000000000000000082E-05 ), #123, 'distance_accuracy_value', 'NONE');
#58 = SURFACE_SIDE_STYLE ('',( #248 ) ) ;
#59 = SURFACE_STYLE_FILL_AREA ( #267 ) ;
#60 = PRODUCT_DEFINITION_SHAPE ( 'NONE', 'NONE',  #178 ) ;
#61 = SURFACE_SIDE_STYLE ('',( #203 ) ) ;
#62 = ORIENTED_EDGE ( 'NONE', *, *, #69, .T. ) ;
#63 = STYLED_ITEM ( 'NONE', ( #290 ), #26 ) ;
#64 = MECHANICAL_DESIGN_GEOMETRIC_PRESENTATION_REPRESENTATION (  '', ( #284 ), #222 ) ;
#65 = ORIENTED_EDGE ( 'NONE', *, *, #149, .F. ) ;
#66 = EDGE_LOOP ( 'NONE', ( #252, #70, #179, #65 ) ) ;
#67 =( CONVERSION_BASED_UNIT ( 'INCH', #86 ) LENGTH_UNIT ( ) NAMED_UNIT ( #249 ) );
#68 = ORIENTED_EDGE ( 'NONE', *, *, #69, .F. ) ;
#69 = EDGE_CURVE ( 'NONE', #307, #106, #293, .T. ) ;
#70 = ORIENTED_EDGE ( 'NONE', *, *, #275, .T. ) ;
#71 = DIMENSIONAL_EXPONENTS ( 1.000000000000000000, 0.000000000000000000, 0.000000000000000000, 0.000000000000000000, 0.000000000000000000, 0.000000000000000000, 0.000000000000000000 ) ;
#72 = SURFACE_STYLE_FILL_AREA ( #165 ) ;
#73 = FACE_OUTER_BOUND ( 'NONE', #43, .T. ) ;
#74 = DIRECTION ( 'NONE',  ( 1.000000000000000000, 1.088574932575424895E-16, 0.000000000000000000 ) ) ;
#75 = SURFACE_STYLE_USAGE ( .BOTH. , #117 ) ;
#76 = MECHANICAL_DESIGN_GEOMETRIC_PRESENTATION_REPRESENTATION (  '', ( #258 ), #243 ) ;
#77 = PRODUCT_CONTEXT ( 'NONE', #215, 'mechanical' ) ;
#78 = CYLINDRICAL_SURFACE ( 'NONE', #136, 0.3750000000000000555 ) ;
#79 = PRESENTATION_LAYER_ASSIGNMENT (  '', '', ( #47 ) ) ;
#80 =( NAMED_UNIT ( * ) SI_UNIT ( $, .STERADIAN. ) SOLID_ANGLE_UNIT ( ) );
#81 =( NAMED_UNIT ( * ) PLANE_ANGLE_UNIT ( ) SI_UNIT ( $, .RADIAN. ) );
#82 = ORIENTED_EDGE ( 'NONE', *, *, #223, .T. ) ;
#83 = EDGE_LOOP ( 'NONE', ( #110, #234, #304, #68 ) ) ;
#84 = PRESENTATION_STYLE_ASSIGNMENT (( #187 ) ) ;
#85 = ORIENTED_EDGE ( 'NONE', *, *, #119, .F. ) ;
#86 = LENGTH_MEASURE_WITH_UNIT ( LENGTH_MEASURE( 0.02539999999999999897 ), #303 );
#87 = VERTEX_POINT ( 'NONE', #188 ) ;
#88 = CARTESIAN_POINT ( 'NONE',  ( 0.000000000000000000, 0.000000000000000000, 0.000000000000000000 ) ) ;
#89 = DIRECTION ( 'NONE',  ( 0.000000000000000000, 0.000000000000000000, -1.000000000000000000 ) ) ;
#90 = DIRECTION ( 'NONE',  ( -0.000000000000000000, -1.000000000000000000, -0.000000000000000000 ) ) ;
#91 = PLANE ( 'NONE',  #185 ) ;
#92 = PRESENTATION_LAYER_ASSIGNMENT (  '', '', ( #63 ) ) ;
#93 = AXIS2_PLACEMENT_3D ( 'NONE', #177, #15, #105 ) ;
#94 =( NAMED_UNIT ( * ) PLANE_ANGLE_UNIT ( ) SI_UNIT ( $, .RADIAN. ) );
#95 = ADVANCED_FACE ( 'NONE', ( #73 ), #48, .T. ) ;
#96 = FACE_OUTER_BOUND ( 'NONE', #277, .T. ) ;
#97 = APPLICATION_PROTOCOL_DEFINITION ( 'draft international standard', 'automotive_design', 1998, #36 ) ;
#98 = PRESENTATION_LAYER_ASSIGNMENT (  '', '', ( #258 ) ) ;
#99 = UNCERTAINTY_MEASURE_WITH_UNIT (LENGTH_MEASURE( 1.000000000000000082E-05 ), #208, 'distance_accuracy_value', 'NONE');
#100 = DIRECTION ( 'NONE',  ( -0.000000000000000000, -1.000000000000000000, -0.000000000000000000 ) ) ;
#101 = UNCERTAINTY_MEASURE_WITH_UNIT (LENGTH_MEASURE( 1.000000000000000082E-05 ), #20, 'distance_accuracy_value', 'NONE');
#102 = PRESENTATION_LAYER_ASSIGNMENT (  '', '', ( #284 ) ) ;
#103 = PLANE ( 'NONE',  #157 ) ;
#104 = CARTESIAN_POINT ( 'NONE',  ( 0.3750000000000000555, 5.000000000000000000, 4.592425496802577300E-17 ) ) ;
#105 = DIRECTION ( 'NONE',  ( 0.000000000000000000, 0.000000000000000000, -1.000000000000000000 ) ) ;
#106 = VERTEX_POINT ( 'NONE', #141 ) ;
#107 = PRESENTATION_LAYER_ASSIGNMENT (  '', '', ( #237 ) ) ;
#108 = CYLINDRICAL_SURFACE ( 'NONE', #114, 0.3750000000000001665 ) ;
#109 = EDGE_CURVE ( 'NONE', #16, #87, #236, .T. ) ;
#110 = ORIENTED_EDGE ( 'NONE', *, *, #275, .F. ) ;
#111 = LENGTH_MEASURE_WITH_UNIT ( LENGTH_MEASURE( 0.02539999999999999897 ), #22 );
#112 =( GEOMETRIC_REPRESENTATION_CONTEXT ( 3 ) GLOBAL_UNCERTAINTY_ASSIGNED_CONTEXT ( ( #213 ) ) GLOBAL_UNIT_ASSIGNED_CONTEXT ( ( #214, #94, #286 ) ) REPRESENTATION_CONTEXT ( 'NONE', 'WORKASPACE' ) );
#113 =( NAMED_UNIT ( * ) PLANE_ANGLE_UNIT ( ) SI_UNIT ( $, .RADIAN. ) );
#114 = AXIS2_PLACEMENT_3D ( 'NONE', #14, #256, #230 ) ;
#115 = CARTESIAN_POINT ( 'NONE',  ( 0.3750000000000000555, 2.750000000000000000, 4.592425496802577300E-17 ) ) ;
#116 = DIRECTION ( 'NONE',  ( -0.000000000000000000, -1.000000000000000000, -0.000000000000000000 ) ) ;
#117 = SURFACE_SIDE_STYLE ('',( #72 ) ) ;
#118 = PRODUCT ( '81417', '81417', '', ( #77 ) ) ;
#119 = EDGE_CURVE ( 'NONE', #285, #226, #288, .T. ) ;
#120 = CARTESIAN_POINT ( 'NONE',  ( -0.3750000000000000555, 2.750000000000000000, 0.000000000000000000 ) ) ;
#121 = MECHANICAL_DESIGN_GEOMETRIC_PRESENTATION_REPRESENTATION (  '', ( #47 ), #172 ) ;
#122 = AXIS2_PLACEMENT_3D ( 'NONE', #276, #250, #37 ) ;
#123 =( CONVERSION_BASED_UNIT ( 'INCH', #124 ) LENGTH_UNIT ( ) NAMED_UNIT ( #219 ) );
#124 = LENGTH_MEASURE_WITH_UNIT ( LENGTH_MEASURE( 0.02539999999999999897 ), #298 );
#125 = FILL_AREA_STYLE_COLOUR ( '', #229 ) ;
#126 = FILL_AREA_STYLE ('',( #217 ) ) ;
#127 = CARTESIAN_POINT ( 'NONE',  ( 0.000000000000000000, 2.750000000000000000, 0.000000000000000000 ) ) ;
#128 = EDGE_CURVE ( 'NONE', #106, #307, #242, .T. ) ;
#129 = AXIS2_PLACEMENT_3D ( 'NONE', #4, #90, #262 ) ;
#130 =( CONVERSION_BASED_UNIT ( 'INCH', #255 ) LENGTH_UNIT ( ) NAMED_UNIT ( #202 ) );
#131 = EDGE_LOOP ( 'NONE', ( #282, #280 ) ) ;
#132 =( NAMED_UNIT ( * ) SI_UNIT ( $, .STERADIAN. ) SOLID_ANGLE_UNIT ( ) );
#133 = ORIENTED_EDGE ( 'NONE', *, *, #23, .F. ) ;
#134 = LINE ( 'NONE', #302, #10 ) ;
#135 = ORIENTED_EDGE ( 'NONE', *, *, #271, .F. ) ;
#136 = AXIS2_PLACEMENT_3D ( 'NONE', #171, #194, #220 ) ;
#137 = DIRECTION ( 'NONE',  ( 0.000000000000000000, -0.000000000000000000, 1.000000000000000000 ) ) ;
#138 = EDGE_LOOP ( 'NONE', ( #19, #62 ) ) ;
#139 = LENGTH_MEASURE_WITH_UNIT ( LENGTH_MEASURE( 0.02539999999999999897 ), #24 );
#140 = FACE_OUTER_BOUND ( 'NONE', #49, .T. ) ;
#141 = CARTESIAN_POINT ( 'NONE',  ( 0.000000000000000000, 0.000000000000000000, -0.3750000000000000555 ) ) ;
#142 = MECHANICAL_DESIGN_GEOMETRIC_PRESENTATION_REPRESENTATION (  '', ( #273 ), #294 ) ;
#143 = DIRECTION ( 'NONE',  ( -1.000000000000000000, 0.000000000000000000, 0.000000000000000000 ) ) ;
#144 = LENGTH_MEASURE_WITH_UNIT ( LENGTH_MEASURE( 0.02539999999999999897 ), #297 );
#145 = AXIS2_PLACEMENT_3D ( 'NONE', #240, #239, #143 ) ;
#146 = PRODUCT_DEFINITION_FORMATION_WITH_SPECIFIED_SOURCE ( 'ANY', '', #118, .NOT_KNOWN. ) ;
#147 = SHAPE_DEFINITION_REPRESENTATION ( #60, #268 ) ;
#148 = CARTESIAN_POINT ( 'NONE',  ( 0.3749999999999998890, 5.000000000000000000, 4.592425496802576684E-17 ) ) ;
#149 = EDGE_CURVE ( 'NONE', #226, #106, #189, .T. ) ;
#150 = PRODUCT_DEFINITION_CONTEXT ( 'detailed design', #36, 'design' ) ;
#151 = DIRECTION ( 'NONE',  ( -1.088574932575424895E-16, 1.000000000000000000, -0.000000000000000000 ) ) ;
#152 = DIRECTION ( 'NONE',  ( -1.088574932575424772E-16, 1.000000000000000000, -0.000000000000000000 ) ) ;
#153 = ADVANCED_FACE ( 'NONE', ( #270 ), #78, .T. ) ;
#154 =( LENGTH_UNIT ( ) NAMED_UNIT ( * ) SI_UNIT ( $, .METRE. ) );
#155 = FILL_AREA_STYLE_COLOUR ( '', #30 ) ;
#156 = AXIS2_PLACEMENT_3D ( 'NONE', #168, #116, #212 ) ;
#157 = AXIS2_PLACEMENT_3D ( 'NONE', #201, #176, #39 ) ;
#158 = PRESENTATION_STYLE_ASSIGNMENT (( #281 ) ) ;
#159 = DIRECTION ( 'NONE',  ( -0.000000000000000000, -1.000000000000000000, -0.000000000000000000 ) ) ;
#160 = LENGTH_MEASURE_WITH_UNIT ( LENGTH_MEASURE( 0.02539999999999999897 ), #227 );
#161 = CARTESIAN_POINT ( 'NONE',  ( 2.221866344684232429E-33, 2.750000000000000000, 0.000000000000000000 ) ) ;
#162 = EDGE_CURVE ( 'NONE', #309, #233, #56, .T. ) ;
#163 = UNCERTAINTY_MEASURE_WITH_UNIT (LENGTH_MEASURE( 1.000000000000000082E-05 ), #130, 'distance_accuracy_value', 'NONE');
#164 = SURFACE_SIDE_STYLE ('',( #198 ) ) ;
#165 = FILL_AREA_STYLE ('',( #192 ) ) ;
#166 = MANIFOLD_SOLID_BREP ( 'Revolve - Cutting Edge', #38 ) ;
#167 = FACE_OUTER_BOUND ( 'NONE', #131, .T. ) ;
#168 = CARTESIAN_POINT ( 'NONE',  ( 0.000000000000000000, 2.750000000000000000, 0.000000000000000000 ) ) ;
#169 = SURFACE_SIDE_STYLE ('',( #224 ) ) ;
#170 = CIRCLE ( 'NONE', #122, 0.3750000000000000555 ) ;
#171 = CARTESIAN_POINT ( 'NONE',  ( 0.000000000000000000, 0.000000000000000000, 0.000000000000000000 ) ) ;
#172 =( GEOMETRIC_REPRESENTATION_CONTEXT ( 3 ) GLOBAL_UNCERTAINTY_ASSIGNED_CONTEXT ( ( #269 ) ) GLOBAL_UNIT_ASSIGNED_CONTEXT ( ( #33, #244, #80 ) ) REPRESENTATION_CONTEXT ( 'NONE', 'WORKASPACE' ) );
#173 = EDGE_CURVE ( 'NONE', #309, #16, #40, .T. ) ;
#174 = UNCERTAINTY_MEASURE_WITH_UNIT (LENGTH_MEASURE( 1.000000000000000082E-05 ), #67, 'distance_accuracy_value', 'NONE');
#175 = PRESENTATION_STYLE_ASSIGNMENT (( #197 ) ) ;
#176 = DIRECTION ( 'NONE',  ( 0.000000000000000000, -1.000000000000000000, -0.000000000000000000 ) ) ;
#177 = CARTESIAN_POINT ( 'NONE',  ( 0.000000000000000000, 2.750000000000000000, 0.000000000000000000 ) ) ;
#178 = PRODUCT_DEFINITION ( 'UNKNOWN', '', #146, #150 ) ;
#179 = ORIENTED_EDGE ( 'NONE', *, *, #128, .F. ) ;
#180 = FILL_AREA_STYLE_COLOUR ( '', #211 ) ;
#181 = ORIENTED_EDGE ( 'NONE', *, *, #173, .T. ) ;
#182 = PRESENTATION_STYLE_ASSIGNMENT (( #45 ) ) ;
#183 =( NAMED_UNIT ( * ) PLANE_ANGLE_UNIT ( ) SI_UNIT ( $, .RADIAN. ) );
#184 = ORIENTED_EDGE ( 'NONE', *, *, #109, .T. ) ;
#185 = AXIS2_PLACEMENT_3D ( 'NONE', #27, #241, #74 ) ;
#186 = AXIS2_PLACEMENT_3D ( 'NONE', #161, #306, #232 ) ;
#187 = SURFACE_STYLE_USAGE ( .BOTH. , #164 ) ;
#188 = CARTESIAN_POINT ( 'NONE',  ( -0.3750000000000005551, 5.000000000000000000, 0.000000000000000000 ) ) ;
#189 = LINE ( 'NONE', #274, #283 ) ;
#190 = PLANE ( 'NONE',  #186 ) ;
#191 =( GEOMETRIC_REPRESENTATION_CONTEXT ( 3 ) GLOBAL_UNCERTAINTY_ASSIGNED_CONTEXT ( ( #57 ) ) GLOBAL_UNIT_ASSIGNED_CONTEXT ( ( #123, #9, #11 ) ) REPRESENTATION_CONTEXT ( 'NONE', 'WORKASPACE' ) );
#192 = FILL_AREA_STYLE_COLOUR ( '', #29 ) ;
#193 = ORIENTED_EDGE ( 'NONE', *, *, #162, .F. ) ;
#194 = DIRECTION ( 'NONE',  ( -0.000000000000000000, -1.000000000000000000, -0.000000000000000000 ) ) ;
#195 = AXIS2_PLACEMENT_3D ( 'NONE', #28, #209, #89 ) ;
#196 = DIMENSIONAL_EXPONENTS ( 1.000000000000000000, 0.000000000000000000, 0.000000000000000000, 0.000000000000000000, 0.000000000000000000, 0.000000000000000000, 0.000000000000000000 ) ;
#197 = SURFACE_STYLE_USAGE ( .BOTH. , #169 ) ;
#198 = SURFACE_STYLE_FILL_AREA ( #44 ) ;
#199 = AXIS2_PLACEMENT_3D ( 'NONE', #88, #287, #6 ) ;
#200 = AXIS2_PLACEMENT_3D ( 'NONE', #247, #152, #31 ) ;
#201 = CARTESIAN_POINT ( 'NONE',  ( 0.000000000000000000, 0.000000000000000000, 0.000000000000000000 ) ) ;
#202 = DIMENSIONAL_EXPONENTS ( 1.000000000000000000, 0.000000000000000000, 0.000000000000000000, 0.000000000000000000, 0.000000000000000000, 0.000000000000000000, 0.000000000000000000 ) ;
#203 = SURFACE_STYLE_FILL_AREA ( #225 ) ;
#204 = ORIENTED_EDGE ( 'NONE', *, *, #2, .F. ) ;
#205 = CARTESIAN_POINT ( 'NONE',  ( 0.000000000000000000, 2.750000000000000000, -0.3750000000000000555 ) ) ;
#206 = ORIENTED_EDGE ( 'NONE', *, *, #162, .T. ) ;
#207 = ADVANCED_FACE ( 'NONE', ( #96 ), #292, .T. ) ;
#208 =( CONVERSION_BASED_UNIT ( 'INCH', #139 ) LENGTH_UNIT ( ) NAMED_UNIT ( #71 ) );
#209 = DIRECTION ( 'NONE',  ( -0.000000000000000000, -1.000000000000000000, -0.000000000000000000 ) ) ;
#210 = CIRCLE ( 'NONE', #1, 0.3750000000000002776 ) ;
#211 = COLOUR_RGB ( '',1.000000000000000000, 0.000000000000000000, 0.000000000000000000 ) ;
#212 = DIRECTION ( 'NONE',  ( 0.000000000000000000, 0.000000000000000000, -1.000000000000000000 ) ) ;
#213 = UNCERTAINTY_MEASURE_WITH_UNIT (LENGTH_MEASURE( 1.000000000000000082E-05 ), #214, 'distance_accuracy_value', 'NONE');
#214 =( CONVERSION_BASED_UNIT ( 'INCH', #111 ) LENGTH_UNIT ( ) NAMED_UNIT ( #196 ) );
#215 = APPLICATION_CONTEXT ( 'automotive_design' ) ;
#216 = DIRECTION ( 'NONE',  ( -1.088574932575424772E-16, 1.000000000000000000, -0.000000000000000000 ) ) ;
#217 = FILL_AREA_STYLE_COLOUR ( '', #52 ) ;
#218 = ADVANCED_FACE ( 'NONE', ( #300 ), #108, .T. ) ;
#219 = DIMENSIONAL_EXPONENTS ( 1.000000000000000000, 0.000000000000000000, 0.000000000000000000, 0.000000000000000000, 0.000000000000000000, 0.000000000000000000, 0.000000000000000000 ) ;
#220 = DIRECTION ( 'NONE',  ( 0.000000000000000000, 0.000000000000000000, -1.000000000000000000 ) ) ;
#221 = CIRCLE ( 'NONE', #251, 0.3750000000000002776 ) ;
#222 =( GEOMETRIC_REPRESENTATION_CONTEXT ( 3 ) GLOBAL_UNCERTAINTY_ASSIGNED_CONTEXT ( ( #174 ) ) GLOBAL_UNIT_ASSIGNED_CONTEXT ( ( #67, #183, #46 ) ) REPRESENTATION_CONTEXT ( 'NONE', 'WORKASPACE' ) );
#223 = EDGE_CURVE ( 'NONE', #16, #309, #170, .T. ) ;
#224 = SURFACE_STYLE_FILL_AREA ( #34 ) ;
#225 = FILL_AREA_STYLE ('',( #180 ) ) ;
#226 = VERTEX_POINT ( 'NONE', #205 ) ;
#227 =( LENGTH_UNIT ( ) NAMED_UNIT ( * ) SI_UNIT ( $, .METRE. ) );
#228 = ORIENTED_EDGE ( 'NONE', *, *, #173, .F. ) ;
#229 = COLOUR_RGB ( '',1.000000000000000000, 0.000000000000000000, 0.000000000000000000 ) ;
#230 = DIRECTION ( 'NONE',  ( -1.000000000000000000, 0.000000000000000000, 0.000000000000000000 ) ) ;
#231 = ADVANCED_FACE ( 'NONE', ( #305 ), #103, .T. ) ;
#232 = DIRECTION ( 'NONE',  ( -1.000000000000000000, -1.088574932575424895E-16, 0.000000000000000000 ) ) ;
#233 = VERTEX_POINT ( 'NONE', #104 ) ;
#234 = ORIENTED_EDGE ( 'NONE', *, *, #119, .T. ) ;
#235 = CARTESIAN_POINT ( 'NONE',  ( 4.592425496802575451E-17, 0.000000000000000000, 0.3750000000000000555 ) ) ;
#236 = LINE ( 'NONE', #289, #257 ) ;
#237 = STYLED_ITEM ( 'NONE', ( #32 ), #153 ) ;
#238 =( GEOMETRIC_REPRESENTATION_CONTEXT ( 3 ) GLOBAL_UNCERTAINTY_ASSIGNED_CONTEXT ( ( #99 ) ) GLOBAL_UNIT_ASSIGNED_CONTEXT ( ( #208, #113, #291 ) ) REPRESENTATION_CONTEXT ( 'NONE', 'WORKASPACE' ) );
#239 = DIRECTION ( 'NONE',  ( -1.088574932575424772E-16, 1.000000000000000000, -0.000000000000000000 ) ) ;
#240 = CARTESIAN_POINT ( 'NONE',  ( -2.449293598294705921E-16, 5.000000000000000000, 0.000000000000000000 ) ) ;
#241 = DIRECTION ( 'NONE',  ( 1.088574932575424895E-16, -1.000000000000000000, 0.000000000000000000 ) ) ;
#242 = CIRCLE ( 'NONE', #129, 0.3750000000000000555 ) ;
#243 =( GEOMETRIC_REPRESENTATION_CONTEXT ( 3 ) GLOBAL_UNCERTAINTY_ASSIGNED_CONTEXT ( ( #163 ) ) GLOBAL_UNIT_ASSIGNED_CONTEXT ( ( #130, #254, #132 ) ) REPRESENTATION_CONTEXT ( 'NONE', 'WORKASPACE' ) );
#244 =( NAMED_UNIT ( * ) PLANE_ANGLE_UNIT ( ) SI_UNIT ( $, .RADIAN. ) );
#245 = SURFACE_STYLE_USAGE ( .BOTH. , #58 ) ;
#246 = DIMENSIONAL_EXPONENTS ( 1.000000000000000000, 0.000000000000000000, 0.000000000000000000, 0.000000000000000000, 0.000000000000000000, 0.000000000000000000, 0.000000000000000000 ) ;
#247 = CARTESIAN_POINT ( 'NONE',  ( 3.032960542342103792E-32, 2.750000000000000000, 0.000000000000000000 ) ) ;
#248 = SURFACE_STYLE_FILL_AREA ( #126 ) ;
#249 = DIMENSIONAL_EXPONENTS ( 1.000000000000000000, 0.000000000000000000, 0.000000000000000000, 0.000000000000000000, 0.000000000000000000, 0.000000000000000000, 0.000000000000000000 ) ;
#250 = DIRECTION ( 'NONE',  ( -1.088574932575424772E-16, 1.000000000000000000, -0.000000000000000000 ) ) ;
#251 = AXIS2_PLACEMENT_3D ( 'NONE', #259, #3, #50 ) ;
#252 = ORIENTED_EDGE ( 'NONE', *, *, #271, .T. ) ;
#253 = PRESENTATION_LAYER_ASSIGNMENT (  '', '', ( #273 ) ) ;
#254 =( NAMED_UNIT ( * ) PLANE_ANGLE_UNIT ( ) SI_UNIT ( $, .RADIAN. ) );
#255 = LENGTH_MEASURE_WITH_UNIT ( LENGTH_MEASURE( 0.02539999999999999897 ), #154 );
#256 = DIRECTION ( 'NONE',  ( -1.088574932575424772E-16, 1.000000000000000000, -0.000000000000000000 ) ) ;
#257 = VECTOR ( 'NONE', #260, 39.37007874015748143 ) ;
#258 = STYLED_ITEM ( 'NONE', ( #182 ), #207 ) ;
#259 = CARTESIAN_POINT ( 'NONE',  ( -2.449293598294705921E-16, 5.000000000000000000, 0.000000000000000000 ) ) ;
#260 = DIRECTION ( 'NONE',  ( -1.088574932575424895E-16, 1.000000000000000000, -0.000000000000000000 ) ) ;
#261 = MECHANICAL_DESIGN_GEOMETRIC_PRESENTATION_REPRESENTATION (  '', ( #63 ), #112 ) ;
#262 = DIRECTION ( 'NONE',  ( 0.000000000000000000, 0.000000000000000000, -1.000000000000000000 ) ) ;
#263 = DIRECTION ( 'NONE',  ( 1.000000000000000000, 0.000000000000000000, 0.000000000000000000 ) ) ;
#264 = CARTESIAN_POINT ( 'NONE',  ( -2.449293598294705921E-16, 5.000000000000000000, 0.000000000000000000 ) ) ;
#265 = CYLINDRICAL_SURFACE ( 'NONE', #195, 0.3750000000000000555 ) ;
#266 = CARTESIAN_POINT ( 'NONE',  ( 0.000000000000000000, 0.000000000000000000, 0.000000000000000000 ) ) ;
#267 = FILL_AREA_STYLE ('',( #125 ) ) ;
#268 = ADVANCED_BREP_SHAPE_REPRESENTATION ( '81417', ( #166, #279, #278 ), #238 ) ;
#269 = UNCERTAINTY_MEASURE_WITH_UNIT (LENGTH_MEASURE( 1.000000000000000082E-05 ), #33, 'distance_accuracy_value', 'NONE');
#270 = FACE_OUTER_BOUND ( 'NONE', #83, .T. ) ;
#271 = EDGE_CURVE ( 'NONE', #226, #285, #299, .T. ) ;
#272 = COLOUR_RGB ( '',0.7921568627450980005, 0.8196078431372548767, 0.9333333333333333481 ) ;
#273 = STYLED_ITEM ( 'NONE', ( #158 ), #231 ) ;
#274 = CARTESIAN_POINT ( 'NONE',  ( 0.000000000000000000, 0.000000000000000000, -0.3750000000000000555 ) ) ;
#275 = EDGE_CURVE ( 'NONE', #285, #307, #134, .T. ) ;
#276 = CARTESIAN_POINT ( 'NONE',  ( 3.032960542342103792E-32, 2.750000000000000000, 0.000000000000000000 ) ) ;
#277 = EDGE_LOOP ( 'NONE', ( #135, #85 ) ) ;
#278 = AXIS2_PLACEMENT_3D ( 'NONE', #266, #54, #263 ) ;
#279 = MANIFOLD_SOLID_BREP ( 'Revolve - Tool Body (Straight Shanked)', #18 ) ;
#280 = ORIENTED_EDGE ( 'NONE', *, *, #2, .T. ) ;
#281 = SURFACE_STYLE_USAGE ( .BOTH. , #61 ) ;
#282 = ORIENTED_EDGE ( 'NONE', *, *, #23, .T. ) ;
#283 = VECTOR ( 'NONE', #100, 39.37007874015748143 ) ;
#284 = STYLED_ITEM ( 'NONE', ( #84 ), #279 ) ;
#285 = VERTEX_POINT ( 'NONE', #25 ) ;
#286 =( NAMED_UNIT ( * ) SI_UNIT ( $, .STERADIAN. ) SOLID_ANGLE_UNIT ( ) );
#287 = DIRECTION ( 'NONE',  ( -0.000000000000000000, -1.000000000000000000, -0.000000000000000000 ) ) ;
#288 = CIRCLE ( 'NONE', #156, 0.3750000000000000555 ) ;
#289 = CARTESIAN_POINT ( 'NONE',  ( -0.3750000000000004441, 5.000000000000000000, 0.000000000000000000 ) ) ;
#290 = PRESENTATION_STYLE_ASSIGNMENT (( #75 ) ) ;
#291 =( NAMED_UNIT ( * ) SI_UNIT ( $, .STERADIAN. ) SOLID_ANGLE_UNIT ( ) );
#292 = PLANE ( 'NONE',  #53 ) ;
#293 = CIRCLE ( 'NONE', #199, 0.3750000000000000555 ) ;
#295 = ADVANCED_FACE ( 'NONE', ( #140 ), #190, .F. ) ;
#294 =( GEOMETRIC_REPRESENTATION_CONTEXT ( 3 ) GLOBAL_UNCERTAINTY_ASSIGNED_CONTEXT ( ( #101 ) ) GLOBAL_UNIT_ASSIGNED_CONTEXT ( ( #20, #81, #308 ) ) REPRESENTATION_CONTEXT ( 'NONE', 'WORKASPACE' ) );
#296 = FILL_AREA_STYLE_COLOUR ( '', #272 ) ;
#297 =( LENGTH_UNIT ( ) NAMED_UNIT ( * ) SI_UNIT ( $, .METRE. ) );
#298 =( LENGTH_UNIT ( ) NAMED_UNIT ( * ) SI_UNIT ( $, .METRE. ) );
#299 = CIRCLE ( 'NONE', #93, 0.3750000000000000555 ) ;
#300 = FACE_OUTER_BOUND ( 'NONE', #41, .T. ) ;
#301 = DIRECTION ( 'NONE',  ( 0.000000000000000000, 1.000000000000000000, 0.000000000000000000 ) ) ;
#302 = CARTESIAN_POINT ( 'NONE',  ( 4.592425496802575451E-17, 0.000000000000000000, 0.3750000000000000555 ) ) ;
#303 =( LENGTH_UNIT ( ) NAMED_UNIT ( * ) SI_UNIT ( $, .METRE. ) );
#304 = ORIENTED_EDGE ( 'NONE', *, *, #149, .T. ) ;
#305 = FACE_OUTER_BOUND ( 'NONE', #138, .T. ) ;
#306 = DIRECTION ( 'NONE',  ( -1.088574932575424895E-16, 1.000000000000000000, 0.000000000000000000 ) ) ;
#307 = VERTEX_POINT ( 'NONE', #235 ) ;
#308 =( NAMED_UNIT ( * ) SI_UNIT ( $, .STERADIAN. ) SOLID_ANGLE_UNIT ( ) );
#309 = VERTEX_POINT ( 'NONE', #115 ) ;
ENDSEC;
END-ISO-10303-21;
