ISO-10303-21;
HEADER;
FILE_DESCRIPTION (( 'STEP AP214' ),
    '1' );
FILE_NAME ('83189.STEP',
    '2023-06-23T08:04:30',
    ( '' ),
    ( '' ),
    'SwSTEP 2.0',
    'SolidWorks 2023',
    '' );
FILE_SCHEMA (( 'AUTOMOTIVE_DESIGN' ));
ENDSEC;

DATA;
#1 = PRODUCT_DEFINITION ( 'UNKNOWN', '', #283, #138 ) ;
#2 = CIRCLE ( 'NONE', #92, 0.07810000000000000275 ) ;
#3 = SURFACE_STYLE_USAGE ( .BOTH. , #312 ) ;
#4 =( GEOMETRIC_REPRESENTATION_CONTEXT ( 3 ) GLOBAL_UNCERTAINTY_ASSIGNED_CONTEXT ( ( #257 ) ) GLOBAL_UNIT_ASSIGNED_CONTEXT ( ( #33, #315, #281 ) ) REPRESENTATION_CONTEXT ( 'NONE', 'WORKASPACE' ) );
#5 = PRESENTATION_STYLE_ASSIGNMENT (( #112 ) ) ;
#6 = CARTESIAN_POINT ( 'NONE',  ( 0.000000000000000000, 0.000000000000000000, 0.000000000000000000 ) ) ;
#7 = DIRECTION ( 'NONE',  ( -1.000000000000000000, 0.000000000000000000, 0.000000000000000000 ) ) ;
#8 = CARTESIAN_POINT ( 'NONE',  ( -0.09375000000000004163, 2.500000000000000000, 0.000000000000000000 ) ) ;
#9 = AXIS2_PLACEMENT_3D ( 'NONE', #142, #249, #160 ) ;
#10 = DIRECTION ( 'NONE',  ( -1.000000000000000000, 0.000000000000000000, 0.000000000000000000 ) ) ;
#11 = SURFACE_SIDE_STYLE ('',( #319 ) ) ;
#12 = FACE_OUTER_BOUND ( 'NONE', #189, .T. ) ;
#13 = STYLED_ITEM ( 'NONE', ( #99 ), #169 ) ;
#14 = LENGTH_MEASURE_WITH_UNIT ( LENGTH_MEASURE( 0.02539999999999999897 ), #206 );
#15 = FILL_AREA_STYLE_COLOUR ( '', #178 ) ;
#16 = MECHANICAL_DESIGN_GEOMETRIC_PRESENTATION_REPRESENTATION (  '', ( #13 ), #157 ) ;
#17 = SURFACE_SIDE_STYLE ('',( #295 ) ) ;
#18 = FILL_AREA_STYLE_COLOUR ( '', #347 ) ;
#19 = ORIENTED_EDGE ( 'NONE', *, *, #218, .F. ) ;
#20 = LINE ( 'NONE', #74, #232 ) ;
#21 = FILL_AREA_STYLE_COLOUR ( '', #258 ) ;
#22 = SURFACE_STYLE_FILL_AREA ( #126 ) ;
#23 = LINE ( 'NONE', #296, #226 ) ;
#24 = FACE_OUTER_BOUND ( 'NONE', #324, .T. ) ;
#25 = PLANE ( 'NONE',  #341 ) ;
#26 = MECHANICAL_DESIGN_GEOMETRIC_PRESENTATION_REPRESENTATION (  '', ( #141 ), #4 ) ;
#27 = CARTESIAN_POINT ( 'NONE',  ( -6.123233995736766036E-17, 2.500000000000000000, 0.000000000000000000 ) ) ;
#28 = DIRECTION ( 'NONE',  ( 0.000000000000000000, -0.000000000000000000, 1.000000000000000000 ) ) ;
#29 = ORIENTED_EDGE ( 'NONE', *, *, #318, .F. ) ;
#30 = ORIENTED_EDGE ( 'NONE', *, *, #35, .T. ) ;
#31 = DIRECTION ( 'NONE',  ( -2.968840725205704707E-17, 1.000000000000000000, -0.000000000000000000 ) ) ;
#32 = ORIENTED_EDGE ( 'NONE', *, *, #216, .F. ) ;
#33 =( CONVERSION_BASED_UNIT ( 'INCH', #87 ) LENGTH_UNIT ( ) NAMED_UNIT ( #181 ) );
#34 = CLOSED_SHELL ( 'NONE', ( #329, #169, #151, #200 ) ) ;
#35 = EDGE_CURVE ( 'NONE', #357, #250, #320, .T. ) ;
#36 = DIRECTION ( 'NONE',  ( -2.968840725205704707E-17, 1.000000000000000000, -0.000000000000000000 ) ) ;
#37 = AXIS2_PLACEMENT_3D ( 'NONE', #139, #273, #111 ) ;
#38 = CARTESIAN_POINT ( 'NONE',  ( -0.09374999999999994449, 0.4804980216144644212, 0.000000000000000000 ) ) ;
#39 = DIRECTION ( 'NONE',  ( -0.000000000000000000, -1.000000000000000000, -0.000000000000000000 ) ) ;
#40 = DIRECTION ( 'NONE',  ( -0.000000000000000000, -1.000000000000000000, -0.000000000000000000 ) ) ;
#41 = SURFACE_SIDE_STYLE ('',( #203 ) ) ;
#42 = DIRECTION ( 'NONE',  ( -1.000000000000000000, 0.000000000000000000, 0.000000000000000000 ) ) ;
#43 = CARTESIAN_POINT ( 'NONE',  ( 0.09374999999999994449, 2.500000000000000000, 0.000000000000000000 ) ) ;
#44 =( NAMED_UNIT ( * ) SI_UNIT ( $, .STERADIAN. ) SOLID_ANGLE_UNIT ( ) );
#45 = CIRCLE ( 'NONE', #246, 0.09375000000000001388 ) ;
#46 = PRODUCT_RELATED_PRODUCT_CATEGORY ( 'part', '', ( #284 ) ) ;
#47 = CARTESIAN_POINT ( 'NONE',  ( 0.000000000000000000, 0.4375000000000000000, 0.000000000000000000 ) ) ;
#48 = FILL_AREA_STYLE ('',( #356 ) ) ;
#49 = VERTEX_POINT ( 'NONE', #149 ) ;
#50 = AXIS2_PLACEMENT_3D ( 'NONE', #358, #161, #130 ) ;
#51 = DIRECTION ( 'NONE',  ( 0.000000000000000000, 0.000000000000000000, -1.000000000000000000 ) ) ;
#52 = DIRECTION ( 'NONE',  ( -1.000000000000000000, 0.000000000000000000, 0.000000000000000000 ) ) ;
#53 = EDGE_CURVE ( 'NONE', #250, #56, #252, .T. ) ;
#54 = DIRECTION ( 'NONE',  ( -0.000000000000000000, -1.000000000000000000, -0.000000000000000000 ) ) ;
#55 =( CONVERSION_BASED_UNIT ( 'INCH', #108 ) LENGTH_UNIT ( ) NAMED_UNIT ( #71 ) );
#56 = VERTEX_POINT ( 'NONE', #342 ) ;
#57 = CARTESIAN_POINT ( 'NONE',  ( 7.582401355855259480E-33, 0.4374999999999998890, 0.000000000000000000 ) ) ;
#58 = ORIENTED_EDGE ( 'NONE', *, *, #236, .F. ) ;
#59 = PRESENTATION_LAYER_ASSIGNMENT (  '', '', ( #13 ) ) ;
#60 = PRESENTATION_LAYER_ASSIGNMENT (  '', '', ( #141 ) ) ;
#61 = CYLINDRICAL_SURFACE ( 'NONE', #67, 0.09374999999999997224 ) ;
#62 = UNCERTAINTY_MEASURE_WITH_UNIT (LENGTH_MEASURE( 1.000000000000000082E-05 ), #222, 'distance_accuracy_value', 'NONE');
#63 = AXIS2_PLACEMENT_3D ( 'NONE', #217, #353, #213 ) ;
#64 = UNCERTAINTY_MEASURE_WITH_UNIT (LENGTH_MEASURE( 1.000000000000000082E-05 ), #201, 'distance_accuracy_value', 'NONE');
#65 = ADVANCED_FACE ( 'NONE', ( #12 ), #61, .T. ) ;
#66 = ORIENTED_EDGE ( 'NONE', *, *, #119, .F. ) ;
#67 = AXIS2_PLACEMENT_3D ( 'NONE', #176, #148, #154 ) ;
#68 = APPLICATION_CONTEXT ( 'automotive_design' ) ;
#69 = MANIFOLD_SOLID_BREP ( 'Revolve - Cutting Edge', #34 ) ;
#70 = MANIFOLD_SOLID_BREP ( 'Revolve - Tool Body (Reduced Cut Diameter)', #78 ) ;
#71 = DIMENSIONAL_EXPONENTS ( 1.000000000000000000, 0.000000000000000000, 0.000000000000000000, 0.000000000000000000, 0.000000000000000000, 0.000000000000000000, 0.000000000000000000 ) ;
#72 = DIRECTION ( 'NONE',  ( -2.968840725205704707E-17, 1.000000000000000000, 0.000000000000000000 ) ) ;
#73 = DIRECTION ( 'NONE',  ( 0.000000000000000000, 0.000000000000000000, -1.000000000000000000 ) ) ;
#74 = CARTESIAN_POINT ( 'NONE',  ( -0.07810000000000000275, 0.4374999999999998890, 0.000000000000000000 ) ) ;
#75 = CARTESIAN_POINT ( 'NONE',  ( 9.564491501340828324E-18, 0.4375000000000000000, 0.07810000000000000275 ) ) ;
#76 = ORIENTED_EDGE ( 'NONE', *, *, #156, .F. ) ;
#77 = CARTESIAN_POINT ( 'NONE',  ( 0.000000000000000000, 0.000000000000000000, 0.000000000000000000 ) ) ;
#78 = CLOSED_SHELL ( 'NONE', ( #182, #102, #228, #132, #65, #260 ) ) ;
#79 = MECHANICAL_DESIGN_GEOMETRIC_PRESENTATION_REPRESENTATION (  '', ( #254 ), #190 ) ;
#80 = CARTESIAN_POINT ( 'NONE',  ( 0.09374999999999994449, 2.500000000000000000, 1.148106374200643401E-17 ) ) ;
#81 =( NAMED_UNIT ( * ) SI_UNIT ( $, .STERADIAN. ) SOLID_ANGLE_UNIT ( ) );
#82 = EDGE_LOOP ( 'NONE', ( #109, #279 ) ) ;
#83 = PRESENTATION_LAYER_ASSIGNMENT (  '', '', ( #288 ) ) ;
#84 = ORIENTED_EDGE ( 'NONE', *, *, #125, .F. ) ;
#85 = CARTESIAN_POINT ( 'NONE',  ( -1.276542776722964990E-18, 0.4804980216144644212, 0.000000000000000000 ) ) ;
#86 = LINE ( 'NONE', #186, #239 ) ;
#87 = LENGTH_MEASURE_WITH_UNIT ( LENGTH_MEASURE( 0.02539999999999999897 ), #90 );
#88 =( CONVERSION_BASED_UNIT ( 'INCH', #14 ) LENGTH_UNIT ( ) NAMED_UNIT ( #231 ) );
#89 = CARTESIAN_POINT ( 'NONE',  ( 0.000000000000000000, 0.000000000000000000, -0.07810000000000000275 ) ) ;
#90 =( LENGTH_UNIT ( ) NAMED_UNIT ( * ) SI_UNIT ( $, .METRE. ) );
#91 = EDGE_LOOP ( 'NONE', ( #335, #244 ) ) ;
#92 = AXIS2_PLACEMENT_3D ( 'NONE', #57, #278, #280 ) ;
#93 = EDGE_CURVE ( 'NONE', #162, #334, #110, .T. ) ;
#94 = LENGTH_MEASURE_WITH_UNIT ( LENGTH_MEASURE( 0.02539999999999999897 ), #150 );
#95 = AXIS2_PLACEMENT_3D ( 'NONE', #163, #277, #28 ) ;
#96 = UNCERTAINTY_MEASURE_WITH_UNIT (LENGTH_MEASURE( 1.000000000000000082E-05 ), #303, 'distance_accuracy_value', 'NONE');
#97 = FACE_OUTER_BOUND ( 'NONE', #215, .T. ) ;
#98 = UNCERTAINTY_MEASURE_WITH_UNIT (LENGTH_MEASURE( 1.000000000000000082E-05 ), #55, 'distance_accuracy_value', 'NONE');
#99 = PRESENTATION_STYLE_ASSIGNMENT (( #255 ) ) ;
#100 = DIMENSIONAL_EXPONENTS ( 1.000000000000000000, 0.000000000000000000, 0.000000000000000000, 0.000000000000000000, 0.000000000000000000, 0.000000000000000000, 0.000000000000000000 ) ;
#101 = AXIS2_PLACEMENT_3D ( 'NONE', #47, #207, #120 ) ;
#102 = ADVANCED_FACE ( 'NONE', ( #166 ), #351, .T. ) ;
#103 = DIRECTION ( 'NONE',  ( -0.3420201433256700452, 0.9396926207859079838, 0.000000000000000000 ) ) ;
#104 = MECHANICAL_DESIGN_GEOMETRIC_PRESENTATION_REPRESENTATION (  '', ( #118 ), #146 ) ;
#105 = FACE_OUTER_BOUND ( 'NONE', #276, .T. ) ;
#106 = EDGE_CURVE ( 'NONE', #357, #327, #86, .T. ) ;
#107 = ORIENTED_EDGE ( 'NONE', *, *, #106, .T. ) ;
#108 = LENGTH_MEASURE_WITH_UNIT ( LENGTH_MEASURE( 0.02539999999999999897 ), #241 );
#109 = ORIENTED_EDGE ( 'NONE', *, *, #116, .T. ) ;
#110 = CIRCLE ( 'NONE', #134, 0.07810000000000000275 ) ;
#111 = DIRECTION ( 'NONE',  ( -1.000000000000000000, 0.000000000000000000, 0.000000000000000000 ) ) ;
#112 = SURFACE_STYLE_USAGE ( .BOTH. , #41 ) ;
#113 = EDGE_CURVE ( 'NONE', #282, #49, #2, .T. ) ;
#114 = DIRECTION ( 'NONE',  ( -1.000000000000000000, -2.968840725205704707E-17, 0.000000000000000000 ) ) ;
#115 = PRESENTATION_LAYER_ASSIGNMENT (  '', '', ( #118 ) ) ;
#116 = EDGE_CURVE ( 'NONE', #56, #327, #293, .T. ) ;
#117 = DIRECTION ( 'NONE',  ( -2.968840725205704707E-17, 1.000000000000000000, -0.000000000000000000 ) ) ;
#118 = STYLED_ITEM ( 'NONE', ( #268 ), #69 ) ;
#119 = EDGE_CURVE ( 'NONE', #49, #282, #287, .T. ) ;
#120 = DIRECTION ( 'NONE',  ( 0.000000000000000000, 0.000000000000000000, -1.000000000000000000 ) ) ;
#121 = FACE_OUTER_BOUND ( 'NONE', #123, .T. ) ;
#122 = DIRECTION ( 'NONE',  ( 0.000000000000000000, 0.000000000000000000, -1.000000000000000000 ) ) ;
#123 = EDGE_LOOP ( 'NONE', ( #58, #198 ) ) ;
#124 = PRESENTATION_STYLE_ASSIGNMENT (( #234 ) ) ;
#125 = EDGE_CURVE ( 'NONE', #211, #197, #340, .T. ) ;
#126 = FILL_AREA_STYLE ('',( #18 ) ) ;
#127 = EDGE_LOOP ( 'NONE', ( #187, #330, #271, #221 ) ) ;
#128 = CYLINDRICAL_SURFACE ( 'NONE', #172, 0.07810000000000000275 ) ;
#129 = DIMENSIONAL_EXPONENTS ( 1.000000000000000000, 0.000000000000000000, 0.000000000000000000, 0.000000000000000000, 0.000000000000000000, 0.000000000000000000, 0.000000000000000000 ) ;
#130 = DIRECTION ( 'NONE',  ( -1.000000000000000000, 0.000000000000000000, 0.000000000000000000 ) ) ;
#131 = SURFACE_SIDE_STYLE ('',( #22 ) ) ;
#132 = ADVANCED_FACE ( 'NONE', ( #24 ), #205, .T. ) ;
#133 = ORIENTED_EDGE ( 'NONE', *, *, #318, .T. ) ;
#134 = AXIS2_PLACEMENT_3D ( 'NONE', #245, #331, #51 ) ;
#135 = DIRECTION ( 'NONE',  ( -2.968840725205704707E-17, 1.000000000000000000, -0.000000000000000000 ) ) ;
#136 = LINE ( 'NONE', #332, #302 ) ;
#137 = DIRECTION ( 'NONE',  ( -1.000000000000000000, 0.000000000000000000, 0.000000000000000000 ) ) ;
#138 = PRODUCT_DEFINITION_CONTEXT ( 'detailed design', #147, 'design' ) ;
#139 = CARTESIAN_POINT ( 'NONE',  ( 7.582401355855259480E-33, 0.4374999999999998890, 0.000000000000000000 ) ) ;
#140 = EDGE_LOOP ( 'NONE', ( #171, #107, #233, #155 ) ) ;
#141 = STYLED_ITEM ( 'NONE', ( #354 ), #200 ) ;
#142 = CARTESIAN_POINT ( 'NONE',  ( 7.582401355855259480E-33, 0.4374999999999998890, 0.000000000000000000 ) ) ;
#143 = LINE ( 'NONE', #263, #240 ) ;
#144 = DIRECTION ( 'NONE',  ( 0.000000000000000000, 0.000000000000000000, -1.000000000000000000 ) ) ;
#145 = CARTESIAN_POINT ( 'NONE',  ( 0.000000000000000000, 0.000000000000000000, 0.000000000000000000 ) ) ;
#146 =( GEOMETRIC_REPRESENTATION_CONTEXT ( 3 ) GLOBAL_UNCERTAINTY_ASSIGNED_CONTEXT ( ( #96 ) ) GLOBAL_UNIT_ASSIGNED_CONTEXT ( ( #303, #291, #345 ) ) REPRESENTATION_CONTEXT ( 'NONE', 'WORKASPACE' ) );
#147 = APPLICATION_CONTEXT ( 'automotive_design' ) ;
#148 = DIRECTION ( 'NONE',  ( -2.968840725205704707E-17, 1.000000000000000000, -0.000000000000000000 ) ) ;
#149 = CARTESIAN_POINT ( 'NONE',  ( -0.07810000000000000275, 0.4374999999999998890, 0.000000000000000000 ) ) ;
#150 =( LENGTH_UNIT ( ) NAMED_UNIT ( * ) SI_UNIT ( $, .METRE. ) );
#151 = ADVANCED_FACE ( 'NONE', ( #306 ), #128, .T. ) ;
#152 =( GEOMETRIC_REPRESENTATION_CONTEXT ( 3 ) GLOBAL_UNCERTAINTY_ASSIGNED_CONTEXT ( ( #98 ) ) GLOBAL_UNIT_ASSIGNED_CONTEXT ( ( #55, #310, #352 ) ) REPRESENTATION_CONTEXT ( 'NONE', 'WORKASPACE' ) );
#153 = AXIS2_PLACEMENT_3D ( 'NONE', #43, #326, #348 ) ;
#154 = DIRECTION ( 'NONE',  ( -1.000000000000000000, 0.000000000000000000, 0.000000000000000000 ) ) ;
#155 = ORIENTED_EDGE ( 'NONE', *, *, #53, .F. ) ;
#156 = EDGE_CURVE ( 'NONE', #327, #56, #45, .T. ) ;
#157 =( GEOMETRIC_REPRESENTATION_CONTEXT ( 3 ) GLOBAL_UNCERTAINTY_ASSIGNED_CONTEXT ( ( #64 ) ) GLOBAL_UNIT_ASSIGNED_CONTEXT ( ( #201, #174, #177 ) ) REPRESENTATION_CONTEXT ( 'NONE', 'WORKASPACE' ) );
#158 = ORIENTED_EDGE ( 'NONE', *, *, #113, .F. ) ;
#159 =( CONVERSION_BASED_UNIT ( 'INCH', #185 ) LENGTH_UNIT ( ) NAMED_UNIT ( #129 ) );
#160 = DIRECTION ( 'NONE',  ( -1.000000000000000000, 0.000000000000000000, 0.000000000000000000 ) ) ;
#161 = DIRECTION ( 'NONE',  ( -2.968840725205704707E-17, 1.000000000000000000, -0.000000000000000000 ) ) ;
#162 = VERTEX_POINT ( 'NONE', #75 ) ;
#163 = CARTESIAN_POINT ( 'NONE',  ( 0.000000000000000000, 0.4375000000000000000, 0.000000000000000000 ) ) ;
#164 = AXIS2_PLACEMENT_3D ( 'NONE', #27, #31, #137 ) ;
#165 = FILL_AREA_STYLE ('',( #346 ) ) ;
#166 = FACE_OUTER_BOUND ( 'NONE', #230, .T. ) ;
#167 =( NAMED_UNIT ( * ) SI_UNIT ( $, .STERADIAN. ) SOLID_ANGLE_UNIT ( ) );
#168 = UNCERTAINTY_MEASURE_WITH_UNIT (LENGTH_MEASURE( 1.000000000000000082E-05 ), #159, 'distance_accuracy_value', 'NONE');
#169 = ADVANCED_FACE ( 'NONE', ( #121 ), #305, .T. ) ;
#170 = SURFACE_STYLE_FILL_AREA ( #48 ) ;
#171 = ORIENTED_EDGE ( 'NONE', *, *, #218, .T. ) ;
#172 = AXIS2_PLACEMENT_3D ( 'NONE', #77, #39, #122 ) ;
#173 = AXIS2_PLACEMENT_3D ( 'NONE', #286, #72, #114 ) ;
#174 =( NAMED_UNIT ( * ) PLANE_ANGLE_UNIT ( ) SI_UNIT ( $, .RADIAN. ) );
#175 = EDGE_CURVE ( 'NONE', #282, #357, #136, .T. ) ;
#176 = CARTESIAN_POINT ( 'NONE',  ( -6.123233995736766036E-17, 2.500000000000000000, 0.000000000000000000 ) ) ;
#177 =( NAMED_UNIT ( * ) SI_UNIT ( $, .STERADIAN. ) SOLID_ANGLE_UNIT ( ) );
#178 = COLOUR_RGB ( '',1.000000000000000000, 0.000000000000000000, 0.000000000000000000 ) ;
#179 = COLOUR_RGB ( '',1.000000000000000000, 0.000000000000000000, 0.000000000000000000 ) ;
#180 = ORIENTED_EDGE ( 'NONE', *, *, #113, .T. ) ;
#181 = DIMENSIONAL_EXPONENTS ( 1.000000000000000000, 0.000000000000000000, 0.000000000000000000, 0.000000000000000000, 0.000000000000000000, 0.000000000000000000, 0.000000000000000000 ) ;
#182 = ADVANCED_FACE ( 'NONE', ( #209 ), #199, .T. ) ;
#183 = FILL_AREA_STYLE_COLOUR ( '', #179 ) ;
#184 = AXIS2_PLACEMENT_3D ( 'NONE', #219, #339, #7 ) ;
#185 = LENGTH_MEASURE_WITH_UNIT ( LENGTH_MEASURE( 0.02539999999999999897 ), #301 );
#186 = CARTESIAN_POINT ( 'NONE',  ( 0.09374999999999990286, 2.500000000000000000, 1.148106374200643247E-17 ) ) ;
#187 = ORIENTED_EDGE ( 'NONE', *, *, #242, .F. ) ;
#188 = DIMENSIONAL_EXPONENTS ( 1.000000000000000000, 0.000000000000000000, 0.000000000000000000, 0.000000000000000000, 0.000000000000000000, 0.000000000000000000, 0.000000000000000000 ) ;
#189 = EDGE_LOOP ( 'NONE', ( #308, #30, #316, #76 ) ) ;
#190 =( GEOMETRIC_REPRESENTATION_CONTEXT ( 3 ) GLOBAL_UNCERTAINTY_ASSIGNED_CONTEXT ( ( #168 ) ) GLOBAL_UNIT_ASSIGNED_CONTEXT ( ( #159, #237, #81 ) ) REPRESENTATION_CONTEXT ( 'NONE', 'WORKASPACE' ) );
#191 = CIRCLE ( 'NONE', #101, 0.07810000000000000275 ) ;
#192 = LENGTH_MEASURE_WITH_UNIT ( LENGTH_MEASURE( 0.02539999999999999897 ), #248 );
#193 = PRESENTATION_STYLE_ASSIGNMENT (( #3 ) ) ;
#194 = PRODUCT_CONTEXT ( 'NONE', #68, 'mechanical' ) ;
#195 = EDGE_CURVE ( 'NONE', #197, #211, #343, .T. ) ;
#196 = DIRECTION ( 'NONE',  ( -2.968840725205704707E-17, 1.000000000000000000, -0.000000000000000000 ) ) ;
#197 = VERTEX_POINT ( 'NONE', #300 ) ;
#198 = ORIENTED_EDGE ( 'NONE', *, *, #93, .F. ) ;
#199 = CYLINDRICAL_SURFACE ( 'NONE', #184, 0.09374999999999997224 ) ;
#200 = ADVANCED_FACE ( 'NONE', ( #270 ), #25, .T. ) ;
#201 =( CONVERSION_BASED_UNIT ( 'INCH', #94 ) LENGTH_UNIT ( ) NAMED_UNIT ( #100 ) );
#202 = AXIS2_PLACEMENT_3D ( 'NONE', #6, #223, #336 ) ;
#203 = SURFACE_STYLE_FILL_AREA ( #229 ) ;
#204 = PRESENTATION_LAYER_ASSIGNMENT (  '', '', ( #254 ) ) ;
#205 = CONICAL_SURFACE ( 'NONE', #50, 0.07810000000000000275, 0.3490658503988672279 ) ;
#206 =( LENGTH_UNIT ( ) NAMED_UNIT ( * ) SI_UNIT ( $, .METRE. ) );
#207 = DIRECTION ( 'NONE',  ( -0.000000000000000000, -1.000000000000000000, -0.000000000000000000 ) ) ;
#208 = SURFACE_STYLE_FILL_AREA ( #235 ) ;
#209 = FACE_OUTER_BOUND ( 'NONE', #140, .T. ) ;
#210 = SURFACE_STYLE_USAGE ( .BOTH. , #131 ) ;
#211 = VERTEX_POINT ( 'NONE', #89 ) ;
#212 = SURFACE_STYLE_USAGE ( .BOTH. , #262 ) ;
#213 = DIRECTION ( 'NONE',  ( 1.000000000000000000, 0.000000000000000000, 0.000000000000000000 ) ) ;
#214 = COLOUR_RGB ( '',1.000000000000000000, 0.000000000000000000, 0.000000000000000000 ) ;
#215 = EDGE_LOOP ( 'NONE', ( #66, #158 ) ) ;
#216 = EDGE_CURVE ( 'NONE', #334, #211, #143, .T. ) ;
#217 = CARTESIAN_POINT ( 'NONE',  ( 0.000000000000000000, 0.000000000000000000, 0.000000000000000000 ) ) ;
#218 = EDGE_CURVE ( 'NONE', #250, #357, #247, .T. ) ;
#219 = CARTESIAN_POINT ( 'NONE',  ( -6.123233995736766036E-17, 2.500000000000000000, 0.000000000000000000 ) ) ;
#220 =( GEOMETRIC_REPRESENTATION_CONTEXT ( 3 ) GLOBAL_UNCERTAINTY_ASSIGNED_CONTEXT ( ( #62 ) ) GLOBAL_UNIT_ASSIGNED_CONTEXT ( ( #222, #264, #44 ) ) REPRESENTATION_CONTEXT ( 'NONE', 'WORKASPACE' ) );
#221 = ORIENTED_EDGE ( 'NONE', *, *, #195, .F. ) ;
#222 =( CONVERSION_BASED_UNIT ( 'INCH', #192 ) LENGTH_UNIT ( ) NAMED_UNIT ( #304 ) );
#223 = DIRECTION ( 'NONE',  ( -0.000000000000000000, -1.000000000000000000, -0.000000000000000000 ) ) ;
#224 = ADVANCED_BREP_SHAPE_REPRESENTATION ( '83189', ( #69, #70, #63 ), #259 ) ;
#225 = STYLED_ITEM ( 'NONE', ( #193 ), #70 ) ;
#226 = VECTOR ( 'NONE', #350, 39.37007874015748143 ) ;
#227 = ORIENTED_EDGE ( 'NONE', *, *, #175, .T. ) ;
#228 = ADVANCED_FACE ( 'NONE', ( #97 ), #251, .F. ) ;
#229 = FILL_AREA_STYLE ('',( #183 ) ) ;
#230 = EDGE_LOOP ( 'NONE', ( #285, #227, #19, #29 ) ) ;
#231 = DIMENSIONAL_EXPONENTS ( 1.000000000000000000, 0.000000000000000000, 0.000000000000000000, 0.000000000000000000, 0.000000000000000000, 0.000000000000000000, 0.000000000000000000 ) ;
#232 = VECTOR ( 'NONE', #103, 39.37007874015748143 ) ;
#233 = ORIENTED_EDGE ( 'NONE', *, *, #116, .F. ) ;
#234 = SURFACE_STYLE_USAGE ( .BOTH. , #17 ) ;
#235 = FILL_AREA_STYLE ('',( #21 ) ) ;
#236 = EDGE_CURVE ( 'NONE', #334, #162, #191, .T. ) ;
#237 =( NAMED_UNIT ( * ) PLANE_ANGLE_UNIT ( ) SI_UNIT ( $, .RADIAN. ) );
#238 = CARTESIAN_POINT ( 'NONE',  ( 0.07810000000000000275, 0.4374999999999998890, 1.052277762167362885E-17 ) ) ;
#239 = VECTOR ( 'NONE', #196, 39.37007874015748143 ) ;
#240 = VECTOR ( 'NONE', #272, 39.37007874015748143 ) ;
#241 =( LENGTH_UNIT ( ) NAMED_UNIT ( * ) SI_UNIT ( $, .METRE. ) );
#242 = EDGE_CURVE ( 'NONE', #162, #197, #23, .T. ) ;
#243 = APPLICATION_PROTOCOL_DEFINITION ( 'draft international standard', 'automotive_design', 1998, #147 ) ;
#244 = ORIENTED_EDGE ( 'NONE', *, *, #195, .T. ) ;
#245 = CARTESIAN_POINT ( 'NONE',  ( 0.000000000000000000, 0.4375000000000000000, 0.000000000000000000 ) ) ;
#246 = AXIS2_PLACEMENT_3D ( 'NONE', #290, #135, #52 ) ;
#247 = CIRCLE ( 'NONE', #311, 0.09374999999999994449 ) ;
#248 =( LENGTH_UNIT ( ) NAMED_UNIT ( * ) SI_UNIT ( $, .METRE. ) );
#249 = DIRECTION ( 'NONE',  ( -2.968840725205704707E-17, 1.000000000000000000, -0.000000000000000000 ) ) ;
#250 = VERTEX_POINT ( 'NONE', #38 ) ;
#251 = PLANE ( 'NONE',  #173 ) ;
#252 = LINE ( 'NONE', #8, #275 ) ;
#253 = CARTESIAN_POINT ( 'NONE',  ( 0.000000000000000000, 0.000000000000000000, 0.000000000000000000 ) ) ;
#254 = STYLED_ITEM ( 'NONE', ( #124 ), #151 ) ;
#255 = SURFACE_STYLE_USAGE ( .BOTH. , #11 ) ;
#256 = CARTESIAN_POINT ( 'NONE',  ( 0.000000000000000000, 0.4375000000000000000, -0.07810000000000000275 ) ) ;
#257 = UNCERTAINTY_MEASURE_WITH_UNIT (LENGTH_MEASURE( 1.000000000000000082E-05 ), #33, 'distance_accuracy_value', 'NONE');
#258 = COLOUR_RGB ( '',0.7921568627450980005, 0.8196078431372548767, 0.9333333333333333481 ) ;
#259 =( GEOMETRIC_REPRESENTATION_CONTEXT ( 3 ) GLOBAL_UNCERTAINTY_ASSIGNED_CONTEXT ( ( #289 ) ) GLOBAL_UNIT_ASSIGNED_CONTEXT ( ( #88, #266, #167 ) ) REPRESENTATION_CONTEXT ( 'NONE', 'WORKASPACE' ) );
#260 = ADVANCED_FACE ( 'NONE', ( #267 ), #325, .F. ) ;
#261 = CARTESIAN_POINT ( 'NONE',  ( 0.09374999999999994449, 0.4804980216144644212, 1.148106374200642938E-17 ) ) ;
#262 = SURFACE_SIDE_STYLE ('',( #208 ) ) ;
#263 = CARTESIAN_POINT ( 'NONE',  ( 0.000000000000000000, 0.000000000000000000, -0.07810000000000000275 ) ) ;
#264 =( NAMED_UNIT ( * ) PLANE_ANGLE_UNIT ( ) SI_UNIT ( $, .RADIAN. ) );
#265 = DIRECTION ( 'NONE',  ( 0.3420201433256699342, 0.9396926207859079838, 4.188538737677007172E-17 ) ) ;
#266 =( NAMED_UNIT ( * ) PLANE_ANGLE_UNIT ( ) SI_UNIT ( $, .RADIAN. ) );
#267 = FACE_OUTER_BOUND ( 'NONE', #82, .T. ) ;
#268 = PRESENTATION_STYLE_ASSIGNMENT (( #212 ) ) ;
#269 = PRODUCT_DEFINITION_SHAPE ( 'NONE', 'NONE',  #1 ) ;
#270 = FACE_OUTER_BOUND ( 'NONE', #91, .T. ) ;
#271 = ORIENTED_EDGE ( 'NONE', *, *, #216, .T. ) ;
#272 = DIRECTION ( 'NONE',  ( -0.000000000000000000, -1.000000000000000000, -0.000000000000000000 ) ) ;
#273 = DIRECTION ( 'NONE',  ( -2.968840725205704707E-17, 1.000000000000000000, -0.000000000000000000 ) ) ;
#274 = DIRECTION ( 'NONE',  ( 0.000000000000000000, -1.000000000000000000, -0.000000000000000000 ) ) ;
#275 = VECTOR ( 'NONE', #117, 39.37007874015748143 ) ;
#276 = EDGE_LOOP ( 'NONE', ( #314, #355, #84, #32 ) ) ;
#277 = DIRECTION ( 'NONE',  ( 0.000000000000000000, 1.000000000000000000, 0.000000000000000000 ) ) ;
#278 = DIRECTION ( 'NONE',  ( -2.968840725205704707E-17, 1.000000000000000000, -0.000000000000000000 ) ) ;
#279 = ORIENTED_EDGE ( 'NONE', *, *, #156, .T. ) ;
#280 = DIRECTION ( 'NONE',  ( -1.000000000000000000, 0.000000000000000000, 0.000000000000000000 ) ) ;
#281 =( NAMED_UNIT ( * ) SI_UNIT ( $, .STERADIAN. ) SOLID_ANGLE_UNIT ( ) );
#282 = VERTEX_POINT ( 'NONE', #238 ) ;
#283 = PRODUCT_DEFINITION_FORMATION_WITH_SPECIFIED_SOURCE ( 'ANY', '', #284, .NOT_KNOWN. ) ;
#284 = PRODUCT ( '83189', '83189', '', ( #194 ) ) ;
#285 = ORIENTED_EDGE ( 'NONE', *, *, #119, .T. ) ;
#286 = CARTESIAN_POINT ( 'NONE',  ( 3.441872955765394809E-35, 0.4375000000000000000, 0.000000000000000000 ) ) ;
#287 = CIRCLE ( 'NONE', #9, 0.07810000000000000275 ) ;
#288 = STYLED_ITEM ( 'NONE', ( #5 ), #329 ) ;
#289 = UNCERTAINTY_MEASURE_WITH_UNIT (LENGTH_MEASURE( 1.000000000000000082E-05 ), #88, 'distance_accuracy_value', 'NONE');
#290 = CARTESIAN_POINT ( 'NONE',  ( -6.123233995736766036E-17, 2.500000000000000000, 0.000000000000000000 ) ) ;
#291 =( NAMED_UNIT ( * ) PLANE_ANGLE_UNIT ( ) SI_UNIT ( $, .RADIAN. ) );
#292 = CARTESIAN_POINT ( 'NONE',  ( 0.000000000000000000, 0.000000000000000000, 0.000000000000000000 ) ) ;
#293 = CIRCLE ( 'NONE', #164, 0.09375000000000001388 ) ;
#294 = ORIENTED_EDGE ( 'NONE', *, *, #175, .F. ) ;
#295 = SURFACE_STYLE_FILL_AREA ( #298 ) ;
#296 = CARTESIAN_POINT ( 'NONE',  ( 9.564491501340828324E-18, 0.000000000000000000, 0.07810000000000000275 ) ) ;
#297 =( LENGTH_UNIT ( ) NAMED_UNIT ( * ) SI_UNIT ( $, .METRE. ) );
#298 = FILL_AREA_STYLE ('',( #15 ) ) ;
#299 = LENGTH_MEASURE_WITH_UNIT ( LENGTH_MEASURE( 0.02539999999999999897 ), #297 );
#300 = CARTESIAN_POINT ( 'NONE',  ( 9.564491501340828324E-18, 0.000000000000000000, 0.07810000000000000275 ) ) ;
#301 =( LENGTH_UNIT ( ) NAMED_UNIT ( * ) SI_UNIT ( $, .METRE. ) );
#302 = VECTOR ( 'NONE', #265, 39.37007874015748143 ) ;
#303 =( CONVERSION_BASED_UNIT ( 'INCH', #299 ) LENGTH_UNIT ( ) NAMED_UNIT ( #188 ) );
#304 = DIMENSIONAL_EXPONENTS ( 1.000000000000000000, 0.000000000000000000, 0.000000000000000000, 0.000000000000000000, 0.000000000000000000, 0.000000000000000000, 0.000000000000000000 ) ;
#305 = PLANE ( 'NONE',  #95 ) ;
#306 = FACE_OUTER_BOUND ( 'NONE', #127, .T. ) ;
#307 = APPLICATION_PROTOCOL_DEFINITION ( 'draft international standard', 'automotive_design', 1998, #68 ) ;
#308 = ORIENTED_EDGE ( 'NONE', *, *, #106, .F. ) ;
#309 = MECHANICAL_DESIGN_GEOMETRIC_PRESENTATION_REPRESENTATION (  '', ( #225 ), #152 ) ;
#310 =( NAMED_UNIT ( * ) PLANE_ANGLE_UNIT ( ) SI_UNIT ( $, .RADIAN. ) );
#311 = AXIS2_PLACEMENT_3D ( 'NONE', #85, #36, #42 ) ;
#312 = SURFACE_SIDE_STYLE ('',( #170 ) ) ;
#313 = SHAPE_DEFINITION_REPRESENTATION ( #269, #224 ) ;
#314 = ORIENTED_EDGE ( 'NONE', *, *, #236, .T. ) ;
#315 =( NAMED_UNIT ( * ) PLANE_ANGLE_UNIT ( ) SI_UNIT ( $, .RADIAN. ) );
#316 = ORIENTED_EDGE ( 'NONE', *, *, #53, .T. ) ;
#317 = PRESENTATION_LAYER_ASSIGNMENT (  '', '', ( #225 ) ) ;
#318 = EDGE_CURVE ( 'NONE', #49, #250, #20, .T. ) ;
#319 = SURFACE_STYLE_FILL_AREA ( #165 ) ;
#320 = CIRCLE ( 'NONE', #328, 0.09374999999999994449 ) ;
#321 = CARTESIAN_POINT ( 'NONE',  ( -1.276542776722964990E-18, 0.4804980216144644212, 0.000000000000000000 ) ) ;
#322 = COLOUR_RGB ( '',0.7921568627450980005, 0.8196078431372548767, 0.9333333333333333481 ) ;
#323 = MECHANICAL_DESIGN_GEOMETRIC_PRESENTATION_REPRESENTATION (  '', ( #288 ), #220 ) ;
#324 = EDGE_LOOP ( 'NONE', ( #294, #180, #133, #349 ) ) ;
#325 = PLANE ( 'NONE',  #153 ) ;
#326 = DIRECTION ( 'NONE',  ( 2.968840725205704707E-17, -1.000000000000000000, 0.000000000000000000 ) ) ;
#327 = VERTEX_POINT ( 'NONE', #80 ) ;
#328 = AXIS2_PLACEMENT_3D ( 'NONE', #321, #338, #10 ) ;
#329 = ADVANCED_FACE ( 'NONE', ( #105 ), #337, .T. ) ;
#330 = ORIENTED_EDGE ( 'NONE', *, *, #93, .T. ) ;
#331 = DIRECTION ( 'NONE',  ( -0.000000000000000000, -1.000000000000000000, -0.000000000000000000 ) ) ;
#332 = CARTESIAN_POINT ( 'NONE',  ( 0.07810000000000000275, 0.4374999999999998890, 9.564491501340828324E-18 ) ) ;
#333 = AXIS2_PLACEMENT_3D ( 'NONE', #145, #54, #359 ) ;
#334 = VERTEX_POINT ( 'NONE', #256 ) ;
#335 = ORIENTED_EDGE ( 'NONE', *, *, #125, .T. ) ;
#336 = DIRECTION ( 'NONE',  ( 0.000000000000000000, 0.000000000000000000, -1.000000000000000000 ) ) ;
#337 = CYLINDRICAL_SURFACE ( 'NONE', #344, 0.07810000000000000275 ) ;
#338 = DIRECTION ( 'NONE',  ( -2.968840725205704707E-17, 1.000000000000000000, -0.000000000000000000 ) ) ;
#339 = DIRECTION ( 'NONE',  ( -2.968840725205704707E-17, 1.000000000000000000, -0.000000000000000000 ) ) ;
#340 = CIRCLE ( 'NONE', #202, 0.07810000000000000275 ) ;
#341 = AXIS2_PLACEMENT_3D ( 'NONE', #253, #274, #73 ) ;
#342 = CARTESIAN_POINT ( 'NONE',  ( -0.09375000000000006939, 2.500000000000000000, 0.000000000000000000 ) ) ;
#343 = CIRCLE ( 'NONE', #333, 0.07810000000000000275 ) ;
#344 = AXIS2_PLACEMENT_3D ( 'NONE', #292, #40, #144 ) ;
#345 =( NAMED_UNIT ( * ) SI_UNIT ( $, .STERADIAN. ) SOLID_ANGLE_UNIT ( ) );
#346 = FILL_AREA_STYLE_COLOUR ( '', #214 ) ;
#347 = COLOUR_RGB ( '',1.000000000000000000, 0.000000000000000000, 0.000000000000000000 ) ;
#348 = DIRECTION ( 'NONE',  ( 1.000000000000000000, 2.968840725205704707E-17, 0.000000000000000000 ) ) ;
#349 = ORIENTED_EDGE ( 'NONE', *, *, #35, .F. ) ;
#350 = DIRECTION ( 'NONE',  ( -0.000000000000000000, -1.000000000000000000, -0.000000000000000000 ) ) ;
#351 = CONICAL_SURFACE ( 'NONE', #37, 0.07810000000000000275, 0.3490658503988672279 ) ;
#352 =( NAMED_UNIT ( * ) SI_UNIT ( $, .STERADIAN. ) SOLID_ANGLE_UNIT ( ) );
#353 = DIRECTION ( 'NONE',  ( 0.000000000000000000, 0.000000000000000000, 1.000000000000000000 ) ) ;
#354 = PRESENTATION_STYLE_ASSIGNMENT (( #210 ) ) ;
#355 = ORIENTED_EDGE ( 'NONE', *, *, #242, .T. ) ;
#356 = FILL_AREA_STYLE_COLOUR ( '', #322 ) ;
#357 = VERTEX_POINT ( 'NONE', #261 ) ;
#358 = CARTESIAN_POINT ( 'NONE',  ( 7.582401355855259480E-33, 0.4374999999999998890, 0.000000000000000000 ) ) ;
#359 = DIRECTION ( 'NONE',  ( 0.000000000000000000, 0.000000000000000000, -1.000000000000000000 ) ) ;
ENDSEC;
END-ISO-10303-21;
