ISO-10303-21;
HEADER;
FILE_DESCRIPTION (( 'STEP AP214' ),
    '1' );
FILE_NAME ('05547.STEP',
    '2023-06-22T16:12:53',
    ( '' ),
    ( '' ),
    'SwSTEP 2.0',
    'SolidWorks 2023',
    '' );
FILE_SCHEMA (( 'AUTOMOTIVE_DESIGN' ));
ENDSEC;

DATA;
#1 = SURFACE_STYLE_USAGE ( .BOTH. , #6 ) ;
#2 = STYLED_ITEM ( 'NONE', ( #240 ), #272 ) ;
#3 = FACE_OUTER_BOUND ( 'NONE', #237, .T. ) ;
#4 = DIMENSIONAL_EXPONENTS ( 1.000000000000000000, 0.000000000000000000, 0.000000000000000000, 0.000000000000000000, 0.000000000000000000, 0.000000000000000000, 0.000000000000000000 ) ;
#5 =( NAMED_UNIT ( * ) SI_UNIT ( $, .STERADIAN. ) SOLID_ANGLE_UNIT ( ) );
#6 = SURFACE_SIDE_STYLE ('',( #242 ) ) ;
#7 = DIMENSIONAL_EXPONENTS ( 1.000000000000000000, 0.000000000000000000, 0.000000000000000000, 0.000000000000000000, 0.000000000000000000, 0.000000000000000000, 0.000000000000000000 ) ;
#8 = AXIS2_PLACEMENT_3D ( 'NONE', #160, #159, #275 ) ;
#9 = LENGTH_MEASURE_WITH_UNIT ( LENGTH_MEASURE( 0.02539999999999999897 ), #123 );
#10 = EDGE_CURVE ( 'NONE', #309, #19, #80, .T. ) ;
#11 = CARTESIAN_POINT ( 'NONE',  ( 2.268067724252340606E-34, 3.125000000000000000, 0.000000000000000000 ) ) ;
#12 = CIRCLE ( 'NONE', #246, 0.2500000000000000000 ) ;
#13 = DIRECTION ( 'NONE',  ( -0.000000000000000000, -1.000000000000000000, -0.000000000000000000 ) ) ;
#14 =( LENGTH_UNIT ( ) NAMED_UNIT ( * ) SI_UNIT ( $, .METRE. ) );
#15 = DIRECTION ( 'NONE',  ( 0.000000000000000000, 0.000000000000000000, -1.000000000000000000 ) ) ;
#16 = EDGE_CURVE ( 'NONE', #193, #262, #201, .T. ) ;
#17 = ADVANCED_FACE ( 'NONE', ( #104 ), #29, .T. ) ;
#18 = UNCERTAINTY_MEASURE_WITH_UNIT (LENGTH_MEASURE( 1.000000000000000082E-05 ), #172, 'distance_accuracy_value', 'NONE');
#19 = VERTEX_POINT ( 'NONE', #77 ) ;
#20 = SURFACE_STYLE_USAGE ( .BOTH. , #112 ) ;
#21 = ORIENTED_EDGE ( 'NONE', *, *, #270, .F. ) ;
#22 = CARTESIAN_POINT ( 'NONE',  ( 0.000000000000000000, 0.000000000000000000, -0.2500000000000000000 ) ) ;
#23 = PRODUCT ( '05547', '05547', '', ( #241 ) ) ;
#24 =( NAMED_UNIT ( * ) SI_UNIT ( $, .STERADIAN. ) SOLID_ANGLE_UNIT ( ) );
#25 = ORIENTED_EDGE ( 'NONE', *, *, #182, .F. ) ;
#26 = CARTESIAN_POINT ( 'NONE',  ( -1.224646799147354440E-16, 6.000000000000000888, 0.000000000000000000 ) ) ;
#27 = PRESENTATION_LAYER_ASSIGNMENT (  '', '', ( #179 ) ) ;
#28 = VERTEX_POINT ( 'NONE', #288 ) ;
#29 = CYLINDRICAL_SURFACE ( 'NONE', #73, 0.2500000000000000555 ) ;
#30 = ADVANCED_FACE ( 'NONE', ( #3 ), #32, .T. ) ;
#31 = CIRCLE ( 'NONE', #158, 0.2500000000000000000 ) ;
#32 = CYLINDRICAL_SURFACE ( 'NONE', #41, 0.2500000000000000000 ) ;
#33 = CARTESIAN_POINT ( 'NONE',  ( 0.000000000000000000, 3.125000000000000000, 0.000000000000000000 ) ) ;
#34 = CARTESIAN_POINT ( 'NONE',  ( 0.000000000000000000, 0.000000000000000000, 0.000000000000000000 ) ) ;
#35 =( LENGTH_UNIT ( ) NAMED_UNIT ( * ) SI_UNIT ( $, .METRE. ) );
#36 = VECTOR ( 'NONE', #110, 39.37007874015748143 ) ;
#37 = DIRECTION ( 'NONE',  ( 1.000000000000000000, 4.259641040512536405E-17, 0.000000000000000000 ) ) ;
#38 = SURFACE_SIDE_STYLE ('',( #219 ) ) ;
#39 = PRODUCT_DEFINITION_FORMATION_WITH_SPECIFIED_SOURCE ( 'ANY', '', #23, .NOT_KNOWN. ) ;
#40 = LENGTH_MEASURE_WITH_UNIT ( LENGTH_MEASURE( 0.02539999999999999897 ), #156 );
#41 = AXIS2_PLACEMENT_3D ( 'NONE', #34, #173, #199 ) ;
#42 = ADVANCED_BREP_SHAPE_REPRESENTATION ( '05547', ( #272, #296, #281 ), #118 ) ;
#43 = CARTESIAN_POINT ( 'NONE',  ( -1.224646799147354440E-16, 6.000000000000000888, 0.000000000000000000 ) ) ;
#44 = APPLICATION_CONTEXT ( 'automotive_design' ) ;
#45 = FACE_OUTER_BOUND ( 'NONE', #53, .T. ) ;
#46 = EDGE_CURVE ( 'NONE', #19, #193, #124, .T. ) ;
#47 = PRODUCT_DEFINITION_CONTEXT ( 'detailed design', #58, 'design' ) ;
#48 = PRESENTATION_LAYER_ASSIGNMENT (  '', '', ( #216 ) ) ;
#49 = CARTESIAN_POINT ( 'NONE',  ( 0.000000000000000000, 0.000000000000000000, 0.000000000000000000 ) ) ;
#50 = AXIS2_PLACEMENT_3D ( 'NONE', #75, #13, #249 ) ;
#51 = ORIENTED_EDGE ( 'NONE', *, *, #10, .F. ) ;
#52 = EDGE_CURVE ( 'NONE', #121, #28, #31, .T. ) ;
#53 = EDGE_LOOP ( 'NONE', ( #191, #283, #184, #189 ) ) ;
#54 = ORIENTED_EDGE ( 'NONE', *, *, #188, .F. ) ;
#55 = DIRECTION ( 'NONE',  ( -1.000000000000000000, 0.000000000000000000, 0.000000000000000000 ) ) ;
#56 =( GEOMETRIC_REPRESENTATION_CONTEXT ( 3 ) GLOBAL_UNCERTAINTY_ASSIGNED_CONTEXT ( ( #299 ) ) GLOBAL_UNIT_ASSIGNED_CONTEXT ( ( #138, #223, #303 ) ) REPRESENTATION_CONTEXT ( 'NONE', 'WORKASPACE' ) );
#57 = DIRECTION ( 'NONE',  ( -4.259641040512536405E-17, 1.000000000000000000, -0.000000000000000000 ) ) ;
#58 = APPLICATION_CONTEXT ( 'automotive_design' ) ;
#59 = PRODUCT_DEFINITION ( 'UNKNOWN', '', #39, #47 ) ;
#60 = CARTESIAN_POINT ( 'NONE',  ( 3.061616997868383018E-17, 0.000000000000000000, 0.2500000000000000000 ) ) ;
#61 =( NAMED_UNIT ( * ) PLANE_ANGLE_UNIT ( ) SI_UNIT ( $, .RADIAN. ) );
#62 = DIMENSIONAL_EXPONENTS ( 1.000000000000000000, 0.000000000000000000, 0.000000000000000000, 0.000000000000000000, 0.000000000000000000, 0.000000000000000000, 0.000000000000000000 ) ;
#63 = AXIS2_PLACEMENT_3D ( 'NONE', #49, #208, #166 ) ;
#64 = PRESENTATION_STYLE_ASSIGNMENT (( #1 ) ) ;
#65 =( LENGTH_UNIT ( ) NAMED_UNIT ( * ) SI_UNIT ( $, .METRE. ) );
#66 = FACE_OUTER_BOUND ( 'NONE', #144, .T. ) ;
#67 = CARTESIAN_POINT ( 'NONE',  ( -1.224646799147354440E-16, 6.000000000000000888, 0.000000000000000000 ) ) ;
#68 =( GEOMETRIC_REPRESENTATION_CONTEXT ( 3 ) GLOBAL_UNCERTAINTY_ASSIGNED_CONTEXT ( ( #93 ) ) GLOBAL_UNIT_ASSIGNED_CONTEXT ( ( #102, #198, #264 ) ) REPRESENTATION_CONTEXT ( 'NONE', 'WORKASPACE' ) );
#69 = DIRECTION ( 'NONE',  ( -4.259641040512536405E-17, 1.000000000000000000, -0.000000000000000000 ) ) ;
#70 = CARTESIAN_POINT ( 'NONE',  ( 0.000000000000000000, 3.125000000000000000, 0.000000000000000000 ) ) ;
#71 = DIRECTION ( 'NONE',  ( -4.259641040512536405E-17, 1.000000000000000000, -0.000000000000000000 ) ) ;
#72 = ORIENTED_EDGE ( 'NONE', *, *, #46, .F. ) ;
#73 = AXIS2_PLACEMENT_3D ( 'NONE', #67, #294, #266 ) ;
#74 = ORIENTED_EDGE ( 'NONE', *, *, #52, .F. ) ;
#75 = CARTESIAN_POINT ( 'NONE',  ( 0.000000000000000000, 0.000000000000000000, 0.000000000000000000 ) ) ;
#76 =( GEOMETRIC_REPRESENTATION_CONTEXT ( 3 ) GLOBAL_UNCERTAINTY_ASSIGNED_CONTEXT ( ( #284 ) ) GLOBAL_UNIT_ASSIGNED_CONTEXT ( ( #84, #61, #150 ) ) REPRESENTATION_CONTEXT ( 'NONE', 'WORKASPACE' ) );
#77 = CARTESIAN_POINT ( 'NONE',  ( 3.061616997868383018E-17, 3.125000000000000000, 0.2500000000000000000 ) ) ;
#78 = APPLICATION_PROTOCOL_DEFINITION ( 'draft international standard', 'automotive_design', 1998, #58 ) ;
#79 = PRESENTATION_STYLE_ASSIGNMENT (( #130 ) ) ;
#80 = CIRCLE ( 'NONE', #250, 0.2500000000000000000 ) ;
#81 = PRESENTATION_LAYER_ASSIGNMENT (  '', '', ( #292 ) ) ;
#82 =( NAMED_UNIT ( * ) PLANE_ANGLE_UNIT ( ) SI_UNIT ( $, .RADIAN. ) );
#83 = SURFACE_STYLE_FILL_AREA ( #105 ) ;
#84 =( CONVERSION_BASED_UNIT ( 'INCH', #295 ) LENGTH_UNIT ( ) NAMED_UNIT ( #62 ) );
#85 = LINE ( 'NONE', #119, #203 ) ;
#86 = PRESENTATION_LAYER_ASSIGNMENT (  '', '', ( #276 ) ) ;
#87 =( CONVERSION_BASED_UNIT ( 'INCH', #180 ) LENGTH_UNIT ( ) NAMED_UNIT ( #7 ) );
#88 = DIRECTION ( 'NONE',  ( -1.000000000000000000, 0.000000000000000000, 0.000000000000000000 ) ) ;
#89 = MECHANICAL_DESIGN_GEOMETRIC_PRESENTATION_REPRESENTATION (  '', ( #2 ), #196 ) ;
#90 = SURFACE_SIDE_STYLE ('',( #143 ) ) ;
#91 = ORIENTED_EDGE ( 'NONE', *, *, #278, .T. ) ;
#92 = CARTESIAN_POINT ( 'NONE',  ( 0.000000000000000000, 3.125000000000000000, 0.000000000000000000 ) ) ;
#93 = UNCERTAINTY_MEASURE_WITH_UNIT (LENGTH_MEASURE( 1.000000000000000082E-05 ), #102, 'distance_accuracy_value', 'NONE');
#94 = LENGTH_MEASURE_WITH_UNIT ( LENGTH_MEASURE( 0.02539999999999999897 ), #214 );
#95 = ORIENTED_EDGE ( 'NONE', *, *, #297, .T. ) ;
#96 = CLOSED_SHELL ( 'NONE', ( #181, #120, #30, #225 ) ) ;
#97 = AXIS2_PLACEMENT_3D ( 'NONE', #26, #286, #55 ) ;
#98 = FACE_OUTER_BOUND ( 'NONE', #308, .T. ) ;
#99 = FILL_AREA_STYLE ('',( #190 ) ) ;
#100 = ORIENTED_EDGE ( 'NONE', *, *, #134, .F. ) ;
#101 = CARTESIAN_POINT ( 'NONE',  ( -1.224646799147354440E-16, 6.000000000000000888, 0.000000000000000000 ) ) ;
#102 =( CONVERSION_BASED_UNIT ( 'INCH', #238 ) LENGTH_UNIT ( ) NAMED_UNIT ( #269 ) );
#103 = AXIS2_PLACEMENT_3D ( 'NONE', #11, #260, #171 ) ;
#104 = FACE_OUTER_BOUND ( 'NONE', #285, .T. ) ;
#105 = FILL_AREA_STYLE ('',( #128 ) ) ;
#106 = FILL_AREA_STYLE ('',( #217 ) ) ;
#107 = VECTOR ( 'NONE', #204, 39.37007874015748143 ) ;
#108 = DIMENSIONAL_EXPONENTS ( 1.000000000000000000, 0.000000000000000000, 0.000000000000000000, 0.000000000000000000, 0.000000000000000000, 0.000000000000000000, 0.000000000000000000 ) ;
#109 = CARTESIAN_POINT ( 'NONE',  ( -0.2500000000000002776, 6.000000000000000888, 0.000000000000000000 ) ) ;
#110 = DIRECTION ( 'NONE',  ( -4.259641040512536405E-17, 1.000000000000000000, -0.000000000000000000 ) ) ;
#111 = PLANE ( 'NONE',  #63 ) ;
#112 = SURFACE_SIDE_STYLE ('',( #253 ) ) ;
#113 = AXIS2_PLACEMENT_3D ( 'NONE', #273, #207, #178 ) ;
#114 =( NAMED_UNIT ( * ) SI_UNIT ( $, .STERADIAN. ) SOLID_ANGLE_UNIT ( ) );
#115 =( NAMED_UNIT ( * ) SI_UNIT ( $, .STERADIAN. ) SOLID_ANGLE_UNIT ( ) );
#116 = UNCERTAINTY_MEASURE_WITH_UNIT (LENGTH_MEASURE( 1.000000000000000082E-05 ), #282, 'distance_accuracy_value', 'NONE');
#117 = CIRCLE ( 'NONE', #187, 0.2500000000000000000 ) ;
#118 =( GEOMETRIC_REPRESENTATION_CONTEXT ( 3 ) GLOBAL_UNCERTAINTY_ASSIGNED_CONTEXT ( ( #116 ) ) GLOBAL_UNIT_ASSIGNED_CONTEXT ( ( #282, #209, #24 ) ) REPRESENTATION_CONTEXT ( 'NONE', 'WORKASPACE' ) );
#119 = CARTESIAN_POINT ( 'NONE',  ( 0.000000000000000000, 0.000000000000000000, -0.2500000000000000000 ) ) ;
#120 = ADVANCED_FACE ( 'NONE', ( #66 ), #149, .T. ) ;
#121 = VERTEX_POINT ( 'NONE', #136 ) ;
#122 = SHAPE_DEFINITION_REPRESENTATION ( #142, #42 ) ;
#123 =( LENGTH_UNIT ( ) NAMED_UNIT ( * ) SI_UNIT ( $, .METRE. ) );
#124 = LINE ( 'NONE', #60, #107 ) ;
#125 = AXIS2_PLACEMENT_3D ( 'NONE', #43, #69, #211 ) ;
#126 = DIRECTION ( 'NONE',  ( -1.000000000000000000, 0.000000000000000000, 0.000000000000000000 ) ) ;
#127 =( NAMED_UNIT ( * ) PLANE_ANGLE_UNIT ( ) SI_UNIT ( $, .RADIAN. ) );
#128 = FILL_AREA_STYLE_COLOUR ( '', #205 ) ;
#129 = FILL_AREA_STYLE ('',( #290 ) ) ;
#130 = SURFACE_STYLE_USAGE ( .BOTH. , #291 ) ;
#131 = DIMENSIONAL_EXPONENTS ( 1.000000000000000000, 0.000000000000000000, 0.000000000000000000, 0.000000000000000000, 0.000000000000000000, 0.000000000000000000, 0.000000000000000000 ) ;
#132 = MECHANICAL_DESIGN_GEOMETRIC_PRESENTATION_REPRESENTATION (  '', ( #216 ), #68 ) ;
#133 = PRESENTATION_STYLE_ASSIGNMENT (( #200 ) ) ;
#134 = EDGE_CURVE ( 'NONE', #121, #145, #248, .T. ) ;
#135 = ADVANCED_FACE ( 'NONE', ( #206 ), #302, .F. ) ;
#136 = CARTESIAN_POINT ( 'NONE',  ( -0.2500000000000000000, 3.125000000000000000, 0.000000000000000000 ) ) ;
#137 = CIRCLE ( 'NONE', #50, 0.2500000000000000000 ) ;
#138 =( CONVERSION_BASED_UNIT ( 'INCH', #40 ) LENGTH_UNIT ( ) NAMED_UNIT ( #293 ) );
#139 = PRESENTATION_STYLE_ASSIGNMENT (( #256 ) ) ;
#140 = COLOUR_RGB ( '',1.000000000000000000, 0.000000000000000000, 0.000000000000000000 ) ;
#141 = CARTESIAN_POINT ( 'NONE',  ( 0.000000000000000000, 0.000000000000000000, 0.000000000000000000 ) ) ;
#142 = PRODUCT_DEFINITION_SHAPE ( 'NONE', 'NONE',  #59 ) ;
#143 = SURFACE_STYLE_FILL_AREA ( #227 ) ;
#144 = EDGE_LOOP ( 'NONE', ( #51, #25 ) ) ;
#145 = VERTEX_POINT ( 'NONE', #109 ) ;
#146 = ORIENTED_EDGE ( 'NONE', *, *, #52, .T. ) ;
#147 = DIRECTION ( 'NONE',  ( -4.259641040512536405E-17, 1.000000000000000000, -0.000000000000000000 ) ) ;
#148 = DIRECTION ( 'NONE',  ( -1.000000000000000000, 0.000000000000000000, 0.000000000000000000 ) ) ;
#149 = PLANE ( 'NONE',  #113 ) ;
#150 =( NAMED_UNIT ( * ) SI_UNIT ( $, .STERADIAN. ) SOLID_ANGLE_UNIT ( ) );
#151 =( LENGTH_UNIT ( ) NAMED_UNIT ( * ) SI_UNIT ( $, .METRE. ) );
#152 = CARTESIAN_POINT ( 'NONE',  ( 0.2500000000000000000, 6.000000000000000888, 0.000000000000000000 ) ) ;
#153 =( CONVERSION_BASED_UNIT ( 'INCH', #175 ) LENGTH_UNIT ( ) NAMED_UNIT ( #108 ) );
#154 = PLANE ( 'NONE',  #103 ) ;
#155 = CARTESIAN_POINT ( 'NONE',  ( 0.2499999999999999167, 6.000000000000000888, 3.061616997868383634E-17 ) ) ;
#156 =( LENGTH_UNIT ( ) NAMED_UNIT ( * ) SI_UNIT ( $, .METRE. ) );
#157 = DIRECTION ( 'NONE',  ( -0.000000000000000000, -1.000000000000000000, -0.000000000000000000 ) ) ;
#158 = AXIS2_PLACEMENT_3D ( 'NONE', #33, #268, #126 ) ;
#159 = DIRECTION ( 'NONE',  ( -0.000000000000000000, -1.000000000000000000, -0.000000000000000000 ) ) ;
#160 = CARTESIAN_POINT ( 'NONE',  ( 0.000000000000000000, 0.000000000000000000, 0.000000000000000000 ) ) ;
#161 = DIRECTION ( 'NONE',  ( -0.000000000000000000, -1.000000000000000000, -0.000000000000000000 ) ) ;
#162 = FACE_OUTER_BOUND ( 'NONE', #279, .T. ) ;
#163 = COLOUR_RGB ( '',1.000000000000000000, 0.000000000000000000, 0.000000000000000000 ) ;
#164 = ORIENTED_EDGE ( 'NONE', *, *, #218, .F. ) ;
#165 = MECHANICAL_DESIGN_GEOMETRIC_PRESENTATION_REPRESENTATION (  '', ( #229 ), #76 ) ;
#166 = DIRECTION ( 'NONE',  ( 0.000000000000000000, 0.000000000000000000, -1.000000000000000000 ) ) ;
#167 = VERTEX_POINT ( 'NONE', #298 ) ;
#168 = ORIENTED_EDGE ( 'NONE', *, *, #16, .T. ) ;
#169 = ORIENTED_EDGE ( 'NONE', *, *, #134, .T. ) ;
#170 = CIRCLE ( 'NONE', #97, 0.2500000000000001110 ) ;
#171 = DIRECTION ( 'NONE',  ( -1.000000000000000000, -4.259641040512536405E-17, 0.000000000000000000 ) ) ;
#172 =( CONVERSION_BASED_UNIT ( 'INCH', #9 ) LENGTH_UNIT ( ) NAMED_UNIT ( #4 ) );
#173 = DIRECTION ( 'NONE',  ( -0.000000000000000000, -1.000000000000000000, -0.000000000000000000 ) ) ;
#174 = ADVANCED_FACE ( 'NONE', ( #221 ), #154, .F. ) ;
#175 = LENGTH_MEASURE_WITH_UNIT ( LENGTH_MEASURE( 0.02539999999999999897 ), #65 );
#176 =( GEOMETRIC_REPRESENTATION_CONTEXT ( 3 ) GLOBAL_UNCERTAINTY_ASSIGNED_CONTEXT ( ( #18 ) ) GLOBAL_UNIT_ASSIGNED_CONTEXT ( ( #172, #82, #5 ) ) REPRESENTATION_CONTEXT ( 'NONE', 'WORKASPACE' ) );
#177 = FILL_AREA_STYLE_COLOUR ( '', #140 ) ;
#178 = DIRECTION ( 'NONE',  ( 0.000000000000000000, -0.000000000000000000, 1.000000000000000000 ) ) ;
#179 = STYLED_ITEM ( 'NONE', ( #300 ), #225 ) ;
#180 = LENGTH_MEASURE_WITH_UNIT ( LENGTH_MEASURE( 0.02539999999999999897 ), #14 );
#181 = ADVANCED_FACE ( 'NONE', ( #45 ), #252, .T. ) ;
#182 = EDGE_CURVE ( 'NONE', #19, #309, #12, .T. ) ;
#183 = UNCERTAINTY_MEASURE_WITH_UNIT (LENGTH_MEASURE( 1.000000000000000082E-05 ), #87, 'distance_accuracy_value', 'NONE');
#184 = ORIENTED_EDGE ( 'NONE', *, *, #274, .F. ) ;
#185 =( NAMED_UNIT ( * ) PLANE_ANGLE_UNIT ( ) SI_UNIT ( $, .RADIAN. ) );
#186 = ORIENTED_EDGE ( 'NONE', *, *, #278, .F. ) ;
#187 = AXIS2_PLACEMENT_3D ( 'NONE', #92, #71, #88 ) ;
#188 = EDGE_CURVE ( 'NONE', #145, #167, #213, .T. ) ;
#189 = ORIENTED_EDGE ( 'NONE', *, *, #297, .F. ) ;
#190 = FILL_AREA_STYLE_COLOUR ( '', #267 ) ;
#191 = ORIENTED_EDGE ( 'NONE', *, *, #10, .T. ) ;
#192 = SURFACE_STYLE_FILL_AREA ( #99 ) ;
#193 = VERTEX_POINT ( 'NONE', #306 ) ;
#194 = SURFACE_SIDE_STYLE ('',( #192 ) ) ;
#195 = AXIS2_PLACEMENT_3D ( 'NONE', #101, #57, #148 ) ;
#196 =( GEOMETRIC_REPRESENTATION_CONTEXT ( 3 ) GLOBAL_UNCERTAINTY_ASSIGNED_CONTEXT ( ( #233 ) ) GLOBAL_UNIT_ASSIGNED_CONTEXT ( ( #153, #127, #114 ) ) REPRESENTATION_CONTEXT ( 'NONE', 'WORKASPACE' ) );
#197 = CARTESIAN_POINT ( 'NONE',  ( 0.000000000000000000, 0.000000000000000000, 0.000000000000000000 ) ) ;
#198 =( NAMED_UNIT ( * ) PLANE_ANGLE_UNIT ( ) SI_UNIT ( $, .RADIAN. ) );
#199 = DIRECTION ( 'NONE',  ( 0.000000000000000000, 0.000000000000000000, -1.000000000000000000 ) ) ;
#200 = SURFACE_STYLE_USAGE ( .BOTH. , #38 ) ;
#201 = CIRCLE ( 'NONE', #224, 0.2500000000000000000 ) ;
#202 = MECHANICAL_DESIGN_GEOMETRIC_PRESENTATION_REPRESENTATION (  '', ( #179 ), #56 ) ;
#203 = VECTOR ( 'NONE', #232, 39.37007874015748143 ) ;
#204 = DIRECTION ( 'NONE',  ( -0.000000000000000000, -1.000000000000000000, -0.000000000000000000 ) ) ;
#205 = COLOUR_RGB ( '',1.000000000000000000, 0.000000000000000000, 0.000000000000000000 ) ;
#206 = FACE_OUTER_BOUND ( 'NONE', #305, .T. ) ;
#207 = DIRECTION ( 'NONE',  ( 0.000000000000000000, 1.000000000000000000, 0.000000000000000000 ) ) ;
#208 = DIRECTION ( 'NONE',  ( 0.000000000000000000, -1.000000000000000000, -0.000000000000000000 ) ) ;
#209 =( NAMED_UNIT ( * ) PLANE_ANGLE_UNIT ( ) SI_UNIT ( $, .RADIAN. ) );
#210 = ORIENTED_EDGE ( 'NONE', *, *, #218, .T. ) ;
#211 = DIRECTION ( 'NONE',  ( -1.000000000000000000, 0.000000000000000000, 0.000000000000000000 ) ) ;
#212 = CLOSED_SHELL ( 'NONE', ( #17, #174, #239, #135 ) ) ;
#213 = CIRCLE ( 'NONE', #125, 0.2500000000000001110 ) ;
#214 =( LENGTH_UNIT ( ) NAMED_UNIT ( * ) SI_UNIT ( $, .METRE. ) );
#215 = ORIENTED_EDGE ( 'NONE', *, *, #188, .T. ) ;
#216 = STYLED_ITEM ( 'NONE', ( #79 ), #120 ) ;
#217 = FILL_AREA_STYLE_COLOUR ( '', #163 ) ;
#218 = EDGE_CURVE ( 'NONE', #28, #121, #117, .T. ) ;
#219 = SURFACE_STYLE_FILL_AREA ( #129 ) ;
#220 = DIRECTION ( 'NONE',  ( 0.000000000000000000, 0.000000000000000000, 1.000000000000000000 ) ) ;
#221 = FACE_OUTER_BOUND ( 'NONE', #236, .T. ) ;
#222 = LINE ( 'NONE', #155, #257 ) ;
#223 =( NAMED_UNIT ( * ) PLANE_ANGLE_UNIT ( ) SI_UNIT ( $, .RADIAN. ) );
#224 = AXIS2_PLACEMENT_3D ( 'NONE', #141, #230, #244 ) ;
#225 = ADVANCED_FACE ( 'NONE', ( #162 ), #111, .T. ) ;
#226 = FILL_AREA_STYLE_COLOUR ( '', #243 ) ;
#227 = FILL_AREA_STYLE ('',( #226 ) ) ;
#228 = MECHANICAL_DESIGN_GEOMETRIC_PRESENTATION_REPRESENTATION (  '', ( #292 ), #176 ) ;
#229 = STYLED_ITEM ( 'NONE', ( #133 ), #296 ) ;
#230 = DIRECTION ( 'NONE',  ( -0.000000000000000000, -1.000000000000000000, -0.000000000000000000 ) ) ;
#231 = FILL_AREA_STYLE ('',( #177 ) ) ;
#232 = DIRECTION ( 'NONE',  ( -0.000000000000000000, -1.000000000000000000, -0.000000000000000000 ) ) ;
#233 = UNCERTAINTY_MEASURE_WITH_UNIT (LENGTH_MEASURE( 1.000000000000000082E-05 ), #153, 'distance_accuracy_value', 'NONE');
#234 = ORIENTED_EDGE ( 'NONE', *, *, #270, .T. ) ;
#235 = CYLINDRICAL_SURFACE ( 'NONE', #195, 0.2500000000000000555 ) ;
#236 = EDGE_LOOP ( 'NONE', ( #74, #164 ) ) ;
#237 = EDGE_LOOP ( 'NONE', ( #72, #261, #95, #307 ) ) ;
#238 = LENGTH_MEASURE_WITH_UNIT ( LENGTH_MEASURE( 0.02539999999999999897 ), #151 );
#239 = ADVANCED_FACE ( 'NONE', ( #98 ), #235, .T. ) ;
#240 = PRESENTATION_STYLE_ASSIGNMENT (( #263 ) ) ;
#241 = PRODUCT_CONTEXT ( 'NONE', #44, 'mechanical' ) ;
#242 = SURFACE_STYLE_FILL_AREA ( #106 ) ;
#243 = COLOUR_RGB ( '',1.000000000000000000, 0.000000000000000000, 0.000000000000000000 ) ;
#244 = DIRECTION ( 'NONE',  ( 0.000000000000000000, 0.000000000000000000, -1.000000000000000000 ) ) ;
#245 = DIRECTION ( 'NONE',  ( 4.259641040512536405E-17, -1.000000000000000000, 0.000000000000000000 ) ) ;
#246 = AXIS2_PLACEMENT_3D ( 'NONE', #254, #157, #15 ) ;
#247 = PRESENTATION_LAYER_ASSIGNMENT (  '', '', ( #229 ) ) ;
#248 = LINE ( 'NONE', #304, #36 ) ;
#249 = DIRECTION ( 'NONE',  ( 0.000000000000000000, 0.000000000000000000, -1.000000000000000000 ) ) ;
#250 = AXIS2_PLACEMENT_3D ( 'NONE', #70, #161, #255 ) ;
#251 = AXIS2_PLACEMENT_3D ( 'NONE', #152, #245, #37 ) ;
#252 = CYLINDRICAL_SURFACE ( 'NONE', #8, 0.2500000000000000000 ) ;
#253 = SURFACE_STYLE_FILL_AREA ( #231 ) ;
#254 = CARTESIAN_POINT ( 'NONE',  ( 0.000000000000000000, 3.125000000000000000, 0.000000000000000000 ) ) ;
#255 = DIRECTION ( 'NONE',  ( 0.000000000000000000, 0.000000000000000000, -1.000000000000000000 ) ) ;
#256 = SURFACE_STYLE_USAGE ( .BOTH. , #90 ) ;
#257 = VECTOR ( 'NONE', #147, 39.37007874015748143 ) ;
#258 = APPLICATION_PROTOCOL_DEFINITION ( 'draft international standard', 'automotive_design', 1998, #44 ) ;
#259 = CARTESIAN_POINT ( 'NONE',  ( 0.000000000000000000, 3.125000000000000000, -0.2500000000000000000 ) ) ;
#260 = DIRECTION ( 'NONE',  ( -4.259641040512536405E-17, 1.000000000000000000, 0.000000000000000000 ) ) ;
#261 = ORIENTED_EDGE ( 'NONE', *, *, #182, .T. ) ;
#262 = VERTEX_POINT ( 'NONE', #22 ) ;
#263 = SURFACE_STYLE_USAGE ( .BOTH. , #194 ) ;
#264 =( NAMED_UNIT ( * ) SI_UNIT ( $, .STERADIAN. ) SOLID_ANGLE_UNIT ( ) );
#265 = PRESENTATION_LAYER_ASSIGNMENT (  '', '', ( #2 ) ) ;
#266 = DIRECTION ( 'NONE',  ( -1.000000000000000000, 0.000000000000000000, 0.000000000000000000 ) ) ;
#267 = COLOUR_RGB ( '',0.7921568627450980005, 0.8196078431372548767, 0.9333333333333333481 ) ;
#268 = DIRECTION ( 'NONE',  ( -4.259641040512536405E-17, 1.000000000000000000, -0.000000000000000000 ) ) ;
#269 = DIMENSIONAL_EXPONENTS ( 1.000000000000000000, 0.000000000000000000, 0.000000000000000000, 0.000000000000000000, 0.000000000000000000, 0.000000000000000000, 0.000000000000000000 ) ;
#270 = EDGE_CURVE ( 'NONE', #167, #145, #170, .T. ) ;
#271 =( GEOMETRIC_REPRESENTATION_CONTEXT ( 3 ) GLOBAL_UNCERTAINTY_ASSIGNED_CONTEXT ( ( #183 ) ) GLOBAL_UNIT_ASSIGNED_CONTEXT ( ( #87, #185, #115 ) ) REPRESENTATION_CONTEXT ( 'NONE', 'WORKASPACE' ) );
#272 = MANIFOLD_SOLID_BREP ( 'Revolve - Cutting Edge', #96 ) ;
#273 = CARTESIAN_POINT ( 'NONE',  ( 0.000000000000000000, 3.125000000000000000, 0.000000000000000000 ) ) ;
#274 = EDGE_CURVE ( 'NONE', #262, #193, #137, .T. ) ;
#275 = DIRECTION ( 'NONE',  ( 0.000000000000000000, 0.000000000000000000, -1.000000000000000000 ) ) ;
#276 = STYLED_ITEM ( 'NONE', ( #139 ), #181 ) ;
#277 = ORIENTED_EDGE ( 'NONE', *, *, #274, .T. ) ;
#278 = EDGE_CURVE ( 'NONE', #28, #167, #222, .T. ) ;
#279 = EDGE_LOOP ( 'NONE', ( #277, #168 ) ) ;
#280 = MECHANICAL_DESIGN_GEOMETRIC_PRESENTATION_REPRESENTATION (  '', ( #276 ), #271 ) ;
#281 = AXIS2_PLACEMENT_3D ( 'NONE', #197, #220, #289 ) ;
#282 =( CONVERSION_BASED_UNIT ( 'INCH', #94 ) LENGTH_UNIT ( ) NAMED_UNIT ( #131 ) );
#283 = ORIENTED_EDGE ( 'NONE', *, *, #46, .T. ) ;
#284 = UNCERTAINTY_MEASURE_WITH_UNIT (LENGTH_MEASURE( 1.000000000000000082E-05 ), #84, 'distance_accuracy_value', 'NONE');
#285 = EDGE_LOOP ( 'NONE', ( #146, #91, #54, #100 ) ) ;
#286 = DIRECTION ( 'NONE',  ( -4.259641040512536405E-17, 1.000000000000000000, -0.000000000000000000 ) ) ;
#287 = COLOUR_RGB ( '',0.7921568627450980005, 0.8196078431372548767, 0.9333333333333333481 ) ;
#288 = CARTESIAN_POINT ( 'NONE',  ( 0.2500000000000000555, 3.125000000000000000, 3.061616997868384251E-17 ) ) ;
#289 = DIRECTION ( 'NONE',  ( 1.000000000000000000, 0.000000000000000000, 0.000000000000000000 ) ) ;
#290 = FILL_AREA_STYLE_COLOUR ( '', #287 ) ;
#291 = SURFACE_SIDE_STYLE ('',( #83 ) ) ;
#292 = STYLED_ITEM ( 'NONE', ( #64 ), #30 ) ;
#293 = DIMENSIONAL_EXPONENTS ( 1.000000000000000000, 0.000000000000000000, 0.000000000000000000, 0.000000000000000000, 0.000000000000000000, 0.000000000000000000, 0.000000000000000000 ) ;
#294 = DIRECTION ( 'NONE',  ( -4.259641040512536405E-17, 1.000000000000000000, -0.000000000000000000 ) ) ;
#295 = LENGTH_MEASURE_WITH_UNIT ( LENGTH_MEASURE( 0.02539999999999999897 ), #35 );
#296 = MANIFOLD_SOLID_BREP ( 'Revolve - Tool Body (Straight Shanked)', #212 ) ;
#297 = EDGE_CURVE ( 'NONE', #309, #262, #85, .T. ) ;
#298 = CARTESIAN_POINT ( 'NONE',  ( 0.2500000000000000555, 6.000000000000000888, 3.061616997868384251E-17 ) ) ;
#299 = UNCERTAINTY_MEASURE_WITH_UNIT (LENGTH_MEASURE( 1.000000000000000082E-05 ), #138, 'distance_accuracy_value', 'NONE');
#300 = PRESENTATION_STYLE_ASSIGNMENT (( #20 ) ) ;
#301 = PRODUCT_RELATED_PRODUCT_CATEGORY ( 'part', '', ( #23 ) ) ;
#302 = PLANE ( 'NONE',  #251 ) ;
#303 =( NAMED_UNIT ( * ) SI_UNIT ( $, .STERADIAN. ) SOLID_ANGLE_UNIT ( ) );
#304 = CARTESIAN_POINT ( 'NONE',  ( -0.2500000000000002220, 6.000000000000000888, 0.000000000000000000 ) ) ;
#305 = EDGE_LOOP ( 'NONE', ( #215, #234 ) ) ;
#306 = CARTESIAN_POINT ( 'NONE',  ( 3.061616997868383018E-17, 0.000000000000000000, 0.2500000000000000000 ) ) ;
#307 = ORIENTED_EDGE ( 'NONE', *, *, #16, .F. ) ;
#308 = EDGE_LOOP ( 'NONE', ( #186, #210, #169, #21 ) ) ;
#309 = VERTEX_POINT ( 'NONE', #259 ) ;
ENDSEC;
END-ISO-10303-21;
