ISO-10303-21;
HEADER;
FILE_DESCRIPTION (( 'STEP AP214' ),
    '1' );
FILE_NAME ('Micro_SHLM-080-4.STEP',
    '2021-09-02T08:17:18',
    ( '' ),
    ( '' ),
    'SwSTEP 2.0',
    'SolidWorks 2020',
    '' );
FILE_SCHEMA (( 'AUTOMOTIVE_DESIGN' ));
ENDSEC;

DATA;
#1 = AXIS2_PLACEMENT_3D ( 'NONE', #252, #232, #116 ) ;
#2 = ORIENTED_EDGE ( 'NONE', *, *, #223, .F. ) ;
#3 = ORIENTED_EDGE ( 'NONE', *, *, #255, .T. ) ;
#4 = STYLED_ITEM ( 'NONE', ( #49 ), #162 ) ;
#5 = EDGE_LOOP ( 'NONE', ( #86, #18, #244, #127 ) ) ;
#6 = LINE ( 'NONE', #7, #99 ) ;
#7 = CARTESIAN_POINT ( 'NONE',  ( 0.1574804999999999955, 1.928579902531247412E-17, 2.952755999999999936 ) ) ;
#8 = CIRCLE ( 'NONE', #57, 0.1573230194999999942 ) ;
#9 = CARTESIAN_POINT ( 'NONE',  ( 0.1573230195000001330, 0.0000000000000000000, 1.181102000000000096 ) ) ;
#10 = CARTESIAN_POINT ( 'NONE',  ( -0.1574804999999999955, 0.0000000000000000000, 2.937756000000000256 ) ) ;
#11 = ADVANCED_FACE ( 'NONE', ( #66 ), #67, .T. ) ;
#12 = DIRECTION ( 'NONE',  ( -1.224646799147353207E-16, -0.0000000000000000000, -1.000000000000000000 ) ) ;
#13 = DIMENSIONAL_EXPONENTS ( 1.000000000000000000, 0.0000000000000000000, 0.0000000000000000000, 0.0000000000000000000, 0.0000000000000000000, 0.0000000000000000000, 0.0000000000000000000 ) ;
#14 = APPLICATION_CONTEXT ( 'automotive_design' ) ;
#15 = AXIS2_PLACEMENT_3D ( 'NONE', #153, #221, #240 ) ;
#16 = MECHANICAL_DESIGN_GEOMETRIC_PRESENTATION_REPRESENTATION (  '', ( #4 ), #74 ) ;
#17 = VECTOR ( 'NONE', #39, 39.37007874015748143 ) ;
#18 = ORIENTED_EDGE ( 'NONE', *, *, #208, .T. ) ;
#19 = EDGE_CURVE ( 'NONE', #269, #59, #185, .T. ) ;
#20 = ORIENTED_EDGE ( 'NONE', *, *, #284, .T. ) ;
#21 = ADVANCED_FACE ( 'NONE', ( #63 ), #45, .T. ) ;
#22 = AXIS2_PLACEMENT_3D ( 'NONE', #256, #50, #123 ) ;
#23 = ORIENTED_EDGE ( 'NONE', *, *, #155, .T. ) ;
#24 = APPLICATION_PROTOCOL_DEFINITION ( 'draft international standard', 'automotive_design', 1998, #14 ) ;
#25 = DIRECTION ( 'NONE',  ( -1.224646799147353207E-16, -0.0000000000000000000, -1.000000000000000000 ) ) ;
#26 = FACE_OUTER_BOUND ( 'NONE', #274, .T. ) ;
#27 = EDGE_CURVE ( 'NONE', #59, #298, #94, .T. ) ;
#28 =( CONVERSION_BASED_UNIT ( 'INCH', #222 ) LENGTH_UNIT ( ) NAMED_UNIT ( #13 ) );
#29 = MANIFOLD_SOLID_BREP ( 'Cut-Revolve1', #170 ) ;
#30 =( GEOMETRIC_REPRESENTATION_CONTEXT ( 3 ) GLOBAL_UNCERTAINTY_ASSIGNED_CONTEXT ( ( #36 ) ) GLOBAL_UNIT_ASSIGNED_CONTEXT ( ( #28, #259, #171 ) ) REPRESENTATION_CONTEXT ( 'NONE', 'WORKASPACE' ) );
#31 = FACE_OUTER_BOUND ( 'NONE', #5, .T. ) ;
#32 = CARTESIAN_POINT ( 'NONE',  ( -0.1573230194999999942, 0.0000000000000000000, 1.926651322628716627E-17 ) ) ;
#33 = DIRECTION ( 'NONE',  ( -1.000000000000000000, 0.0000000000000000000, 0.0000000000000000000 ) ) ;
#34 = AXIS2_PLACEMENT_3D ( 'NONE', #205, #64, #131 ) ;
#35 = CARTESIAN_POINT ( 'NONE',  ( -0.1424804999999998989, 0.0000000000000000000, 2.952755999999999936 ) ) ;
#36 = UNCERTAINTY_MEASURE_WITH_UNIT (LENGTH_MEASURE( 1.000000000000000082E-05 ), #28, 'distance_accuracy_value', 'NONE');
#37 = AXIS2_PLACEMENT_3D ( 'NONE', #124, #106, #241 ) ;
#38 = VERTEX_POINT ( 'NONE', #73 ) ;
#39 = DIRECTION ( 'NONE',  ( -0.0000000000000000000, -0.0000000000000000000, -1.000000000000000000 ) ) ;
#40 = DIRECTION ( 'NONE',  ( 0.0000000000000000000, 0.0000000000000000000, -1.000000000000000000 ) ) ;
#41 = ORIENTED_EDGE ( 'NONE', *, *, #27, .T. ) ;
#42 = AXIS2_PLACEMENT_3D ( 'NONE', #56, #217, #151 ) ;
#43 = EDGE_CURVE ( 'NONE', #202, #269, #47, .T. ) ;
#44 = VERTEX_POINT ( 'NONE', #68 ) ;
#45 = PLANE ( 'NONE',  #157 ) ;
#46 = ORIENTED_EDGE ( 'NONE', *, *, #243, .F. ) ;
#47 = CIRCLE ( 'NONE', #276, 0.1424804999999998989 ) ;
#48 =( NAMED_UNIT ( * ) PLANE_ANGLE_UNIT ( ) SI_UNIT ( $, .RADIAN. ) );
#49 = PRESENTATION_STYLE_ASSIGNMENT (( #191 ) ) ;
#50 = DIRECTION ( 'NONE',  ( -1.224646799147353207E-16, -0.0000000000000000000, -1.000000000000000000 ) ) ;
#51 = CARTESIAN_POINT ( 'NONE',  ( 2.359467375330272285E-33, 0.0000000000000000000, 1.926651322628716627E-17 ) ) ;
#52 = CARTESIAN_POINT ( 'NONE',  ( 0.1424804999999998989, 1.836731392595195200E-17, 2.952755999999999936 ) ) ;
#53 = DIRECTION ( 'NONE',  ( 1.000000000000000000, 0.0000000000000000000, -0.0000000000000000000 ) ) ;
#54 = ADVANCED_FACE ( 'NONE', ( #233 ), #279, .T. ) ;
#55 = CARTESIAN_POINT ( 'NONE',  ( 0.0000000000000000000, 0.0000000000000000000, 2.952755999999999936 ) ) ;
#56 = CARTESIAN_POINT ( 'NONE',  ( 1.446432783766537245E-16, 0.0000000000000000000, 1.181102000000000096 ) ) ;
#57 = AXIS2_PLACEMENT_3D ( 'NONE', #51, #143, #215 ) ;
#58 = FACE_OUTER_BOUND ( 'NONE', #117, .T. ) ;
#59 = VERTEX_POINT ( 'NONE', #10 ) ;
#60 = AXIS2_PLACEMENT_3D ( 'NONE', #237, #291, #33 ) ;
#61 = SURFACE_STYLE_USAGE ( .BOTH. , #134 ) ;
#62 = EDGE_CURVE ( 'NONE', #294, #245, #8, .T. ) ;
#63 = FACE_OUTER_BOUND ( 'NONE', #239, .T. ) ;
#64 = DIRECTION ( 'NONE',  ( 0.0000000000000000000, 0.0000000000000000000, -1.000000000000000000 ) ) ;
#65 = CONICAL_SURFACE ( 'NONE', #34, 0.1424804999999998989, 0.7853981633974608245 ) ;
#66 = FACE_OUTER_BOUND ( 'NONE', #133, .T. ) ;
#67 = CYLINDRICAL_SURFACE ( 'NONE', #152, 0.1574804999999999955 ) ;
#68 = CARTESIAN_POINT ( 'NONE',  ( -0.1573230194999998555, 1.927615612579982019E-17, 1.181102000000000096 ) ) ;
#69 = CIRCLE ( 'NONE', #42, 0.1573230194999999942 ) ;
#70 = DIRECTION ( 'NONE',  ( 0.0000000000000000000, 0.0000000000000000000, 1.000000000000000000 ) ) ;
#71 = SURFACE_STYLE_FILL_AREA ( #93 ) ;
#72 = ADVANCED_FACE ( 'NONE', ( #31 ), #234, .T. ) ;
#73 = CARTESIAN_POINT ( 'NONE',  ( 0.1574804999999999955, 1.928579902531247412E-17, 2.937756000000000256 ) ) ;
#74 =( GEOMETRIC_REPRESENTATION_CONTEXT ( 3 ) GLOBAL_UNCERTAINTY_ASSIGNED_CONTEXT ( ( #182 ) ) GLOBAL_UNIT_ASSIGNED_CONTEXT ( ( #283, #120, #231 ) ) REPRESENTATION_CONTEXT ( 'NONE', 'WORKASPACE' ) );
#75 = LINE ( 'NONE', #32, #114 ) ;
#76 = DIMENSIONAL_EXPONENTS ( 1.000000000000000000, 0.0000000000000000000, 0.0000000000000000000, 0.0000000000000000000, 0.0000000000000000000, 0.0000000000000000000, 0.0000000000000000000 ) ;
#77 = PLANE ( 'NONE',  #225 ) ;
#78 = CIRCLE ( 'NONE', #160, 0.1574804999999999955 ) ;
#79 = EDGE_CURVE ( 'NONE', #202, #38, #103, .T. ) ;
#80 = DIRECTION ( 'NONE',  ( -1.000000000000000000, 0.0000000000000000000, 0.0000000000000000000 ) ) ;
#81 = PRODUCT ( 'Micro_SHLM-080-4', 'Micro_SHLM-080-4', '', ( #282 ) ) ;
#82 = ADVANCED_FACE ( 'NONE', ( #26 ), #238, .T. ) ;
#83 = CARTESIAN_POINT ( 'NONE',  ( 0.0000000000000000000, 0.0000000000000000000, 2.937756000000000256 ) ) ;
#84 = EDGE_LOOP ( 'NONE', ( #229, #289 ) ) ;
#85 = CONICAL_SURFACE ( 'NONE', #15, 0.1573230194999999942, 0.1745329251994337250 ) ;
#86 = ORIENTED_EDGE ( 'NONE', *, *, #266, .T. ) ;
#87 = AXIS2_PLACEMENT_3D ( 'NONE', #210, #176, #122 ) ;
#88 = DIRECTION ( 'NONE',  ( 0.0000000000000000000, 0.0000000000000000000, -1.000000000000000000 ) ) ;
#89 = ORIENTED_EDGE ( 'NONE', *, *, #79, .T. ) ;
#90 = PRODUCT_DEFINITION_SHAPE ( 'NONE', 'NONE',  #212 ) ;
#91 = ORIENTED_EDGE ( 'NONE', *, *, #199, .F. ) ;
#92 = VERTEX_POINT ( 'NONE', #9 ) ;
#93 = FILL_AREA_STYLE ('',( #119 ) ) ;
#94 = LINE ( 'NONE', #159, #17 ) ;
#95 = DIRECTION ( 'NONE',  ( -1.224646799147353207E-16, -0.0000000000000000000, -1.000000000000000000 ) ) ;
#96 = DIRECTION ( 'NONE',  ( -0.0000000000000000000, -0.0000000000000000000, -1.000000000000000000 ) ) ;
#97 = APPLICATION_PROTOCOL_DEFINITION ( 'draft international standard', 'automotive_design', 1998, #112 ) ;
#98 = ORIENTED_EDGE ( 'NONE', *, *, #19, .T. ) ;
#99 = VECTOR ( 'NONE', #96, 39.37007874015748143 ) ;
#100 = CYLINDRICAL_SURFACE ( 'NONE', #1, 0.1573230194999999942 ) ;
#101 = DIRECTION ( 'NONE',  ( 0.0000000000000000000, 0.0000000000000000000, 1.000000000000000000 ) ) ;
#102 = CARTESIAN_POINT ( 'NONE',  ( 0.1573230194999999942, 1.926651322628716627E-17, -1.926651322628716627E-17 ) ) ;
#103 = LINE ( 'NONE', #193, #242 ) ;
#104 = DIRECTION ( 'NONE',  ( 1.000000000000000000, 0.0000000000000000000, 0.0000000000000000000 ) ) ;
#105 = AXIS2_PLACEMENT_3D ( 'NONE', #55, #88, #80 ) ;
#106 = DIRECTION ( 'NONE',  ( -1.224646799147353207E-16, -0.0000000000000000000, -1.000000000000000000 ) ) ;
#107 = CARTESIAN_POINT ( 'NONE',  ( 2.359467375330272285E-33, 0.0000000000000000000, 1.926651322628716627E-17 ) ) ;
#108 = PRODUCT_DEFINITION_CONTEXT ( 'detailed design', #112, 'design' ) ;
#109 = EDGE_LOOP ( 'NONE', ( #219, #272, #98, #135 ) ) ;
#110 = AXIS2_PLACEMENT_3D ( 'NONE', #246, #40, #132 ) ;
#111 = DIRECTION ( 'NONE',  ( 1.000000000000000000, 0.0000000000000000000, -0.0000000000000000000 ) ) ;
#112 = APPLICATION_CONTEXT ( 'automotive_design' ) ;
#113 = ORIENTED_EDGE ( 'NONE', *, *, #214, .F. ) ;
#114 = VECTOR ( 'NONE', #25, 39.37007874015748143 ) ;
#115 = ORIENTED_EDGE ( 'NONE', *, *, #19, .F. ) ;
#116 = DIRECTION ( 'NONE',  ( -1.000000000000000000, 0.0000000000000000000, 1.224646799147353454E-16 ) ) ;
#117 = EDGE_LOOP ( 'NONE', ( #165, #46, #195, #206 ) ) ;
#118 = DIRECTION ( 'NONE',  ( 0.0000000000000000000, 0.0000000000000000000, 1.000000000000000000 ) ) ;
#119 = FILL_AREA_STYLE_COLOUR ( '', #146 ) ;
#120 =( NAMED_UNIT ( * ) PLANE_ANGLE_UNIT ( ) SI_UNIT ( $, .RADIAN. ) );
#121 = LINE ( 'NONE', #102, #139 ) ;
#122 = DIRECTION ( 'NONE',  ( -1.000000000000000000, 0.0000000000000000000, 0.0000000000000000000 ) ) ;
#123 = DIRECTION ( 'NONE',  ( -1.000000000000000000, 0.0000000000000000000, 1.224646799147353454E-16 ) ) ;
#124 = CARTESIAN_POINT ( 'NONE',  ( 1.447526535780427694E-16, 0.0000000000000000000, 1.181995116296594261 ) ) ;
#125 = EDGE_CURVE ( 'NONE', #269, #202, #194, .T. ) ;
#126 = ORIENTED_EDGE ( 'NONE', *, *, #125, .T. ) ;
#127 = ORIENTED_EDGE ( 'NONE', *, *, #27, .F. ) ;
#128 = DIRECTION ( 'NONE',  ( 0.0000000000000000000, 0.0000000000000000000, -1.000000000000000000 ) ) ;
#129 = COLOUR_RGB ( '',0.7921568627450980005, 0.8196078431372548767, 0.9333333333333333481 ) ;
#130 = CARTESIAN_POINT ( 'NONE',  ( 0.0000000000000000000, 0.0000000000000000000, 2.952755999999999936 ) ) ;
#131 = DIRECTION ( 'NONE',  ( -1.000000000000000000, 0.0000000000000000000, 0.0000000000000000000 ) ) ;
#132 = DIRECTION ( 'NONE',  ( 1.000000000000000000, 0.0000000000000000000, 0.0000000000000000000 ) ) ;
#133 = EDGE_LOOP ( 'NONE', ( #156, #20, #41, #91 ) ) ;
#134 = SURFACE_SIDE_STYLE ('',( #224 ) ) ;
#135 = ORIENTED_EDGE ( 'NONE', *, *, #284, .F. ) ;
#136 =( LENGTH_UNIT ( ) NAMED_UNIT ( * ) SI_UNIT ( $, .METRE. ) );
#137 = FILL_AREA_STYLE_COLOUR ( '', #129 ) ;
#138 = FACE_OUTER_BOUND ( 'NONE', #109, .T. ) ;
#139 = VECTOR ( 'NONE', #95, 39.37007874015748143 ) ;
#140 = DIRECTION ( 'NONE',  ( 0.7071067811865563435, 8.659560562355041327E-17, -0.7071067811865386910 ) ) ;
#141 = EDGE_LOOP ( 'NONE', ( #3, #296, #168, #297 ) ) ;
#142 = FACE_OUTER_BOUND ( 'NONE', #186, .T. ) ;
#143 = DIRECTION ( 'NONE',  ( -1.224646799147353207E-16, -0.0000000000000000000, -1.000000000000000000 ) ) ;
#144 = SHAPE_DEFINITION_REPRESENTATION ( #90, #162 ) ;
#145 = ORIENTED_EDGE ( 'NONE', *, *, #249, .T. ) ;
#146 = COLOUR_RGB ( '',0.7921568627450980005, 0.8196078431372548767, 0.9333333333333333481 ) ;
#147 =( CONVERSION_BASED_UNIT ( 'INCH', #169 ) LENGTH_UNIT ( ) NAMED_UNIT ( #76 ) );
#148 = PRODUCT_DEFINITION_FORMATION_WITH_SPECIFIED_SOURCE ( 'ANY', '', #81, .NOT_KNOWN. ) ;
#149 = DIRECTION ( 'NONE',  ( 0.1736481776669312194, 0.0000000000000000000, 0.9848077530122077983 ) ) ;
#150 = ADVANCED_FACE ( 'NONE', ( #285 ), #77, .F. ) ;
#151 = DIRECTION ( 'NONE',  ( -1.000000000000000000, 0.0000000000000000000, 0.0000000000000000000 ) ) ;
#152 = AXIS2_PLACEMENT_3D ( 'NONE', #248, #226, #163 ) ;
#153 = CARTESIAN_POINT ( 'NONE',  ( 1.446432783766537245E-16, 0.0000000000000000000, 1.181102000000000096 ) ) ;
#154 = CARTESIAN_POINT ( 'NONE',  ( 0.1573230195000001330, 0.0000000000000000000, 1.181102000000000096 ) ) ;
#155 = EDGE_CURVE ( 'NONE', #44, #294, #75, .T. ) ;
#156 = ORIENTED_EDGE ( 'NONE', *, *, #208, .F. ) ;
#157 = AXIS2_PLACEMENT_3D ( 'NONE', #251, #161, #111 ) ;
#158 = UNCERTAINTY_MEASURE_WITH_UNIT (LENGTH_MEASURE( 1.000000000000000082E-05 ), #147, 'distance_accuracy_value', 'NONE');
#159 = CARTESIAN_POINT ( 'NONE',  ( -0.1574804999999999955, 0.0000000000000000000, 2.952755999999999936 ) ) ;
#160 = AXIS2_PLACEMENT_3D ( 'NONE', #83, #128, #177 ) ;
#161 = DIRECTION ( 'NONE',  ( 0.0000000000000000000, 0.0000000000000000000, 1.000000000000000000 ) ) ;
#162 = ADVANCED_BREP_SHAPE_REPRESENTATION ( 'Micro_SHLM-080-4', ( #29, #228 ), #30 ) ;
#163 = DIRECTION ( 'NONE',  ( -1.000000000000000000, 0.0000000000000000000, 0.0000000000000000000 ) ) ;
#164 = ADVANCED_FACE ( 'NONE', ( #142 ), #100, .T. ) ;
#165 = ORIENTED_EDGE ( 'NONE', *, *, #292, .F. ) ;
#166 = DIRECTION ( 'NONE',  ( 1.224646799147353207E-16, 0.0000000000000000000, 1.000000000000000000 ) ) ;
#167 = CIRCLE ( 'NONE', #216, 0.1573230194999999942 ) ;
#168 = ORIENTED_EDGE ( 'NONE', *, *, #62, .F. ) ;
#169 = LENGTH_MEASURE_WITH_UNIT ( LENGTH_MEASURE( 0.02539999999999999897 ), #211 );
#170 = CLOSED_SHELL ( 'NONE', ( #54, #82, #290, #72, #11, #21, #295, #267, #164, #150 ) ) ;
#171 =( NAMED_UNIT ( * ) SI_UNIT ( $, .STERADIAN. ) SOLID_ANGLE_UNIT ( ) );
#172 = DIRECTION ( 'NONE',  ( 1.000000000000000000, 0.0000000000000000000, 0.0000000000000000000 ) ) ;
#173 = CARTESIAN_POINT ( 'NONE',  ( 0.0000000000000000000, 0.0000000000000000000, 0.0000000000000000000 ) ) ;
#174 = CARTESIAN_POINT ( 'NONE',  ( 1.447526535780427694E-16, 0.0000000000000000000, 1.181995116296594261 ) ) ;
#175 = CIRCLE ( 'NONE', #280, 0.1574804999999999955 ) ;
#176 = DIRECTION ( 'NONE',  ( -0.0000000000000000000, -0.0000000000000000000, -1.000000000000000000 ) ) ;
#177 = DIRECTION ( 'NONE',  ( 1.000000000000000000, 0.0000000000000000000, 0.0000000000000000000 ) ) ;
#178 = MECHANICAL_DESIGN_GEOMETRIC_PRESENTATION_REPRESENTATION (  '', ( #196 ), #253 ) ;
#179 = DIMENSIONAL_EXPONENTS ( 1.000000000000000000, 0.0000000000000000000, 0.0000000000000000000, 0.0000000000000000000, 0.0000000000000000000, 0.0000000000000000000, 0.0000000000000000000 ) ;
#180 = ORIENTED_EDGE ( 'NONE', *, *, #43, .T. ) ;
#181 = AXIS2_PLACEMENT_3D ( 'NONE', #264, #166, #104 ) ;
#182 = UNCERTAINTY_MEASURE_WITH_UNIT (LENGTH_MEASURE( 1.000000000000000082E-05 ), #283, 'distance_accuracy_value', 'NONE');
#183 = ORIENTED_EDGE ( 'NONE', *, *, #293, .F. ) ;
#184 = CARTESIAN_POINT ( 'NONE',  ( -0.1574804999999998567, 0.0000000000000000000, 1.181995116296594261 ) ) ;
#185 = LINE ( 'NONE', #277, #220 ) ;
#186 = EDGE_LOOP ( 'NONE', ( #183, #281, #23, #2 ) ) ;
#187 = PRESENTATION_LAYER_ASSIGNMENT (  '', '', ( #196 ) ) ;
#188 = EDGE_LOOP ( 'NONE', ( #198, #89, #299, #115 ) ) ;
#189 =( NAMED_UNIT ( * ) SI_UNIT ( $, .STERADIAN. ) SOLID_ANGLE_UNIT ( ) );
#190 = AXIS2_PLACEMENT_3D ( 'NONE', #236, #118, #286 ) ;
#191 = SURFACE_STYLE_USAGE ( .BOTH. , #204 ) ;
#192 = CARTESIAN_POINT ( 'NONE',  ( 0.0000000000000000000, 0.0000000000000000000, 0.0000000000000000000 ) ) ;
#193 = CARTESIAN_POINT ( 'NONE',  ( 0.1424804999999998989, 1.744882882659143297E-17, 2.952755999999999936 ) ) ;
#194 = CIRCLE ( 'NONE', #190, 0.1424804999999998989 ) ;
#195 = ORIENTED_EDGE ( 'NONE', *, *, #214, .T. ) ;
#196 = STYLED_ITEM ( 'NONE', ( #227 ), #29 ) ;
#197 = FACE_OUTER_BOUND ( 'NONE', #188, .T. ) ;
#198 = ORIENTED_EDGE ( 'NONE', *, *, #43, .F. ) ;
#199 = EDGE_CURVE ( 'NONE', #200, #298, #175, .T. ) ;
#200 = VERTEX_POINT ( 'NONE', #261 ) ;
#201 = ORIENTED_EDGE ( 'NONE', *, *, #255, .F. ) ;
#202 = VERTEX_POINT ( 'NONE', #52 ) ;
#203 = DIRECTION ( 'NONE',  ( 1.000000000000000000, 0.0000000000000000000, 0.0000000000000000000 ) ) ;
#204 = SURFACE_SIDE_STYLE ('',( #71 ) ) ;
#205 = CARTESIAN_POINT ( 'NONE',  ( 0.0000000000000000000, 0.0000000000000000000, 2.952755999999999936 ) ) ;
#206 = ORIENTED_EDGE ( 'NONE', *, *, #199, .T. ) ;
#207 = DIRECTION ( 'NONE',  ( -1.224646799147353207E-16, -0.0000000000000000000, -1.000000000000000000 ) ) ;
#208 = EDGE_CURVE ( 'NONE', #38, #200, #6, .T. ) ;
#209 = CIRCLE ( 'NONE', #110, 0.1574804999999999955 ) ;
#210 = CARTESIAN_POINT ( 'NONE',  ( 0.0000000000000000000, 0.0000000000000000000, 2.952755999999999936 ) ) ;
#211 =( LENGTH_UNIT ( ) NAMED_UNIT ( * ) SI_UNIT ( $, .METRE. ) );
#212 = PRODUCT_DEFINITION ( 'UNKNOWN', '', #148, #108 ) ;
#213 = CARTESIAN_POINT ( 'NONE',  ( -0.1573230194999999942, 0.0000000000000000000, 3.853302645257433254E-17 ) ) ;
#214 = EDGE_CURVE ( 'NONE', #92, #200, #218, .T. ) ;
#215 = DIRECTION ( 'NONE',  ( -1.000000000000000000, 0.0000000000000000000, 1.224646799147353454E-16 ) ) ;
#216 = AXIS2_PLACEMENT_3D ( 'NONE', #107, #12, #288 ) ;
#217 = DIRECTION ( 'NONE',  ( -1.224646799147353207E-16, -0.0000000000000000000, -1.000000000000000000 ) ) ;
#218 = LINE ( 'NONE', #154, #262 ) ;
#219 = ORIENTED_EDGE ( 'NONE', *, *, #79, .F. ) ;
#220 = VECTOR ( 'NONE', #275, 39.37007874015748143 ) ;
#221 = DIRECTION ( 'NONE',  ( 1.224646799147353207E-16, 0.0000000000000000000, 1.000000000000000000 ) ) ;
#222 = LENGTH_MEASURE_WITH_UNIT ( LENGTH_MEASURE( 0.02539999999999999897 ), #136 );
#223 = EDGE_CURVE ( 'NONE', #245, #294, #167, .T. ) ;
#224 = SURFACE_STYLE_FILL_AREA ( #230 ) ;
#225 = AXIS2_PLACEMENT_3D ( 'NONE', #192, #70, #53 ) ;
#226 = DIRECTION ( 'NONE',  ( -0.0000000000000000000, -0.0000000000000000000, -1.000000000000000000 ) ) ;
#227 = PRESENTATION_STYLE_ASSIGNMENT (( #61 ) ) ;
#228 = AXIS2_PLACEMENT_3D ( 'NONE', #173, #101, #263 ) ;
#229 = ORIENTED_EDGE ( 'NONE', *, *, #62, .T. ) ;
#230 = FILL_AREA_STYLE ('',( #137 ) ) ;
#231 =( NAMED_UNIT ( * ) SI_UNIT ( $, .STERADIAN. ) SOLID_ANGLE_UNIT ( ) );
#232 = DIRECTION ( 'NONE',  ( -1.224646799147353207E-16, -0.0000000000000000000, -1.000000000000000000 ) ) ;
#233 = FACE_OUTER_BOUND ( 'NONE', #141, .T. ) ;
#234 = CYLINDRICAL_SURFACE ( 'NONE', #87, 0.1574804999999999955 ) ;
#235 = CIRCLE ( 'NONE', #37, 0.1574804999999999955 ) ;
#236 = CARTESIAN_POINT ( 'NONE',  ( 0.0000000000000000000, 0.0000000000000000000, 2.952755999999999936 ) ) ;
#237 = CARTESIAN_POINT ( 'NONE',  ( 1.446432783766537245E-16, 0.0000000000000000000, 1.181102000000000096 ) ) ;
#238 = CONICAL_SURFACE ( 'NONE', #181, 0.1573230194999999942, 0.1745329251994337250 ) ;
#239 = EDGE_LOOP ( 'NONE', ( #126, #180 ) ) ;
#240 = DIRECTION ( 'NONE',  ( 1.000000000000000000, 0.0000000000000000000, 0.0000000000000000000 ) ) ;
#241 = DIRECTION ( 'NONE',  ( 1.000000000000000000, 0.0000000000000000000, 0.0000000000000000000 ) ) ;
#242 = VECTOR ( 'NONE', #140, 39.37007874015748143 ) ;
#243 = EDGE_CURVE ( 'NONE', #92, #44, #287, .T. ) ;
#244 = ORIENTED_EDGE ( 'NONE', *, *, #249, .F. ) ;
#245 = VERTEX_POINT ( 'NONE', #268 ) ;
#246 = CARTESIAN_POINT ( 'NONE',  ( 0.0000000000000000000, 0.0000000000000000000, 2.937756000000000256 ) ) ;
#247 = CONICAL_SURFACE ( 'NONE', #105, 0.1424804999999998989, 0.7853981633974608245 ) ;
#248 = CARTESIAN_POINT ( 'NONE',  ( 0.0000000000000000000, 0.0000000000000000000, 2.952755999999999936 ) ) ;
#249 = EDGE_CURVE ( 'NONE', #298, #200, #235, .T. ) ;
#250 = DIRECTION ( 'NONE',  ( -0.1736481776669309973, 2.126576849575781159E-17, 0.9848077530122080203 ) ) ;
#251 = CARTESIAN_POINT ( 'NONE',  ( 0.0000000000000000000, 0.0000000000000000000, 2.952755999999999936 ) ) ;
#252 = CARTESIAN_POINT ( 'NONE',  ( 0.0000000000000000000, 0.0000000000000000000, 0.0000000000000000000 ) ) ;
#253 =( GEOMETRIC_REPRESENTATION_CONTEXT ( 3 ) GLOBAL_UNCERTAINTY_ASSIGNED_CONTEXT ( ( #158 ) ) GLOBAL_UNIT_ASSIGNED_CONTEXT ( ( #147, #48, #189 ) ) REPRESENTATION_CONTEXT ( 'NONE', 'WORKASPACE' ) );
#254 = LENGTH_MEASURE_WITH_UNIT ( LENGTH_MEASURE( 0.02539999999999999897 ), #257 );
#255 = EDGE_CURVE ( 'NONE', #44, #92, #69, .T. ) ;
#256 = CARTESIAN_POINT ( 'NONE',  ( 0.0000000000000000000, 0.0000000000000000000, 0.0000000000000000000 ) ) ;
#257 =( LENGTH_UNIT ( ) NAMED_UNIT ( * ) SI_UNIT ( $, .METRE. ) );
#258 = DIRECTION ( 'NONE',  ( 0.0000000000000000000, 0.0000000000000000000, 1.000000000000000000 ) ) ;
#259 =( NAMED_UNIT ( * ) PLANE_ANGLE_UNIT ( ) SI_UNIT ( $, .RADIAN. ) );
#260 = PRODUCT_RELATED_PRODUCT_CATEGORY ( 'part', '', ( #81 ) ) ;
#261 = CARTESIAN_POINT ( 'NONE',  ( 0.1574805000000001343, 1.928579902531249261E-17, 1.181995116296594261 ) ) ;
#262 = VECTOR ( 'NONE', #149, 39.37007874015748143 ) ;
#263 = DIRECTION ( 'NONE',  ( 1.000000000000000000, 0.0000000000000000000, 0.0000000000000000000 ) ) ;
#264 = CARTESIAN_POINT ( 'NONE',  ( 1.446432783766537245E-16, 0.0000000000000000000, 1.181102000000000096 ) ) ;
#265 = CARTESIAN_POINT ( 'NONE',  ( -0.1573230194999998555, 1.926651322628716627E-17, 1.181102000000000096 ) ) ;
#266 = EDGE_CURVE ( 'NONE', #59, #38, #78, .T. ) ;
#267 = ADVANCED_FACE ( 'NONE', ( #58 ), #85, .T. ) ;
#268 = CARTESIAN_POINT ( 'NONE',  ( 0.1573230194999999942, 1.926651322628716627E-17, 0.0000000000000000000 ) ) ;
#269 = VERTEX_POINT ( 'NONE', #35 ) ;
#270 = LINE ( 'NONE', #265, #271 ) ;
#271 = VECTOR ( 'NONE', #250, 39.37007874015748854 ) ;
#272 = ORIENTED_EDGE ( 'NONE', *, *, #125, .F. ) ;
#273 = PRESENTATION_LAYER_ASSIGNMENT (  '', '', ( #4 ) ) ;
#274 = EDGE_LOOP ( 'NONE', ( #201, #278, #145, #113 ) ) ;
#275 = DIRECTION ( 'NONE',  ( -0.7071067811865563435, 0.0000000000000000000, -0.7071067811865386910 ) ) ;
#276 = AXIS2_PLACEMENT_3D ( 'NONE', #130, #258, #172 ) ;
#277 = CARTESIAN_POINT ( 'NONE',  ( -0.1424804999999998989, 0.0000000000000000000, 2.952755999999999936 ) ) ;
#278 = ORIENTED_EDGE ( 'NONE', *, *, #292, .T. ) ;
#279 = CYLINDRICAL_SURFACE ( 'NONE', #22, 0.1573230194999999942 ) ;
#280 = AXIS2_PLACEMENT_3D ( 'NONE', #174, #207, #203 ) ;
#281 = ORIENTED_EDGE ( 'NONE', *, *, #243, .T. ) ;
#282 = PRODUCT_CONTEXT ( 'NONE', #14, 'mechanical' ) ;
#283 =( CONVERSION_BASED_UNIT ( 'INCH', #254 ) LENGTH_UNIT ( ) NAMED_UNIT ( #179 ) );
#284 = EDGE_CURVE ( 'NONE', #38, #59, #209, .T. ) ;
#285 = FACE_OUTER_BOUND ( 'NONE', #84, .T. ) ;
#286 = DIRECTION ( 'NONE',  ( 1.000000000000000000, 0.0000000000000000000, 0.0000000000000000000 ) ) ;
#287 = CIRCLE ( 'NONE', #60, 0.1573230194999999942 ) ;
#288 = DIRECTION ( 'NONE',  ( -1.000000000000000000, 0.0000000000000000000, 1.224646799147353454E-16 ) ) ;
#289 = ORIENTED_EDGE ( 'NONE', *, *, #223, .T. ) ;
#290 = ADVANCED_FACE ( 'NONE', ( #197 ), #247, .T. ) ;
#291 = DIRECTION ( 'NONE',  ( -1.224646799147353207E-16, -0.0000000000000000000, -1.000000000000000000 ) ) ;
#292 = EDGE_CURVE ( 'NONE', #44, #298, #270, .T. ) ;
#293 = EDGE_CURVE ( 'NONE', #92, #245, #121, .T. ) ;
#294 = VERTEX_POINT ( 'NONE', #213 ) ;
#295 = ADVANCED_FACE ( 'NONE', ( #138 ), #65, .T. ) ;
#296 = ORIENTED_EDGE ( 'NONE', *, *, #293, .T. ) ;
#297 = ORIENTED_EDGE ( 'NONE', *, *, #155, .F. ) ;
#298 = VERTEX_POINT ( 'NONE', #184 ) ;
#299 = ORIENTED_EDGE ( 'NONE', *, *, #266, .F. ) ;
ENDSEC;
END-ISO-10303-21;
