ISO-10303-21;
HEADER;
FILE_DESCRIPTION (( 'STEP AP214' ),
    '1' );
FILE_NAME ('Micro_SBMM-060-430X.STEP',
    '2021-09-02T17:15:13',
    ( '' ),
    ( '' ),
    'SwSTEP 2.0',
    'SolidWorks 2020',
    '' );
FILE_SCHEMA (( 'AUTOMOTIVE_DESIGN' ));
ENDSEC;

DATA;
#1 = CYLINDRICAL_SURFACE ( 'NONE', #160, 0.1181100000000000344 ) ;
#2 = CARTESIAN_POINT ( 'NONE',  ( 0.0000000000000000000, 0.0000000000000000000, 1.181102000000000096 ) ) ;
#3 = PRESENTATION_LAYER_ASSIGNMENT (  '', '', ( #306 ) ) ;
#4 = DIRECTION ( 'NONE',  ( 0.0000000000000000000, 1.000000000000000000, 0.0000000000000000000 ) ) ;
#5 = CARTESIAN_POINT ( 'NONE',  ( 0.0000000000000000000, 0.0000000000000000000, 2.952755999999999936 ) ) ;
#6 = FACE_OUTER_BOUND ( 'NONE', #236, .T. ) ;
#7 = COLOUR_RGB ( '',0.7921568627450980005, 0.8196078431372548767, 0.9333333333333333481 ) ;
#8 = CIRCLE ( 'NONE', #263, 0.07873999999999996280 ) ;
#9 = CIRCLE ( 'NONE', #258, 0.07873999999999986565 ) ;
#10 = DIRECTION ( 'NONE',  ( 0.0000000000000000000, 0.0000000000000000000, 1.000000000000000000 ) ) ;
#11 = DIRECTION ( 'NONE',  ( -1.000000000000000000, 0.0000000000000000000, 0.0000000000000000000 ) ) ;
#12 = VERTEX_POINT ( 'NONE', #239 ) ;
#13 = DIRECTION ( 'NONE',  ( -0.7071067811865486830, 0.0000000000000000000, -0.7071067811865462405 ) ) ;
#14 = VERTEX_POINT ( 'NONE', #267 ) ;
#15 = VECTOR ( 'NONE', #13, 39.37007874015748854 ) ;
#16 = DIRECTION ( 'NONE',  ( -1.000000000000000000, 0.0000000000000000000, 0.0000000000000000000 ) ) ;
#17 = MANIFOLD_SOLID_BREP ( 'Cut-Revolve3', #325 ) ;
#18 = DIMENSIONAL_EXPONENTS ( 1.000000000000000000, 0.0000000000000000000, 0.0000000000000000000, 0.0000000000000000000, 0.0000000000000000000, 0.0000000000000000000, 0.0000000000000000000 ) ;
#19 = ORIENTED_EDGE ( 'NONE', *, *, #227, .F. ) ;
#20 = AXIS2_PLACEMENT_3D ( 'NONE', #91, #62, #181 ) ;
#21 =( LENGTH_UNIT ( ) NAMED_UNIT ( * ) SI_UNIT ( $, .METRE. ) );
#22 = ADVANCED_FACE ( 'NONE', ( #196 ), #109, .T. ) ;
#23 = VERTEX_POINT ( 'NONE', #137 ) ;
#24 = FILL_AREA_STYLE_COLOUR ( '', #7 ) ;
#25 = AXIS2_PLACEMENT_3D ( 'NONE', #5, #193, #197 ) ;
#26 = CARTESIAN_POINT ( 'NONE',  ( 0.0000000000000000000, 0.0000000000000000000, 0.1181100000000000066 ) ) ;
#27 = CARTESIAN_POINT ( 'NONE',  ( 0.0000000000000000000, 0.0000000000000000000, 2.952755999999999936 ) ) ;
#28 = SPHERICAL_SURFACE ( 'NONE', #279, 0.1181099999999999928 ) ;
#29 = VECTOR ( 'NONE', #30, 39.37007874015748143 ) ;
#30 = DIRECTION ( 'NONE',  ( -0.09053553870087675814, 1.108740576791100357E-17, 0.9958932253169222593 ) ) ;
#31 = EDGE_CURVE ( 'NONE', #293, #12, #52, .T. ) ;
#32 = CARTESIAN_POINT ( 'NONE',  ( 0.1181100000000000344, 1.446430334472939084E-17, 2.937755999999999368 ) ) ;
#33 = DIRECTION ( 'NONE',  ( -1.000000000000000000, 0.0000000000000000000, 0.0000000000000000000 ) ) ;
#34 = ORIENTED_EDGE ( 'NONE', *, *, #227, .T. ) ;
#35 = DIRECTION ( 'NONE',  ( -0.0000000000000000000, -0.0000000000000000000, -1.000000000000000000 ) ) ;
#36 = ADVANCED_FACE ( 'NONE', ( #142 ), #183, .T. ) ;
#37 = DIRECTION ( 'NONE',  ( -0.0000000000000000000, -0.0000000000000000000, -1.000000000000000000 ) ) ;
#38 = DIRECTION ( 'NONE',  ( 0.0000000000000000000, 0.0000000000000000000, 1.000000000000000000 ) ) ;
#39 = ORIENTED_EDGE ( 'NONE', *, *, #79, .T. ) ;
#40 = CIRCLE ( 'NONE', #235, 0.1031099999999991745 ) ;
#41 = APPLICATION_PROTOCOL_DEFINITION ( 'draft international standard', 'automotive_design', 1998, #302 ) ;
#42 = ORIENTED_EDGE ( 'NONE', *, *, #264, .F. ) ;
#43 = EDGE_LOOP ( 'NONE', ( #284, #229, #243, #210, #316 ) ) ;
#44 = EDGE_CURVE ( 'NONE', #308, #14, #155, .T. ) ;
#45 = SURFACE_STYLE_USAGE ( .BOTH. , #69 ) ;
#46 = ORIENTED_EDGE ( 'NONE', *, *, #31, .F. ) ;
#47 = ORIENTED_EDGE ( 'NONE', *, *, #110, .T. ) ;
#48 = FACE_OUTER_BOUND ( 'NONE', #241, .T. ) ;
#49 = ADVANCED_FACE ( 'NONE', ( #324 ), #1, .T. ) ;
#50 = CARTESIAN_POINT ( 'NONE',  ( 0.0000000000000000000, 0.0000000000000000000, 2.937755999999999368 ) ) ;
#51 = DIRECTION ( 'NONE',  ( 0.0000000000000000000, 0.0000000000000000000, 1.000000000000000000 ) ) ;
#52 = CIRCLE ( 'NONE', #257, 0.1031099999999991745 ) ;
#53 = CARTESIAN_POINT ( 'NONE',  ( 0.0000000000000000000, 0.0000000000000000000, 2.952755999999999936 ) ) ;
#54 = AXIS2_PLACEMENT_3D ( 'NONE', #117, #145, #281 ) ;
#55 = CARTESIAN_POINT ( 'NONE',  ( 0.07873999999999986565, 0.0000000000000000000, 1.181102000000000096 ) ) ;
#56 = CARTESIAN_POINT ( 'NONE',  ( 0.0000000000000000000, 0.0000000000000000000, 2.952755999999999936 ) ) ;
#57 = ORIENTED_EDGE ( 'NONE', *, *, #178, .T. ) ;
#58 = DIRECTION ( 'NONE',  ( -1.000000000000000000, 0.0000000000000000000, 0.0000000000000000000 ) ) ;
#59 = ORIENTED_EDGE ( 'NONE', *, *, #110, .F. ) ;
#60 = CYLINDRICAL_SURFACE ( 'NONE', #244, 0.07873999999999992117 ) ;
#61 = ORIENTED_EDGE ( 'NONE', *, *, #260, .T. ) ;
#62 = DIRECTION ( 'NONE',  ( 0.0000000000000000000, 0.0000000000000000000, 1.000000000000000000 ) ) ;
#63 = CARTESIAN_POINT ( 'NONE',  ( -0.1181100000000000344, 0.0000000000000000000, 2.937755999999999368 ) ) ;
#64 = AXIS2_PLACEMENT_3D ( 'NONE', #299, #172, #223 ) ;
#65 = CIRCLE ( 'NONE', #224, 0.1181100000000000344 ) ;
#66 = APPLICATION_PROTOCOL_DEFINITION ( 'draft international standard', 'automotive_design', 1998, #252 ) ;
#67 = PRESENTATION_STYLE_ASSIGNMENT (( #130 ) ) ;
#68 = EDGE_CURVE ( 'NONE', #95, #278, #9, .T. ) ;
#69 = SURFACE_SIDE_STYLE ('',( #312 ) ) ;
#70 = ORIENTED_EDGE ( 'NONE', *, *, #139, .F. ) ;
#71 = ORIENTED_EDGE ( 'NONE', *, *, #237, .T. ) ;
#72 =( CONVERSION_BASED_UNIT ( 'INCH', #265 ) LENGTH_UNIT ( ) NAMED_UNIT ( #128 ) );
#73 = PRODUCT_DEFINITION_SHAPE ( 'NONE', 'NONE',  #192 ) ;
#74 = DIRECTION ( 'NONE',  ( -1.000000000000000000, 0.0000000000000000000, 0.0000000000000000000 ) ) ;
#75 = AXIS2_PLACEMENT_3D ( 'NONE', #251, #289, #33 ) ;
#76 = DIRECTION ( 'NONE',  ( -0.0000000000000000000, -0.0000000000000000000, -1.000000000000000000 ) ) ;
#77 = EDGE_CURVE ( 'NONE', #205, #132, #65, .T. ) ;
#78 = DIRECTION ( 'NONE',  ( 0.0000000000000000000, 0.0000000000000000000, 1.000000000000000000 ) ) ;
#79 = EDGE_CURVE ( 'NONE', #132, #340, #322, .T. ) ;
#80 = DIRECTION ( 'NONE',  ( 0.7071067811865486830, 8.659560562354947649E-17, -0.7071067811865462405 ) ) ;
#81 = PRODUCT_DEFINITION_CONTEXT ( 'detailed design', #302, 'design' ) ;
#82 = DIRECTION ( 'NONE',  ( -0.0000000000000000000, -0.0000000000000000000, -1.000000000000000000 ) ) ;
#83 = AXIS2_PLACEMENT_3D ( 'NONE', #50, #270, #107 ) ;
#84 = CARTESIAN_POINT ( 'NONE',  ( 0.0000000000000000000, 0.0000000000000000000, 1.614173000000000080 ) ) ;
#85 = UNCERTAINTY_MEASURE_WITH_UNIT (LENGTH_MEASURE( 1.000000000000000082E-05 ), #72, 'distance_accuracy_value', 'NONE');
#86 = CARTESIAN_POINT ( 'NONE',  ( 0.0000000000000000000, 0.0000000000000000000, 1.744094299999997322 ) ) ;
#87 = EDGE_LOOP ( 'NONE', ( #153, #120, #47, #305 ) ) ;
#88 = ADVANCED_FACE ( 'NONE', ( #269 ), #114, .T. ) ;
#89 = DIRECTION ( 'NONE',  ( -0.0000000000000000000, -0.0000000000000000000, -1.000000000000000000 ) ) ;
#90 = VECTOR ( 'NONE', #177, 39.37007874015748143 ) ;
#91 = CARTESIAN_POINT ( 'NONE',  ( 0.0000000000000000000, 0.0000000000000000000, 2.952755999999999936 ) ) ;
#92 = ORIENTED_EDGE ( 'NONE', *, *, #185, .T. ) ;
#93 = CARTESIAN_POINT ( 'NONE',  ( 9.642868896486255427E-18, -0.07873999999999996280, 0.2061439962741667686 ) ) ;
#94 = ORIENTED_EDGE ( 'NONE', *, *, #44, .F. ) ;
#95 = VERTEX_POINT ( 'NONE', #55 ) ;
#96 = AXIS2_PLACEMENT_3D ( 'NONE', #207, #283, #58 ) ;
#97 =( NAMED_UNIT ( * ) PLANE_ANGLE_UNIT ( ) SI_UNIT ( $, .RADIAN. ) );
#98 = ORIENTED_EDGE ( 'NONE', *, *, #333, .F. ) ;
#99 = EDGE_LOOP ( 'NONE', ( #123, #39, #127, #19 ) ) ;
#100 = FILL_AREA_STYLE_COLOUR ( '', #194 ) ;
#101 = EDGE_CURVE ( 'NONE', #293, #132, #249, .T. ) ;
#102 = ORIENTED_EDGE ( 'NONE', *, *, #79, .F. ) ;
#103 =( GEOMETRIC_REPRESENTATION_CONTEXT ( 3 ) GLOBAL_UNCERTAINTY_ASSIGNED_CONTEXT ( ( #85 ) ) GLOBAL_UNIT_ASSIGNED_CONTEXT ( ( #72, #164, #314 ) ) REPRESENTATION_CONTEXT ( 'NONE', 'WORKASPACE' ) );
#104 = VECTOR ( 'NONE', #112, 39.37007874015748143 ) ;
#105 =( NAMED_UNIT ( * ) SI_UNIT ( $, .STERADIAN. ) SOLID_ANGLE_UNIT ( ) );
#106 = ORIENTED_EDGE ( 'NONE', *, *, #31, .T. ) ;
#107 = DIRECTION ( 'NONE',  ( 1.000000000000000000, 0.0000000000000000000, 0.0000000000000000000 ) ) ;
#108 = ADVANCED_FACE ( 'NONE', ( #195 ), #28, .T. ) ;
#109 = SPHERICAL_SURFACE ( 'NONE', #287, 0.1181099999999999928 ) ;
#110 = EDGE_CURVE ( 'NONE', #95, #340, #323, .T. ) ;
#111 = CIRCLE ( 'NONE', #75, 0.07873999999999996280 ) ;
#112 = DIRECTION ( 'NONE',  ( 0.09053553870087675814, 0.0000000000000000000, 0.9958932253169222593 ) ) ;
#113 = CARTESIAN_POINT ( 'NONE',  ( 0.0000000000000000000, 0.0000000000000000000, 2.952755999999999936 ) ) ;
#114 = CYLINDRICAL_SURFACE ( 'NONE', #343, 0.1181100000000000344 ) ;
#115 = DIRECTION ( 'NONE',  ( -1.000000000000000000, 0.0000000000000000000, 0.0000000000000000000 ) ) ;
#116 = VECTOR ( 'NONE', #148, 39.37007874015748143 ) ;
#117 = CARTESIAN_POINT ( 'NONE',  ( 0.0000000000000000000, 0.0000000000000000000, 1.614173000000000080 ) ) ;
#118 = EDGE_CURVE ( 'NONE', #278, #282, #276, .T. ) ;
#119 = PLANE ( 'NONE',  #20 ) ;
#120 = ORIENTED_EDGE ( 'NONE', *, *, #68, .F. ) ;
#121 = CARTESIAN_POINT ( 'NONE',  ( 0.0000000000000000000, 0.0000000000000000000, 0.2061439962741667686 ) ) ;
#122 = AXIS2_PLACEMENT_3D ( 'NONE', #226, #225, #10 ) ;
#123 = ORIENTED_EDGE ( 'NONE', *, *, #77, .T. ) ;
#124 = LINE ( 'NONE', #254, #116 ) ;
#125 = ORIENTED_EDGE ( 'NONE', *, *, #101, .T. ) ;
#126 =( NAMED_UNIT ( * ) SI_UNIT ( $, .STERADIAN. ) SOLID_ANGLE_UNIT ( ) );
#127 = ORIENTED_EDGE ( 'NONE', *, *, #240, .T. ) ;
#128 = DIMENSIONAL_EXPONENTS ( 1.000000000000000000, 0.0000000000000000000, 0.0000000000000000000, 0.0000000000000000000, 0.0000000000000000000, 0.0000000000000000000, 0.0000000000000000000 ) ;
#129 = AXIS2_PLACEMENT_3D ( 'NONE', #327, #89, #206 ) ;
#130 = SURFACE_STYLE_USAGE ( .BOTH. , #133 ) ;
#131 = PRODUCT_CONTEXT ( 'NONE', #252, 'mechanical' ) ;
#132 = VERTEX_POINT ( 'NONE', #32 ) ;
#133 = SURFACE_SIDE_STYLE ('',( #313 ) ) ;
#134 = AXIS2_PLACEMENT_3D ( 'NONE', #86, #152, #204 ) ;
#135 = PRODUCT ( 'Micro_SBMM-060-430X', 'Micro_SBMM-060-430X', '', ( #131 ) ) ;
#136 = EDGE_LOOP ( 'NONE', ( #329, #158, #186, #98, #294 ) ) ;
#137 = CARTESIAN_POINT ( 'NONE',  ( 0.0000000000000000000, 0.07873999999999996280, 0.2061439962741667686 ) ) ;
#138 = LINE ( 'NONE', #247, #320 ) ;
#139 = EDGE_CURVE ( 'NONE', #132, #205, #268, .T. ) ;
#140 =( GEOMETRIC_REPRESENTATION_CONTEXT ( 3 ) GLOBAL_UNCERTAINTY_ASSIGNED_CONTEXT ( ( #330 ) ) GLOBAL_UNIT_ASSIGNED_CONTEXT ( ( #157, #217, #126 ) ) REPRESENTATION_CONTEXT ( 'NONE', 'WORKASPACE' ) );
#141 = PRODUCT_DEFINITION_FORMATION_WITH_SPECIFIED_SOURCE ( 'ANY', '', #135, .NOT_KNOWN. ) ;
#142 = FACE_OUTER_BOUND ( 'NONE', #212, .T. ) ;
#143 = EDGE_CURVE ( 'NONE', #95, #291, #138, .T. ) ;
#144 = CARTESIAN_POINT ( 'NONE',  ( 0.0000000000000000000, 0.0000000000000000000, 2.937755999999999368 ) ) ;
#145 = DIRECTION ( 'NONE',  ( 0.0000000000000000000, 0.0000000000000000000, 1.000000000000000000 ) ) ;
#146 = STYLED_ITEM ( 'NONE', ( #67 ), #17 ) ;
#147 = EDGE_CURVE ( 'NONE', #278, #95, #189, .T. ) ;
#148 = DIRECTION ( 'NONE',  ( -0.0000000000000000000, -0.0000000000000000000, -1.000000000000000000 ) ) ;
#149 = ADVANCED_BREP_SHAPE_REPRESENTATION ( 'Micro_SBMM-060-430X', ( #17, #332 ), #297 ) ;
#150 = DIRECTION ( 'NONE',  ( -1.000000000000000000, 0.0000000000000000000, 0.0000000000000000000 ) ) ;
#151 = ADVANCED_FACE ( 'NONE', ( #48 ), #230, .T. ) ;
#152 = DIRECTION ( 'NONE',  ( 0.0000000000000000000, 0.0000000000000000000, 1.000000000000000000 ) ) ;
#153 = ORIENTED_EDGE ( 'NONE', *, *, #118, .F. ) ;
#154 = DIRECTION ( 'NONE',  ( 1.000000000000000000, 0.0000000000000000000, 0.0000000000000000000 ) ) ;
#155 = CIRCLE ( 'NONE', #64, 0.1181099999999999928 ) ;
#156 = VECTOR ( 'NONE', #80, 39.37007874015748854 ) ;
#157 =( CONVERSION_BASED_UNIT ( 'INCH', #162 ) LENGTH_UNIT ( ) NAMED_UNIT ( #18 ) );
#158 = ORIENTED_EDGE ( 'NONE', *, *, #68, .T. ) ;
#159 = EDGE_LOOP ( 'NONE', ( #61, #92, #163, #266 ) ) ;
#160 = AXIS2_PLACEMENT_3D ( 'NONE', #113, #82, #199 ) ;
#161 = FILL_AREA_STYLE ('',( #24 ) ) ;
#162 = LENGTH_MEASURE_WITH_UNIT ( LENGTH_MEASURE( 0.02539999999999999897 ), #214 );
#163 = ORIENTED_EDGE ( 'NONE', *, *, #44, .T. ) ;
#164 =( NAMED_UNIT ( * ) PLANE_ANGLE_UNIT ( ) SI_UNIT ( $, .RADIAN. ) );
#165 = AXIS2_PLACEMENT_3D ( 'NONE', #84, #200, #154 ) ;
#166 = CIRCLE ( 'NONE', #165, 0.1181100000000000344 ) ;
#167 = CARTESIAN_POINT ( 'NONE',  ( 0.0000000000000000000, 0.0000000000000000000, 1.744094299999997322 ) ) ;
#168 = ADVANCED_FACE ( 'NONE', ( #277 ), #220, .T. ) ;
#169 = CARTESIAN_POINT ( 'NONE',  ( 0.0000000000000000000, 0.0000000000000000000, 0.1181100000000000066 ) ) ;
#170 = DIRECTION ( 'NONE',  ( -0.0000000000000000000, -0.0000000000000000000, -1.000000000000000000 ) ) ;
#171 = CONICAL_SURFACE ( 'NONE', #253, 0.1031099999999991745, 0.7853981633974500554 ) ;
#172 = DIRECTION ( 'NONE',  ( 1.000000000000000000, 1.224646799147353207E-16, -0.0000000000000000000 ) ) ;
#173 = CARTESIAN_POINT ( 'NONE',  ( 0.1299209999999998422, 0.0000000000000000000, 1.744094299999997322 ) ) ;
#174 = LINE ( 'NONE', #231, #90 ) ;
#175 = ORIENTED_EDGE ( 'NONE', *, *, #139, .T. ) ;
#176 = CIRCLE ( 'NONE', #209, 0.07873999999999996280 ) ;
#177 = DIRECTION ( 'NONE',  ( -0.0000000000000000000, -0.0000000000000000000, -1.000000000000000000 ) ) ;
#178 = EDGE_CURVE ( 'NONE', #12, #293, #40, .T. ) ;
#179 = CARTESIAN_POINT ( 'NONE',  ( 0.0000000000000000000, 0.0000000000000000000, 0.0000000000000000000 ) ) ;
#180 = ORIENTED_EDGE ( 'NONE', *, *, #147, .F. ) ;
#181 = DIRECTION ( 'NONE',  ( 1.000000000000000000, 0.0000000000000000000, -0.0000000000000000000 ) ) ;
#182 = LINE ( 'NONE', #331, #15 ) ;
#183 = CONICAL_SURFACE ( 'NONE', #25, 0.1031099999999991745, 0.7853981633974500554 ) ;
#184 = AXIS2_PLACEMENT_3D ( 'NONE', #2, #221, #74 ) ;
#185 = EDGE_CURVE ( 'NONE', #291, #308, #111, .T. ) ;
#186 = ORIENTED_EDGE ( 'NONE', *, *, #286, .T. ) ;
#187 =( LENGTH_UNIT ( ) NAMED_UNIT ( * ) SI_UNIT ( $, .METRE. ) );
#188 = ORIENTED_EDGE ( 'NONE', *, *, #178, .F. ) ;
#189 = CIRCLE ( 'NONE', #184, 0.07873999999999986565 ) ;
#190 =( CONVERSION_BASED_UNIT ( 'INCH', #317 ) LENGTH_UNIT ( ) NAMED_UNIT ( #337 ) );
#191 = EDGE_LOOP ( 'NONE', ( #102, #175, #34, #234 ) ) ;
#192 = PRODUCT_DEFINITION ( 'UNKNOWN', '', #141, #81 ) ;
#193 = DIRECTION ( 'NONE',  ( 0.0000000000000000000, 0.0000000000000000000, -1.000000000000000000 ) ) ;
#194 = COLOUR_RGB ( '',0.7921568627450980005, 0.8196078431372548767, 0.9333333333333333481 ) ;
#195 = FACE_OUTER_BOUND ( 'NONE', #159, .T. ) ;
#196 = FACE_OUTER_BOUND ( 'NONE', #215, .T. ) ;
#197 = DIRECTION ( 'NONE',  ( -1.000000000000000000, 0.0000000000000000000, 0.0000000000000000000 ) ) ;
#198 = MECHANICAL_DESIGN_GEOMETRIC_PRESENTATION_REPRESENTATION (  '', ( #146 ), #103 ) ;
#199 = DIRECTION ( 'NONE',  ( -1.000000000000000000, 0.0000000000000000000, 0.0000000000000000000 ) ) ;
#200 = DIRECTION ( 'NONE',  ( 0.0000000000000000000, 0.0000000000000000000, 1.000000000000000000 ) ) ;
#201 = CARTESIAN_POINT ( 'NONE',  ( -0.07873999999999986565, 1.205358612060781851E-17, 1.181102000000000096 ) ) ;
#202 = PRESENTATION_LAYER_ASSIGNMENT (  '', '', ( #146 ) ) ;
#203 = MECHANICAL_DESIGN_GEOMETRIC_PRESENTATION_REPRESENTATION (  '', ( #306 ), #140 ) ;
#204 = DIRECTION ( 'NONE',  ( 1.000000000000000000, 0.0000000000000000000, 0.0000000000000000000 ) ) ;
#205 = VERTEX_POINT ( 'NONE', #63 ) ;
#206 = DIRECTION ( 'NONE',  ( -1.000000000000000000, 0.0000000000000000000, 0.0000000000000000000 ) ) ;
#207 = CARTESIAN_POINT ( 'NONE',  ( 0.0000000000000000000, 0.0000000000000000000, 0.2061439962741667686 ) ) ;
#208 = ORIENTED_EDGE ( 'NONE', *, *, #333, .T. ) ;
#209 = AXIS2_PLACEMENT_3D ( 'NONE', #121, #255, #11 ) ;
#210 = ORIENTED_EDGE ( 'NONE', *, *, #321, .F. ) ;
#211 = DIRECTION ( 'NONE',  ( 0.0000000000000000000, 0.0000000000000000000, 1.000000000000000000 ) ) ;
#212 = EDGE_LOOP ( 'NONE', ( #46, #125, #295, #42 ) ) ;
#213 = ADVANCED_FACE ( 'NONE', ( #228 ), #60, .T. ) ;
#214 =( LENGTH_UNIT ( ) NAMED_UNIT ( * ) SI_UNIT ( $, .METRE. ) );
#215 = EDGE_LOOP ( 'NONE', ( #94, #208, #344, #71 ) ) ;
#216 = VECTOR ( 'NONE', #76, 39.37007874015748143 ) ;
#217 =( NAMED_UNIT ( * ) PLANE_ANGLE_UNIT ( ) SI_UNIT ( $, .RADIAN. ) );
#218 = DIRECTION ( 'NONE',  ( -0.0000000000000000000, -0.0000000000000000000, -1.000000000000000000 ) ) ;
#219 = DIRECTION ( 'NONE',  ( 1.000000000000000000, 0.0000000000000000000, 0.0000000000000000000 ) ) ;
#220 = CONICAL_SURFACE ( 'NONE', #134, 0.1299209999999998422, 0.09065967900408460067 ) ;
#221 = DIRECTION ( 'NONE',  ( -0.0000000000000000000, -0.0000000000000000000, -1.000000000000000000 ) ) ;
#222 = CARTESIAN_POINT ( 'NONE',  ( -0.1299209999999998422, 1.591073367920230651E-17, 1.744094299999997322 ) ) ;
#223 = DIRECTION ( 'NONE',  ( -1.224646799147353207E-16, 1.000000000000000000, 0.0000000000000000000 ) ) ;
#224 = AXIS2_PLACEMENT_3D ( 'NONE', #144, #271, #219 ) ;
#225 = DIRECTION ( 'NONE',  ( -1.000000000000000000, 0.0000000000000000000, 0.0000000000000000000 ) ) ;
#226 = CARTESIAN_POINT ( 'NONE',  ( 0.0000000000000000000, 0.0000000000000000000, 0.1181100000000000066 ) ) ;
#227 = EDGE_CURVE ( 'NONE', #205, #282, #124, .T. ) ;
#228 = FACE_OUTER_BOUND ( 'NONE', #136, .T. ) ;
#229 = ORIENTED_EDGE ( 'NONE', *, *, #143, .T. ) ;
#230 = CONICAL_SURFACE ( 'NONE', #273, 0.1299209999999998422, 0.09065967900408460067 ) ;
#231 = CARTESIAN_POINT ( 'NONE',  ( -0.07873999999999992117, 0.0000000000000000000, 0.0000000000000000000 ) ) ;
#232 = ORIENTED_EDGE ( 'NONE', *, *, #101, .F. ) ;
#233 = CARTESIAN_POINT ( 'NONE',  ( 0.0000000000000000000, 0.0000000000000000000, 2.952755999999999936 ) ) ;
#234 = ORIENTED_EDGE ( 'NONE', *, *, #300, .T. ) ;
#235 = AXIS2_PLACEMENT_3D ( 'NONE', #56, #38, #304 ) ;
#236 = EDGE_LOOP ( 'NONE', ( #232, #188, #262, #70 ) ) ;
#237 = EDGE_CURVE ( 'NONE', #23, #14, #326, .T. ) ;
#238 = CARTESIAN_POINT ( 'NONE',  ( 0.1181100000000000344, 0.0000000000000000000, 1.614173000000000080 ) ) ;
#239 = CARTESIAN_POINT ( 'NONE',  ( -0.1031099999999991745, 0.0000000000000000000, 2.952755999999999936 ) ) ;
#240 = EDGE_CURVE ( 'NONE', #340, #282, #311, .T. ) ;
#241 = EDGE_LOOP ( 'NONE', ( #180, #336, #342, #59 ) ) ;
#242 = CARTESIAN_POINT ( 'NONE',  ( 0.0000000000000000000, 0.0000000000000000000, 0.0000000000000000000 ) ) ;
#243 = ORIENTED_EDGE ( 'NONE', *, *, #260, .F. ) ;
#244 = AXIS2_PLACEMENT_3D ( 'NONE', #179, #37, #16 ) ;
#245 = CARTESIAN_POINT ( 'NONE',  ( 0.0000000000000000000, 0.0000000000000000000, 1.181102000000000096 ) ) ;
#246 = DIRECTION ( 'NONE',  ( -1.000000000000000000, 0.0000000000000000000, 0.0000000000000000000 ) ) ;
#247 = CARTESIAN_POINT ( 'NONE',  ( 0.07873999999999992117, 9.642868896486249264E-18, 0.0000000000000000000 ) ) ;
#248 = ADVANCED_FACE ( 'NONE', ( #6 ), #171, .T. ) ;
#249 = LINE ( 'NONE', #275, #156 ) ;
#250 = DIRECTION ( 'NONE',  ( 1.000000000000000000, 0.0000000000000000000, 0.0000000000000000000 ) ) ;
#251 = CARTESIAN_POINT ( 'NONE',  ( 0.0000000000000000000, 0.0000000000000000000, 0.2061439962741667686 ) ) ;
#252 = APPLICATION_CONTEXT ( 'automotive_design' ) ;
#253 = AXIS2_PLACEMENT_3D ( 'NONE', #233, #309, #115 ) ;
#254 = CARTESIAN_POINT ( 'NONE',  ( -0.1181100000000000344, 0.0000000000000000000, 2.952755999999999936 ) ) ;
#255 = DIRECTION ( 'NONE',  ( -0.0000000000000000000, -0.0000000000000000000, -1.000000000000000000 ) ) ;
#256 = CARTESIAN_POINT ( 'NONE',  ( -0.1181100000000000344, 1.446430334472939393E-17, 1.614173000000000080 ) ) ;
#257 = AXIS2_PLACEMENT_3D ( 'NONE', #27, #51, #296 ) ;
#258 = AXIS2_PLACEMENT_3D ( 'NONE', #245, #170, #246 ) ;
#259 = CARTESIAN_POINT ( 'NONE',  ( 0.0000000000000000000, 0.0000000000000000000, 0.2061439962741667686 ) ) ;
#260 = EDGE_CURVE ( 'NONE', #23, #291, #288, .T. ) ;
#261 = VERTEX_POINT ( 'NONE', #303 ) ;
#262 = ORIENTED_EDGE ( 'NONE', *, *, #264, .T. ) ;
#263 = AXIS2_PLACEMENT_3D ( 'NONE', #259, #35, #150 ) ;
#264 = EDGE_CURVE ( 'NONE', #12, #205, #182, .T. ) ;
#265 = LENGTH_MEASURE_WITH_UNIT ( LENGTH_MEASURE( 0.02539999999999999897 ), #21 );
#266 = ORIENTED_EDGE ( 'NONE', *, *, #237, .F. ) ;
#267 = CARTESIAN_POINT ( 'NONE',  ( 0.0000000000000000000, 7.232151672364693882E-18, 1.707404996040164512E-17 ) ) ;
#268 = CIRCLE ( 'NONE', #83, 0.1181100000000000344 ) ;
#269 = FACE_OUTER_BOUND ( 'NONE', #191, .T. ) ;
#270 = DIRECTION ( 'NONE',  ( 0.0000000000000000000, 0.0000000000000000000, -1.000000000000000000 ) ) ;
#271 = DIRECTION ( 'NONE',  ( 0.0000000000000000000, 0.0000000000000000000, -1.000000000000000000 ) ) ;
#272 = ADVANCED_FACE ( 'NONE', ( #285 ), #328, .T. ) ;
#273 = AXIS2_PLACEMENT_3D ( 'NONE', #167, #78, #310 ) ;
#274 = UNCERTAINTY_MEASURE_WITH_UNIT (LENGTH_MEASURE( 1.000000000000000082E-05 ), #190, 'distance_accuracy_value', 'NONE');
#275 = CARTESIAN_POINT ( 'NONE',  ( 0.1031099999999991745, 1.262733314600825725E-17, 2.952755999999999936 ) ) ;
#276 = LINE ( 'NONE', #222, #29 ) ;
#277 = FACE_OUTER_BOUND ( 'NONE', #87, .T. ) ;
#278 = VERTEX_POINT ( 'NONE', #201 ) ;
#279 = AXIS2_PLACEMENT_3D ( 'NONE', #169, #250, #4 ) ;
#280 = PRODUCT_RELATED_PRODUCT_CATEGORY ( 'part', '', ( #135 ) ) ;
#281 = DIRECTION ( 'NONE',  ( 1.000000000000000000, 0.0000000000000000000, 0.0000000000000000000 ) ) ;
#282 = VERTEX_POINT ( 'NONE', #256 ) ;
#283 = DIRECTION ( 'NONE',  ( -0.0000000000000000000, -0.0000000000000000000, -1.000000000000000000 ) ) ;
#284 = ORIENTED_EDGE ( 'NONE', *, *, #147, .T. ) ;
#285 = FACE_OUTER_BOUND ( 'NONE', #43, .T. ) ;
#286 = EDGE_CURVE ( 'NONE', #278, #261, #174, .T. ) ;
#287 = AXIS2_PLACEMENT_3D ( 'NONE', #26, #298, #318 ) ;
#288 = CIRCLE ( 'NONE', #96, 0.07873999999999996280 ) ;
#289 = DIRECTION ( 'NONE',  ( -0.0000000000000000000, -0.0000000000000000000, -1.000000000000000000 ) ) ;
#290 = FILL_AREA_STYLE ('',( #100 ) ) ;
#291 = VERTEX_POINT ( 'NONE', #335 ) ;
#292 = SHAPE_DEFINITION_REPRESENTATION ( #73, #149 ) ;
#293 = VERTEX_POINT ( 'NONE', #307 ) ;
#294 = ORIENTED_EDGE ( 'NONE', *, *, #185, .F. ) ;
#295 = ORIENTED_EDGE ( 'NONE', *, *, #77, .F. ) ;
#296 = DIRECTION ( 'NONE',  ( 1.000000000000000000, 0.0000000000000000000, 0.0000000000000000000 ) ) ;
#297 =( GEOMETRIC_REPRESENTATION_CONTEXT ( 3 ) GLOBAL_UNCERTAINTY_ASSIGNED_CONTEXT ( ( #274 ) ) GLOBAL_UNIT_ASSIGNED_CONTEXT ( ( #190, #97, #105 ) ) REPRESENTATION_CONTEXT ( 'NONE', 'WORKASPACE' ) );
#298 = DIRECTION ( 'NONE',  ( 1.000000000000000000, 0.0000000000000000000, 0.0000000000000000000 ) ) ;
#299 = CARTESIAN_POINT ( 'NONE',  ( 0.0000000000000000000, 0.0000000000000000000, 0.1181100000000000066 ) ) ;
#300 = EDGE_CURVE ( 'NONE', #282, #340, #166, .T. ) ;
#301 = DIRECTION ( 'NONE',  ( -1.000000000000000000, 0.0000000000000000000, 0.0000000000000000000 ) ) ;
#302 = APPLICATION_CONTEXT ( 'automotive_design' ) ;
#303 = CARTESIAN_POINT ( 'NONE',  ( -0.07873999999999996280, 0.0000000000000000000, 0.2061439962741667686 ) ) ;
#304 = DIRECTION ( 'NONE',  ( 1.000000000000000000, 0.0000000000000000000, 0.0000000000000000000 ) ) ;
#305 = ORIENTED_EDGE ( 'NONE', *, *, #300, .F. ) ;
#306 = STYLED_ITEM ( 'NONE', ( #341 ), #149 ) ;
#307 = CARTESIAN_POINT ( 'NONE',  ( 0.1031099999999991745, 1.354581824536882559E-17, 2.952755999999999936 ) ) ;
#308 = VERTEX_POINT ( 'NONE', #93 ) ;
#309 = DIRECTION ( 'NONE',  ( 0.0000000000000000000, 0.0000000000000000000, -1.000000000000000000 ) ) ;
#310 = DIRECTION ( 'NONE',  ( 1.000000000000000000, 0.0000000000000000000, 0.0000000000000000000 ) ) ;
#311 = CIRCLE ( 'NONE', #54, 0.1181100000000000344 ) ;
#312 = SURFACE_STYLE_FILL_AREA ( #290 ) ;
#313 = SURFACE_STYLE_FILL_AREA ( #161 ) ;
#314 =( NAMED_UNIT ( * ) SI_UNIT ( $, .STERADIAN. ) SOLID_ANGLE_UNIT ( ) );
#315 = DIRECTION ( 'NONE',  ( 1.000000000000000000, 0.0000000000000000000, 0.0000000000000000000 ) ) ;
#316 = ORIENTED_EDGE ( 'NONE', *, *, #286, .F. ) ;
#317 = LENGTH_MEASURE_WITH_UNIT ( LENGTH_MEASURE( 0.02539999999999999897 ), #187 );
#318 = DIRECTION ( 'NONE',  ( 0.0000000000000000000, 1.000000000000000000, 0.0000000000000000000 ) ) ;
#319 = CARTESIAN_POINT ( 'NONE',  ( 0.1181100000000000344, 1.446430334472939084E-17, 2.952755999999999936 ) ) ;
#320 = VECTOR ( 'NONE', #218, 39.37007874015748143 ) ;
#321 = EDGE_CURVE ( 'NONE', #261, #23, #8, .T. ) ;
#322 = LINE ( 'NONE', #319, #216 ) ;
#323 = LINE ( 'NONE', #173, #104 ) ;
#324 = FACE_OUTER_BOUND ( 'NONE', #99, .T. ) ;
#325 = CLOSED_SHELL ( 'NONE', ( #36, #49, #272, #151, #108, #22, #168, #213, #88, #339, #248 ) ) ;
#326 = CIRCLE ( 'NONE', #122, 0.1181099999999999789 ) ;
#327 = CARTESIAN_POINT ( 'NONE',  ( 0.0000000000000000000, 0.0000000000000000000, 0.0000000000000000000 ) ) ;
#328 = CYLINDRICAL_SURFACE ( 'NONE', #129, 0.07873999999999992117 ) ;
#329 = ORIENTED_EDGE ( 'NONE', *, *, #143, .F. ) ;
#330 = UNCERTAINTY_MEASURE_WITH_UNIT (LENGTH_MEASURE( 1.000000000000000082E-05 ), #157, 'distance_accuracy_value', 'NONE');
#331 = CARTESIAN_POINT ( 'NONE',  ( -0.1031099999999991745, 0.0000000000000000000, 2.952755999999999936 ) ) ;
#332 = AXIS2_PLACEMENT_3D ( 'NONE', #242, #211, #315 ) ;
#333 = EDGE_CURVE ( 'NONE', #308, #261, #176, .T. ) ;
#334 = FACE_OUTER_BOUND ( 'NONE', #338, .T. ) ;
#335 = CARTESIAN_POINT ( 'NONE',  ( 0.07873999999999996280, 9.642868896486255427E-18, 0.2061439962741667686 ) ) ;
#336 = ORIENTED_EDGE ( 'NONE', *, *, #118, .T. ) ;
#337 = DIMENSIONAL_EXPONENTS ( 1.000000000000000000, 0.0000000000000000000, 0.0000000000000000000, 0.0000000000000000000, 0.0000000000000000000, 0.0000000000000000000, 0.0000000000000000000 ) ;
#338 = EDGE_LOOP ( 'NONE', ( #57, #106 ) ) ;
#339 = ADVANCED_FACE ( 'NONE', ( #334 ), #119, .T. ) ;
#340 = VERTEX_POINT ( 'NONE', #238 ) ;
#341 = PRESENTATION_STYLE_ASSIGNMENT (( #45 ) ) ;
#342 = ORIENTED_EDGE ( 'NONE', *, *, #240, .F. ) ;
#343 = AXIS2_PLACEMENT_3D ( 'NONE', #53, #345, #301 ) ;
#344 = ORIENTED_EDGE ( 'NONE', *, *, #321, .T. ) ;
#345 = DIRECTION ( 'NONE',  ( -0.0000000000000000000, -0.0000000000000000000, -1.000000000000000000 ) ) ;
ENDSEC;
END-ISO-10303-21;
