ISO-10303-21;
HEADER;
FILE_DESCRIPTION (( 'STEP AP214' ),
    '1' );
FILE_NAME ('06030.STEP',
    '2023-07-05T16:00:23',
    ( '' ),
    ( '' ),
    'SwSTEP 2.0',
    'SolidWorks 2023',
    '' );
FILE_SCHEMA (( 'AUTOMOTIVE_DESIGN' ));
ENDSEC;

DATA;
#1 = EDGE_LOOP ( 'NONE', ( #238, #197 ) ) ;
#2 = FILL_AREA_STYLE ('',( #132 ) ) ;
#3 = PRODUCT_DEFINITION_CONTEXT ( 'detailed design', #44, 'design' ) ;
#4 = APPLICATION_PROTOCOL_DEFINITION ( 'draft international standard', 'automotive_design', 1998, #230 ) ;
#5 = EDGE_CURVE ( 'NONE', #13, #60, #116, .T. ) ;
#6 = CARTESIAN_POINT ( 'NONE',  ( -0.09374999999999951428, 0.09374999999999976408, 0.000000000000000000 ) ) ;
#7 = DIRECTION ( 'NONE',  ( -1.000000000000000000, 0.000000000000000000, 0.000000000000000000 ) ) ;
#8 = SURFACE_SIDE_STYLE ('',( #114 ) ) ;
#9 =( LENGTH_UNIT ( ) NAMED_UNIT ( * ) SI_UNIT ( $, .METRE. ) );
#10 = AXIS2_PLACEMENT_3D ( 'NONE', #166, #146, #222 ) ;
#11 = MECHANICAL_DESIGN_GEOMETRIC_PRESENTATION_REPRESENTATION (  '', ( #170 ), #75 ) ;
#12 =( LENGTH_UNIT ( ) NAMED_UNIT ( * ) SI_UNIT ( $, .METRE. ) );
#13 = VERTEX_POINT ( 'NONE', #188 ) ;
#14 = SURFACE_STYLE_FILL_AREA ( #244 ) ;
#15 = COLOUR_RGB ( '',1.000000000000000000, 0.000000000000000000, 0.000000000000000000 ) ;
#16 = LENGTH_MEASURE_WITH_UNIT ( LENGTH_MEASURE( 0.02539999999999999897 ), #12 );
#17 = PRODUCT_CONTEXT ( 'NONE', #230, 'mechanical' ) ;
#18 = LINE ( 'NONE', #127, #125 ) ;
#19 = VECTOR ( 'NONE', #73, 39.37007874015748143 ) ;
#20 = DIRECTION ( 'NONE',  ( 0.000000000000000000, 0.000000000000000000, 1.000000000000000000 ) ) ;
#21 = DIMENSIONAL_EXPONENTS ( 1.000000000000000000, 0.000000000000000000, 0.000000000000000000, 0.000000000000000000, 0.000000000000000000, 0.000000000000000000, 0.000000000000000000 ) ;
#22 = SHAPE_DEFINITION_REPRESENTATION ( #165, #67 ) ;
#23 =( CONVERSION_BASED_UNIT ( 'INCH', #24 ) LENGTH_UNIT ( ) NAMED_UNIT ( #168 ) );
#24 = LENGTH_MEASURE_WITH_UNIT ( LENGTH_MEASURE( 0.02539999999999999897 ), #104 );
#25 = DIRECTION ( 'NONE',  ( -1.000000000000000000, -1.231570816815856252E-16, 0.000000000000000000 ) ) ;
#26 = FACE_OUTER_BOUND ( 'NONE', #1, .T. ) ;
#27 = DIRECTION ( 'NONE',  ( -1.231570816815856252E-16, 1.000000000000000000, 0.000000000000000000 ) ) ;
#28 = PRODUCT_DEFINITION ( 'UNKNOWN', '', #69, #3 ) ;
#29 = PRESENTATION_LAYER_ASSIGNMENT (  '', '', ( #199 ) ) ;
#30 =( CONVERSION_BASED_UNIT ( 'INCH', #236 ) LENGTH_UNIT ( ) NAMED_UNIT ( #21 ) );
#31 = DIRECTION ( 'NONE',  ( -1.231570816815856252E-16, 1.000000000000000000, -0.000000000000000000 ) ) ;
#32 = DIRECTION ( 'NONE',  ( 0.000000000000000000, 0.000000000000000000, 1.000000000000000000 ) ) ;
#33 =( CONVERSION_BASED_UNIT ( 'INCH', #81 ) LENGTH_UNIT ( ) NAMED_UNIT ( #88 ) );
#34 = EDGE_LOOP ( 'NONE', ( #261, #220, #123, #241 ) ) ;
#35 = VERTEX_POINT ( 'NONE', #6 ) ;
#36 = VERTEX_POINT ( 'NONE', #92 ) ;
#37 = EDGE_CURVE ( 'NONE', #259, #36, #184, .T. ) ;
#38 = ORIENTED_EDGE ( 'NONE', *, *, #109, .F. ) ;
#39 = AXIS2_PLACEMENT_3D ( 'NONE', #232, #31, #233 ) ;
#40 = UNCERTAINTY_MEASURE_WITH_UNIT (LENGTH_MEASURE( 1.000000000000000082E-05 ), #102, 'distance_accuracy_value', 'NONE');
#41 = DIRECTION ( 'NONE',  ( -1.000000000000000000, -1.821231995776180409E-16, 0.000000000000000000 ) ) ;
#42 = APPLICATION_PROTOCOL_DEFINITION ( 'draft international standard', 'automotive_design', 1998, #44 ) ;
#43 = CARTESIAN_POINT ( 'NONE',  ( 2.347681869555226296E-16, 0.09374999999999979183, 0.000000000000000000 ) ) ;
#44 = APPLICATION_CONTEXT ( 'automotive_design' ) ;
#45 = VECTOR ( 'NONE', #74, 39.37007874015748143 ) ;
#46 = CARTESIAN_POINT ( 'NONE',  ( 0.09374999999999998612, 0.09374999999999980571, 1.148106374200642938E-17 ) ) ;
#47 = AXIS2_PLACEMENT_3D ( 'NONE', #77, #139, #32 ) ;
#48 =( NAMED_UNIT ( * ) PLANE_ANGLE_UNIT ( ) SI_UNIT ( $, .RADIAN. ) );
#49 = FILL_AREA_STYLE ('',( #156 ) ) ;
#50 = CARTESIAN_POINT ( 'NONE',  ( -0.09374999999999987510, 2.000000000000000000, 0.000000000000000000 ) ) ;
#51 =( GEOMETRIC_REPRESENTATION_CONTEXT ( 3 ) GLOBAL_UNCERTAINTY_ASSIGNED_CONTEXT ( ( #151 ) ) GLOBAL_UNIT_ASSIGNED_CONTEXT ( ( #162, #217, #239 ) ) REPRESENTATION_CONTEXT ( 'NONE', 'WORKASPACE' ) );
#52 = DIRECTION ( 'NONE',  ( 0.000000000000000000, 0.7071067811865462405, 0.7071067811865486830 ) ) ;
#53 = MECHANICAL_DESIGN_GEOMETRIC_PRESENTATION_REPRESENTATION (  '', ( #173 ), #212 ) ;
#54 = FACE_OUTER_BOUND ( 'NONE', #200, .T. ) ;
#55 = FACE_OUTER_BOUND ( 'NONE', #145, .T. ) ;
#56 = UNCERTAINTY_MEASURE_WITH_UNIT (LENGTH_MEASURE( 1.000000000000000082E-05 ), #33, 'distance_accuracy_value', 'NONE');
#57 = MECHANICAL_DESIGN_GEOMETRIC_PRESENTATION_REPRESENTATION (  '', ( #199 ), #208 ) ;
#58 = ORIENTED_EDGE ( 'NONE', *, *, #5, .T. ) ;
#59 = ADVANCED_FACE ( 'NONE', ( #89 ), #158, .T. ) ;
#60 = VERTEX_POINT ( 'NONE', #224 ) ;
#61 = MECHANICAL_DESIGN_GEOMETRIC_PRESENTATION_REPRESENTATION (  '', ( #91 ), #51 ) ;
#62 = CARTESIAN_POINT ( 'NONE',  ( 1.421968759530445629E-33, 2.000000000000000000, 0.000000000000000000 ) ) ;
#63 = DIRECTION ( 'NONE',  ( -1.231570816815856252E-16, 1.000000000000000000, -0.000000000000000000 ) ) ;
#64 = CYLINDRICAL_SURFACE ( 'NONE', #111, 0.09374999999999987510 ) ;
#65 = DIMENSIONAL_EXPONENTS ( 1.000000000000000000, 0.000000000000000000, 0.000000000000000000, 0.000000000000000000, 0.000000000000000000, 0.000000000000000000, 0.000000000000000000 ) ;
#66 = SURFACE_STYLE_FILL_AREA ( #2 ) ;
#67 = ADVANCED_BREP_SHAPE_REPRESENTATION ( '06030', ( #99, #178, #10 ), #257 ) ;
#68 =( NAMED_UNIT ( * ) PLANE_ANGLE_UNIT ( ) SI_UNIT ( $, .RADIAN. ) );
#69 = PRODUCT_DEFINITION_FORMATION_WITH_SPECIFIED_SOURCE ( 'ANY', '', #121, .NOT_KNOWN. ) ;
#70 = AXIS2_PLACEMENT_3D ( 'NONE', #62, #63, #131 ) ;
#71 = FACE_OUTER_BOUND ( 'NONE', #124, .T. ) ;
#72 = EDGE_CURVE ( 'NONE', #86, #35, #115, .T. ) ;
#73 = DIRECTION ( 'NONE',  ( -1.231570816815856252E-16, 1.000000000000000000, -0.000000000000000000 ) ) ;
#74 = DIRECTION ( 'NONE',  ( -1.231570816815856252E-16, 1.000000000000000000, -0.000000000000000000 ) ) ;
#75 =( GEOMETRIC_REPRESENTATION_CONTEXT ( 3 ) GLOBAL_UNCERTAINTY_ASSIGNED_CONTEXT ( ( #56 ) ) GLOBAL_UNIT_ASSIGNED_CONTEXT ( ( #33, #118, #262 ) ) REPRESENTATION_CONTEXT ( 'NONE', 'WORKASPACE' ) );
#76 = FACE_OUTER_BOUND ( 'NONE', #78, .T. ) ;
#77 = CARTESIAN_POINT ( 'NONE',  ( 0.000000000000000000, 39.37007874015748143, 0.000000000000000000 ) ) ;
#78 = EDGE_LOOP ( 'NONE', ( #223, #117, #195, #84 ) ) ;
#79 = FILL_AREA_STYLE_COLOUR ( '', #122 ) ;
#80 = UNCERTAINTY_MEASURE_WITH_UNIT (LENGTH_MEASURE( 1.000000000000000082E-05 ), #23, 'distance_accuracy_value', 'NONE');
#81 = LENGTH_MEASURE_WITH_UNIT ( LENGTH_MEASURE( 0.02539999999999999897 ), #258 );
#82 = CONICAL_SURFACE ( 'NONE', #47, 39.37007874015762354, 0.7853981633974500554 ) ;
#83 = EDGE_CURVE ( 'NONE', #103, #60, #18, .T. ) ;
#84 = ORIENTED_EDGE ( 'NONE', *, *, #129, .F. ) ;
#85 =( LENGTH_UNIT ( ) NAMED_UNIT ( * ) SI_UNIT ( $, .METRE. ) );
#86 = VERTEX_POINT ( 'NONE', #46 ) ;
#87 = DIRECTION ( 'NONE',  ( -1.231570816815856252E-16, 1.000000000000000000, -0.000000000000000000 ) ) ;
#88 = DIMENSIONAL_EXPONENTS ( 1.000000000000000000, 0.000000000000000000, 0.000000000000000000, 0.000000000000000000, 0.000000000000000000, 0.000000000000000000, 0.000000000000000000 ) ;
#89 = FACE_OUTER_BOUND ( 'NONE', #215, .T. ) ;
#90 = ADVANCED_FACE ( 'NONE', ( #226 ), #64, .T. ) ;
#91 = STYLED_ITEM ( 'NONE', ( #135 ), #249 ) ;
#92 = CARTESIAN_POINT ( 'NONE',  ( 0.09374999999999998612, 2.000000000000000000, 1.148106374200642938E-17 ) ) ;
#93 = DIRECTION ( 'NONE',  ( 1.231570816815856252E-16, -1.000000000000000000, 0.000000000000000000 ) ) ;
#94 = PRODUCT_RELATED_PRODUCT_CATEGORY ( 'part', '', ( #121 ) ) ;
#95 = DIRECTION ( 'NONE',  ( -1.231570816815856252E-16, 1.000000000000000000, -0.000000000000000000 ) ) ;
#96 = CIRCLE ( 'NONE', #242, 0.09374999999999998612 ) ;
#97 = DIRECTION ( 'NONE',  ( 1.000000000000000000, 1.231570816815856252E-16, 0.000000000000000000 ) ) ;
#98 =( NAMED_UNIT ( * ) SI_UNIT ( $, .STERADIAN. ) SOLID_ANGLE_UNIT ( ) );
#99 = MANIFOLD_SOLID_BREP ( 'Revolve - Cutting Edge', #172 ) ;
#100 = SURFACE_STYLE_USAGE ( .BOTH. , #243 ) ;
#101 = CIRCLE ( 'NONE', #39, 0.09374999999999975020 ) ;
#102 =( CONVERSION_BASED_UNIT ( 'INCH', #16 ) LENGTH_UNIT ( ) NAMED_UNIT ( #108 ) );
#103 = VERTEX_POINT ( 'NONE', #176 ) ;
#104 =( LENGTH_UNIT ( ) NAMED_UNIT ( * ) SI_UNIT ( $, .METRE. ) );
#105 = COLOUR_RGB ( '',1.000000000000000000, 0.000000000000000000, 0.000000000000000000 ) ;
#106 = CARTESIAN_POINT ( 'NONE',  ( 0.000000000000000000, 0.09374999999999966693, 0.000000000000000000 ) ) ;
#107 = DIRECTION ( 'NONE',  ( -1.231570816815856252E-16, 1.000000000000000000, -0.000000000000000000 ) ) ;
#108 = DIMENSIONAL_EXPONENTS ( 1.000000000000000000, 0.000000000000000000, 0.000000000000000000, 0.000000000000000000, 0.000000000000000000, 0.000000000000000000, 0.000000000000000000 ) ;
#109 = EDGE_CURVE ( 'NONE', #60, #13, #147, .T. ) ;
#110 =( NAMED_UNIT ( * ) SI_UNIT ( $, .STERADIAN. ) SOLID_ANGLE_UNIT ( ) );
#111 = AXIS2_PLACEMENT_3D ( 'NONE', #204, #107, #7 ) ;
#112 = DIRECTION ( 'NONE',  ( -0.000000000000000000, -1.000000000000000000, -0.000000000000000000 ) ) ;
#113 = FILL_AREA_STYLE_COLOUR ( '', #175 ) ;
#114 = SURFACE_STYLE_FILL_AREA ( #192 ) ;
#115 = CIRCLE ( 'NONE', #153, 0.09374999999999975020 ) ;
#116 = CIRCLE ( 'NONE', #154, 0.09374999999999998612 ) ;
#117 = ORIENTED_EDGE ( 'NONE', *, *, #202, .T. ) ;
#118 =( NAMED_UNIT ( * ) PLANE_ANGLE_UNIT ( ) SI_UNIT ( $, .RADIAN. ) );
#119 = ORIENTED_EDGE ( 'NONE', *, *, #109, .T. ) ;
#120 = DIRECTION ( 'NONE',  ( -0.000000000000000000, -1.000000000000000000, -0.000000000000000000 ) ) ;
#121 = PRODUCT ( '06030', '06030', '', ( #17 ) ) ;
#122 = COLOUR_RGB ( '',1.000000000000000000, 0.000000000000000000, 0.000000000000000000 ) ;
#123 = ORIENTED_EDGE ( 'NONE', *, *, #129, .T. ) ;
#124 = EDGE_LOOP ( 'NONE', ( #163, #218 ) ) ;
#125 = VECTOR ( 'NONE', #189, 39.37007874015748854 ) ;
#126 = FILL_AREA_STYLE_COLOUR ( '', #105 ) ;
#127 = CARTESIAN_POINT ( 'NONE',  ( 0.000000000000000000, 0.000000000000000000, 0.000000000000000000 ) ) ;
#128 = AXIS2_PLACEMENT_3D ( 'NONE', #193, #27, #25 ) ;
#129 = EDGE_CURVE ( 'NONE', #35, #259, #213, .T. ) ;
#130 =( CONVERSION_BASED_UNIT ( 'INCH', #248 ) LENGTH_UNIT ( ) NAMED_UNIT ( #65 ) );
#131 = DIRECTION ( 'NONE',  ( -1.000000000000000000, 0.000000000000000000, 0.000000000000000000 ) ) ;
#132 = FILL_AREA_STYLE_COLOUR ( '', #253 ) ;
#133 = MECHANICAL_DESIGN_GEOMETRIC_PRESENTATION_REPRESENTATION (  '', ( #250 ), #221 ) ;
#134 = PRESENTATION_STYLE_ASSIGNMENT (( #211 ) ) ;
#135 = PRESENTATION_STYLE_ASSIGNMENT (( #231 ) ) ;
#136 = AXIS2_PLACEMENT_3D ( 'NONE', #142, #219, #179 ) ;
#137 = CARTESIAN_POINT ( 'NONE',  ( 0.000000000000000000, 2.000000000000000000, 0.000000000000000000 ) ) ;
#138 = PLANE ( 'NONE',  #136 ) ;
#139 = DIRECTION ( 'NONE',  ( 0.000000000000000000, 1.000000000000000000, 0.000000000000000000 ) ) ;
#140 = EDGE_CURVE ( 'NONE', #103, #13, #177, .T. ) ;
#141 = AXIS2_PLACEMENT_3D ( 'NONE', #106, #112, #210 ) ;
#142 = CARTESIAN_POINT ( 'NONE',  ( 0.000000000000000000, 0.09374999999999966693, 0.000000000000000000 ) ) ;
#143 = ORIENTED_EDGE ( 'NONE', *, *, #83, .T. ) ;
#144 = DIRECTION ( 'NONE',  ( -1.231570816815856252E-16, 1.000000000000000000, -0.000000000000000000 ) ) ;
#145 = EDGE_LOOP ( 'NONE', ( #245, #265, #58 ) ) ;
#146 = DIRECTION ( 'NONE',  ( 0.000000000000000000, 0.000000000000000000, 1.000000000000000000 ) ) ;
#147 = CIRCLE ( 'NONE', #141, 0.09374999999999998612 ) ;
#148 = PRESENTATION_STYLE_ASSIGNMENT (( #206 ) ) ;
#149 = DIMENSIONAL_EXPONENTS ( 1.000000000000000000, 0.000000000000000000, 0.000000000000000000, 0.000000000000000000, 0.000000000000000000, 0.000000000000000000, 0.000000000000000000 ) ;
#150 = EDGE_CURVE ( 'NONE', #35, #86, #101, .T. ) ;
#151 = UNCERTAINTY_MEASURE_WITH_UNIT (LENGTH_MEASURE( 1.000000000000000082E-05 ), #162, 'distance_accuracy_value', 'NONE');
#152 = SURFACE_STYLE_USAGE ( .BOTH. , #185 ) ;
#153 = AXIS2_PLACEMENT_3D ( 'NONE', #43, #87, #41 ) ;
#154 = AXIS2_PLACEMENT_3D ( 'NONE', #263, #120, #201 ) ;
#155 = SURFACE_SIDE_STYLE ('',( #251 ) ) ;
#156 = FILL_AREA_STYLE_COLOUR ( '', #15 ) ;
#157 = CARTESIAN_POINT ( 'NONE',  ( 0.000000000000000000, 0.000000000000000000, 0.000000000000000000 ) ) ;
#158 = CONICAL_SURFACE ( 'NONE', #187, 39.37007874015762354, 0.7853981633974500554 ) ;
#159 = ADVANCED_FACE ( 'NONE', ( #26 ), #254, .F. ) ;
#160 = CYLINDRICAL_SURFACE ( 'NONE', #164, 0.09374999999999987510 ) ;
#161 = ORIENTED_EDGE ( 'NONE', *, *, #5, .F. ) ;
#162 =( CONVERSION_BASED_UNIT ( 'INCH', #198 ) LENGTH_UNIT ( ) NAMED_UNIT ( #149 ) );
#163 = ORIENTED_EDGE ( 'NONE', *, *, #37, .T. ) ;
#164 = AXIS2_PLACEMENT_3D ( 'NONE', #137, #95, #174 ) ;
#165 = PRODUCT_DEFINITION_SHAPE ( 'NONE', 'NONE',  #28 ) ;
#166 = CARTESIAN_POINT ( 'NONE',  ( 0.000000000000000000, 0.000000000000000000, 0.000000000000000000 ) ) ;
#167 =( LENGTH_UNIT ( ) NAMED_UNIT ( * ) SI_UNIT ( $, .METRE. ) );
#168 = DIMENSIONAL_EXPONENTS ( 1.000000000000000000, 0.000000000000000000, 0.000000000000000000, 0.000000000000000000, 0.000000000000000000, 0.000000000000000000, 0.000000000000000000 ) ;
#169 = SURFACE_STYLE_FILL_AREA ( #246 ) ;
#170 = STYLED_ITEM ( 'NONE', ( #237 ), #255 ) ;
#171 = CARTESIAN_POINT ( 'NONE',  ( 0.09374999999999987510, 2.000000000000000000, 1.148106374200642168E-17 ) ) ;
#172 = CLOSED_SHELL ( 'NONE', ( #59, #249, #255 ) ) ;
#173 = STYLED_ITEM ( 'NONE', ( #148 ), #59 ) ;
#174 = DIRECTION ( 'NONE',  ( -1.000000000000000000, 0.000000000000000000, 0.000000000000000000 ) ) ;
#175 = COLOUR_RGB ( '',0.7921568627450980005, 0.8196078431372548767, 0.9333333333333333481 ) ;
#176 = CARTESIAN_POINT ( 'NONE',  ( 0.000000000000000000, 0.000000000000000000, 0.000000000000000000 ) ) ;
#177 = LINE ( 'NONE', #157, #180 ) ;
#178 = MANIFOLD_SOLID_BREP ( 'Revolve - Tool Body (Pointed)', #228 ) ;
#179 = DIRECTION ( 'NONE',  ( 0.000000000000000000, -0.000000000000000000, 1.000000000000000000 ) ) ;
#180 = VECTOR ( 'NONE', #52, 39.37007874015748854 ) ;
#181 = CARTESIAN_POINT ( 'NONE',  ( 1.421968759530445629E-33, 2.000000000000000000, 0.000000000000000000 ) ) ;
#182 = CARTESIAN_POINT ( 'NONE',  ( -0.09374999999999998612, 2.000000000000000000, 0.000000000000000000 ) ) ;
#183 = DIRECTION ( 'NONE',  ( 0.000000000000000000, 1.000000000000000000, 0.000000000000000000 ) ) ;
#184 = CIRCLE ( 'NONE', #70, 0.09374999999999998612 ) ;
#185 = SURFACE_SIDE_STYLE ('',( #66 ) ) ;
#186 = PRESENTATION_STYLE_ASSIGNMENT (( #152 ) ) ;
#187 = AXIS2_PLACEMENT_3D ( 'NONE', #207, #183, #20 ) ;
#188 = CARTESIAN_POINT ( 'NONE',  ( 0.000000000000000000, 0.09374999999999966693, 0.09374999999999998612 ) ) ;
#189 = DIRECTION ( 'NONE',  ( 8.659560562354947649E-17, 0.7071067811865462405, -0.7071067811865486830 ) ) ;
#190 = PLANE ( 'NONE',  #203 ) ;
#191 = CARTESIAN_POINT ( 'NONE',  ( 0.09374999999999998612, 2.000000000000000000, 0.000000000000000000 ) ) ;
#192 = FILL_AREA_STYLE ('',( #113 ) ) ;
#193 = CARTESIAN_POINT ( 'NONE',  ( 2.347681869555226296E-16, 0.09374999999999966693, 0.000000000000000000 ) ) ;
#194 =( NAMED_UNIT ( * ) PLANE_ANGLE_UNIT ( ) SI_UNIT ( $, .RADIAN. ) );
#195 = ORIENTED_EDGE ( 'NONE', *, *, #37, .F. ) ;
#196 = DIRECTION ( 'NONE',  ( -1.000000000000000000, 0.000000000000000000, 0.000000000000000000 ) ) ;
#197 = ORIENTED_EDGE ( 'NONE', *, *, #72, .F. ) ;
#198 = LENGTH_MEASURE_WITH_UNIT ( LENGTH_MEASURE( 0.02539999999999999897 ), #85 );
#199 = STYLED_ITEM ( 'NONE', ( #134 ), #178 ) ;
#200 = EDGE_LOOP ( 'NONE', ( #161, #38 ) ) ;
#201 = DIRECTION ( 'NONE',  ( 0.000000000000000000, 0.000000000000000000, -1.000000000000000000 ) ) ;
#202 = EDGE_CURVE ( 'NONE', #86, #36, #256, .T. ) ;
#203 = AXIS2_PLACEMENT_3D ( 'NONE', #191, #93, #97 ) ;
#204 = CARTESIAN_POINT ( 'NONE',  ( 0.000000000000000000, 2.000000000000000000, 0.000000000000000000 ) ) ;
#205 = PRESENTATION_LAYER_ASSIGNMENT (  '', '', ( #250 ) ) ;
#206 = SURFACE_STYLE_USAGE ( .BOTH. , #229 ) ;
#207 = CARTESIAN_POINT ( 'NONE',  ( 0.000000000000000000, 39.37007874015748143, 0.000000000000000000 ) ) ;
#208 =( GEOMETRIC_REPRESENTATION_CONTEXT ( 3 ) GLOBAL_UNCERTAINTY_ASSIGNED_CONTEXT ( ( #225 ) ) GLOBAL_UNIT_ASSIGNED_CONTEXT ( ( #30, #48, #209 ) ) REPRESENTATION_CONTEXT ( 'NONE', 'WORKASPACE' ) );
#209 =( NAMED_UNIT ( * ) SI_UNIT ( $, .STERADIAN. ) SOLID_ANGLE_UNIT ( ) );
#210 = DIRECTION ( 'NONE',  ( 0.000000000000000000, 0.000000000000000000, -1.000000000000000000 ) ) ;
#211 = SURFACE_STYLE_USAGE ( .BOTH. , #8 ) ;
#212 =( GEOMETRIC_REPRESENTATION_CONTEXT ( 3 ) GLOBAL_UNCERTAINTY_ASSIGNED_CONTEXT ( ( #80 ) ) GLOBAL_UNIT_ASSIGNED_CONTEXT ( ( #23, #68, #110 ) ) REPRESENTATION_CONTEXT ( 'NONE', 'WORKASPACE' ) );
#213 = LINE ( 'NONE', #50, #19 ) ;
#214 = ORIENTED_EDGE ( 'NONE', *, *, #140, .F. ) ;
#215 = EDGE_LOOP ( 'NONE', ( #214, #143, #119 ) ) ;
#216 = ADVANCED_FACE ( 'NONE', ( #76 ), #160, .T. ) ;
#217 =( NAMED_UNIT ( * ) PLANE_ANGLE_UNIT ( ) SI_UNIT ( $, .RADIAN. ) );
#218 = ORIENTED_EDGE ( 'NONE', *, *, #260, .T. ) ;
#219 = DIRECTION ( 'NONE',  ( 0.000000000000000000, 1.000000000000000000, 0.000000000000000000 ) ) ;
#220 = ORIENTED_EDGE ( 'NONE', *, *, #72, .T. ) ;
#221 =( GEOMETRIC_REPRESENTATION_CONTEXT ( 3 ) GLOBAL_UNCERTAINTY_ASSIGNED_CONTEXT ( ( #247 ) ) GLOBAL_UNIT_ASSIGNED_CONTEXT ( ( #130, #227, #252 ) ) REPRESENTATION_CONTEXT ( 'NONE', 'WORKASPACE' ) );
#222 = DIRECTION ( 'NONE',  ( 1.000000000000000000, 0.000000000000000000, 0.000000000000000000 ) ) ;
#223 = ORIENTED_EDGE ( 'NONE', *, *, #150, .T. ) ;
#224 = CARTESIAN_POINT ( 'NONE',  ( 1.148106374200643555E-17, 0.09374999999999966693, -0.09374999999999998612 ) ) ;
#225 = UNCERTAINTY_MEASURE_WITH_UNIT (LENGTH_MEASURE( 1.000000000000000082E-05 ), #30, 'distance_accuracy_value', 'NONE');
#226 = FACE_OUTER_BOUND ( 'NONE', #34, .T. ) ;
#227 =( NAMED_UNIT ( * ) PLANE_ANGLE_UNIT ( ) SI_UNIT ( $, .RADIAN. ) );
#228 = CLOSED_SHELL ( 'NONE', ( #216, #159, #90, #240 ) ) ;
#229 = SURFACE_SIDE_STYLE ('',( #169 ) ) ;
#230 = APPLICATION_CONTEXT ( 'automotive_design' ) ;
#231 = SURFACE_STYLE_USAGE ( .BOTH. , #155 ) ;
#232 = CARTESIAN_POINT ( 'NONE',  ( 2.347681869555226296E-16, 0.09374999999999979183, 0.000000000000000000 ) ) ;
#233 = DIRECTION ( 'NONE',  ( -1.000000000000000000, -1.821231995776180409E-16, 0.000000000000000000 ) ) ;
#234 = PRESENTATION_LAYER_ASSIGNMENT (  '', '', ( #170 ) ) ;
#235 = PRESENTATION_LAYER_ASSIGNMENT (  '', '', ( #173 ) ) ;
#236 = LENGTH_MEASURE_WITH_UNIT ( LENGTH_MEASURE( 0.02539999999999999897 ), #9 );
#237 = PRESENTATION_STYLE_ASSIGNMENT (( #100 ) ) ;
#238 = ORIENTED_EDGE ( 'NONE', *, *, #150, .F. ) ;
#239 =( NAMED_UNIT ( * ) SI_UNIT ( $, .STERADIAN. ) SOLID_ANGLE_UNIT ( ) );
#240 = ADVANCED_FACE ( 'NONE', ( #71 ), #190, .F. ) ;
#241 = ORIENTED_EDGE ( 'NONE', *, *, #260, .F. ) ;
#242 = AXIS2_PLACEMENT_3D ( 'NONE', #181, #144, #196 ) ;
#243 = SURFACE_SIDE_STYLE ('',( #14 ) ) ;
#244 = FILL_AREA_STYLE ('',( #79 ) ) ;
#245 = ORIENTED_EDGE ( 'NONE', *, *, #83, .F. ) ;
#246 = FILL_AREA_STYLE ('',( #126 ) ) ;
#247 = UNCERTAINTY_MEASURE_WITH_UNIT (LENGTH_MEASURE( 1.000000000000000082E-05 ), #130, 'distance_accuracy_value', 'NONE');
#248 = LENGTH_MEASURE_WITH_UNIT ( LENGTH_MEASURE( 0.02539999999999999897 ), #167 );
#249 = ADVANCED_FACE ( 'NONE', ( #54 ), #138, .T. ) ;
#250 = STYLED_ITEM ( 'NONE', ( #186 ), #99 ) ;
#251 = SURFACE_STYLE_FILL_AREA ( #49 ) ;
#252 =( NAMED_UNIT ( * ) SI_UNIT ( $, .STERADIAN. ) SOLID_ANGLE_UNIT ( ) );
#253 = COLOUR_RGB ( '',0.7921568627450980005, 0.8196078431372548767, 0.9333333333333333481 ) ;
#254 = PLANE ( 'NONE',  #128 ) ;
#255 = ADVANCED_FACE ( 'NONE', ( #55 ), #82, .T. ) ;
#256 = LINE ( 'NONE', #171, #45 ) ;
#257 =( GEOMETRIC_REPRESENTATION_CONTEXT ( 3 ) GLOBAL_UNCERTAINTY_ASSIGNED_CONTEXT ( ( #40 ) ) GLOBAL_UNIT_ASSIGNED_CONTEXT ( ( #102, #194, #98 ) ) REPRESENTATION_CONTEXT ( 'NONE', 'WORKASPACE' ) );
#258 =( LENGTH_UNIT ( ) NAMED_UNIT ( * ) SI_UNIT ( $, .METRE. ) );
#259 = VERTEX_POINT ( 'NONE', #182 ) ;
#260 = EDGE_CURVE ( 'NONE', #36, #259, #96, .T. ) ;
#261 = ORIENTED_EDGE ( 'NONE', *, *, #202, .F. ) ;
#262 =( NAMED_UNIT ( * ) SI_UNIT ( $, .STERADIAN. ) SOLID_ANGLE_UNIT ( ) );
#263 = CARTESIAN_POINT ( 'NONE',  ( 0.000000000000000000, 0.09374999999999966693, 0.000000000000000000 ) ) ;
#264 = PRESENTATION_LAYER_ASSIGNMENT (  '', '', ( #91 ) ) ;
#265 = ORIENTED_EDGE ( 'NONE', *, *, #140, .T. ) ;
ENDSEC;
END-ISO-10303-21;
