ISO-10303-21;
HEADER;
FILE_DESCRIPTION (( 'STEP AP214' ),
    '1' );
FILE_NAME ('84763.STEP',
    '2023-06-30T23:49:50',
    ( '' ),
    ( '' ),
    'SwSTEP 2.0',
    'SolidWorks 2023',
    '' );
FILE_SCHEMA (( 'AUTOMOTIVE_DESIGN' ));
ENDSEC;

DATA;
#1 = CARTESIAN_POINT ( 'NONE',  ( 2.678914873134834447E-17, 0.6250000000000000000, 0.2187499999999999167 ) ) ;
#2 = VERTEX_POINT ( 'NONE', #146 ) ;
#3 = EDGE_CURVE ( 'NONE', #226, #2, #160, .T. ) ;
#4 = ORIENTED_EDGE ( 'NONE', *, *, #303, .T. ) ;
#5 = FILL_AREA_STYLE_COLOUR ( '', #54 ) ;
#6 = CARTESIAN_POINT ( 'NONE',  ( 0.2187499999999999167, 2.750000000000000000, 0.000000000000000000 ) ) ;
#7 = DIRECTION ( 'NONE',  ( -0.000000000000000000, -1.000000000000000000, -0.000000000000000000 ) ) ;
#8 = FACE_OUTER_BOUND ( 'NONE', #21, .T. ) ;
#9 = AXIS2_PLACEMENT_3D ( 'NONE', #308, #79, #369 ) ;
#10 = EDGE_LOOP ( 'NONE', ( #61, #125, #93, #184 ) ) ;
#11 = DIRECTION ( 'NONE',  ( 0.000000000000000000, 0.000000000000000000, 1.000000000000000000 ) ) ;
#12 = CARTESIAN_POINT ( 'NONE',  ( -2.678914873134835064E-17, 0.2187500000000000000, 0.000000000000000000 ) ) ;
#13 = CARTESIAN_POINT ( 'NONE',  ( -2.678914873134835064E-17, 0.2187500000000000000, 0.000000000000000000 ) ) ;
#14 = MECHANICAL_DESIGN_GEOMETRIC_PRESENTATION_REPRESENTATION (  '', ( #222 ), #270 ) ;
#15 = DIRECTION ( 'NONE',  ( 0.000000000000000000, 0.000000000000000000, -1.000000000000000000 ) ) ;
#16 =( NAMED_UNIT ( * ) SI_UNIT ( $, .STERADIAN. ) SOLID_ANGLE_UNIT ( ) );
#17 = ADVANCED_FACE ( 'NONE', ( #315 ), #336, .T. ) ;
#18 = PRESENTATION_STYLE_ASSIGNMENT (( #46 ) ) ;
#19 =( NAMED_UNIT ( * ) SI_UNIT ( $, .STERADIAN. ) SOLID_ANGLE_UNIT ( ) );
#20 = PRESENTATION_LAYER_ASSIGNMENT (  '', '', ( #257 ) ) ;
#21 = EDGE_LOOP ( 'NONE', ( #262, #354, #53, #373 ) ) ;
#22 = CIRCLE ( 'NONE', #293, 0.2187499999999999167 ) ;
#23 = ORIENTED_EDGE ( 'NONE', *, *, #30, .F. ) ;
#24 = ADVANCED_FACE ( 'NONE', ( #285 ), #66, .T. ) ;
#25 =( LENGTH_UNIT ( ) NAMED_UNIT ( * ) SI_UNIT ( $, .METRE. ) );
#26 = SURFACE_STYLE_FILL_AREA ( #144 ) ;
#27 = ORIENTED_EDGE ( 'NONE', *, *, #237, .F. ) ;
#28 = AXIS2_PLACEMENT_3D ( 'NONE', #126, #62, #301 ) ;
#29 = DIRECTION ( 'NONE',  ( -1.000000000000000000, 0.000000000000000000, 0.000000000000000000 ) ) ;
#30 = EDGE_CURVE ( 'NONE', #2, #226, #117, .T. ) ;
#31 = PRESENTATION_LAYER_ASSIGNMENT (  '', '', ( #222 ) ) ;
#32 = MECHANICAL_DESIGN_GEOMETRIC_PRESENTATION_REPRESENTATION (  '', ( #105 ), #60 ) ;
#33 =( GEOMETRIC_REPRESENTATION_CONTEXT ( 3 ) GLOBAL_UNCERTAINTY_ASSIGNED_CONTEXT ( ( #177 ) ) GLOBAL_UNIT_ASSIGNED_CONTEXT ( ( #249, #227, #221 ) ) REPRESENTATION_CONTEXT ( 'NONE', 'WORKASPACE' ) );
#34 = ORIENTED_EDGE ( 'NONE', *, *, #94, .F. ) ;
#35 = CARTESIAN_POINT ( 'NONE',  ( 0.2187500000000000278, 0.2187500000000000278, 0.000000000000000000 ) ) ;
#36 = ADVANCED_FACE ( 'NONE', ( #8 ), #42, .T. ) ;
#37 = SURFACE_STYLE_USAGE ( .BOTH. , #102 ) ;
#38 = CARTESIAN_POINT ( 'NONE',  ( -0.2187499999999991118, 0.6250000000000000000, 0.000000000000000000 ) ) ;
#39 = FILL_AREA_STYLE_COLOUR ( '', #291 ) ;
#40 = AXIS2_PLACEMENT_3D ( 'NONE', #51, #283, #15 ) ;
#41 =( CONVERSION_BASED_UNIT ( 'INCH', #361 ) LENGTH_UNIT ( ) NAMED_UNIT ( #313 ) );
#42 = CYLINDRICAL_SURFACE ( 'NONE', #325, 0.2187499999999996392 ) ;
#43 = PLANE ( 'NONE',  #240 ) ;
#44 = CARTESIAN_POINT ( 'NONE',  ( -0.2187500000000000278, 0.2187500000000000278, 2.678914873134835372E-17 ) ) ;
#45 = SURFACE_STYLE_USAGE ( .BOTH. , #72 ) ;
#46 = SURFACE_STYLE_USAGE ( .BOTH. , #342 ) ;
#47 = PRODUCT_CONTEXT ( 'NONE', #97, 'mechanical' ) ;
#48 = CARTESIAN_POINT ( 'NONE',  ( 0.000000000000000000, 0.000000000000000000, 0.000000000000000000 ) ) ;
#49 = ORIENTED_EDGE ( 'NONE', *, *, #152, .F. ) ;
#50 = PRESENTATION_LAYER_ASSIGNMENT (  '', '', ( #288 ) ) ;
#51 = CARTESIAN_POINT ( 'NONE',  ( 0.000000000000000000, 0.2187500000000000278, 0.000000000000000000 ) ) ;
#52 = VERTEX_POINT ( 'NONE', #267 ) ;
#53 = ORIENTED_EDGE ( 'NONE', *, *, #299, .F. ) ;
#54 = COLOUR_RGB ( '',0.7921568627450980005, 0.8196078431372548767, 0.9333333333333333481 ) ;
#55 = ADVANCED_FACE ( 'NONE', ( #69 ), #43, .F. ) ;
#56 = SURFACE_SIDE_STYLE ('',( #230 ) ) ;
#57 = UNCERTAINTY_MEASURE_WITH_UNIT (LENGTH_MEASURE( 1.000000000000000082E-05 ), #238, 'distance_accuracy_value', 'NONE');
#58 = ORIENTED_EDGE ( 'NONE', *, *, #299, .T. ) ;
#59 = CIRCLE ( 'NONE', #99, 0.2187500000000000278 ) ;
#60 =( GEOMETRIC_REPRESENTATION_CONTEXT ( 3 ) GLOBAL_UNCERTAINTY_ASSIGNED_CONTEXT ( ( #57 ) ) GLOBAL_UNIT_ASSIGNED_CONTEXT ( ( #238, #328, #98 ) ) REPRESENTATION_CONTEXT ( 'NONE', 'WORKASPACE' ) );
#61 = ORIENTED_EDGE ( 'NONE', *, *, #208, .F. ) ;
#62 = DIRECTION ( 'NONE',  ( -1.221847902814795938E-16, 1.000000000000000000, -0.000000000000000000 ) ) ;
#63 = CARTESIAN_POINT ( 'NONE',  ( 0.000000000000000000, 0.000000000000000000, 0.000000000000000000 ) ) ;
#64 = PRESENTATION_STYLE_ASSIGNMENT (( #37 ) ) ;
#65 = VECTOR ( 'NONE', #319, 39.37007874015748143 ) ;
#66 = SPHERICAL_SURFACE ( 'NONE', #330, 0.2187500000000000278 ) ;
#67 = EDGE_CURVE ( 'NONE', #232, #52, #59, .T. ) ;
#68 = CARTESIAN_POINT ( 'NONE',  ( 0.000000000000000000, 0.6250000000000000000, 0.000000000000000000 ) ) ;
#69 = FACE_OUTER_BOUND ( 'NONE', #351, .T. ) ;
#70 =( NAMED_UNIT ( * ) PLANE_ANGLE_UNIT ( ) SI_UNIT ( $, .RADIAN. ) );
#71 = DIRECTION ( 'NONE',  ( -0.000000000000000000, -1.000000000000000000, -0.000000000000000000 ) ) ;
#72 = SURFACE_SIDE_STYLE ('',( #275 ) ) ;
#73 = CIRCLE ( 'NONE', #40, 0.2187500000000000278 ) ;
#74 = DIMENSIONAL_EXPONENTS ( 1.000000000000000000, 0.000000000000000000, 0.000000000000000000, 0.000000000000000000, 0.000000000000000000, 0.000000000000000000, 0.000000000000000000 ) ;
#75 = PRODUCT_DEFINITION_FORMATION_WITH_SPECIFIED_SOURCE ( 'ANY', '', #92, .NOT_KNOWN. ) ;
#76 =( LENGTH_UNIT ( ) NAMED_UNIT ( * ) SI_UNIT ( $, .METRE. ) );
#77 = DIRECTION ( 'NONE',  ( -0.000000000000000000, -1.000000000000000000, -0.000000000000000000 ) ) ;
#78 = PRESENTATION_STYLE_ASSIGNMENT (( #201 ) ) ;
#79 = DIRECTION ( 'NONE',  ( 0.000000000000000000, 0.000000000000000000, 1.000000000000000000 ) ) ;
#80 =( CONVERSION_BASED_UNIT ( 'INCH', #228 ) LENGTH_UNIT ( ) NAMED_UNIT ( #284 ) );
#81 = DIRECTION ( 'NONE',  ( -1.221847902814795938E-16, 1.000000000000000000, -0.000000000000000000 ) ) ;
#82 =( NAMED_UNIT ( * ) PLANE_ANGLE_UNIT ( ) SI_UNIT ( $, .RADIAN. ) );
#83 = DIRECTION ( 'NONE',  ( -0.000000000000000000, -1.000000000000000000, -0.000000000000000000 ) ) ;
#84 = EDGE_LOOP ( 'NONE', ( #350, #23 ) ) ;
#85 = CIRCLE ( 'NONE', #263, 0.2187499999999999167 ) ;
#86 = PRESENTATION_STYLE_ASSIGNMENT (( #255 ) ) ;
#87 = ADVANCED_FACE ( 'NONE', ( #127 ), #239, .T. ) ;
#88 = PRODUCT_DEFINITION_SHAPE ( 'NONE', 'NONE',  #108 ) ;
#89 = CIRCLE ( 'NONE', #181, 0.2187500000000000278 ) ;
#90 = FILL_AREA_STYLE_COLOUR ( '', #202 ) ;
#91 = VERTEX_POINT ( 'NONE', #224 ) ;
#92 = PRODUCT ( '84763', '84763', '', ( #47 ) ) ;
#93 = ORIENTED_EDGE ( 'NONE', *, *, #94, .T. ) ;
#94 = EDGE_CURVE ( 'NONE', #91, #232, #362, .T. ) ;
#95 = DIRECTION ( 'NONE',  ( 1.000000000000000000, 0.000000000000000000, -1.224646799147353207E-16 ) ) ;
#96 = ORIENTED_EDGE ( 'NONE', *, *, #190, .F. ) ;
#97 = APPLICATION_CONTEXT ( 'automotive_design' ) ;
#98 =( NAMED_UNIT ( * ) SI_UNIT ( $, .STERADIAN. ) SOLID_ANGLE_UNIT ( ) );
#99 = AXIS2_PLACEMENT_3D ( 'NONE', #13, #136, #363 ) ;
#100 = AXIS2_PLACEMENT_3D ( 'NONE', #12, #134, #95 ) ;
#101 = FILL_AREA_STYLE ('',( #357 ) ) ;
#102 = SURFACE_SIDE_STYLE ('',( #268 ) ) ;
#103 = FACE_OUTER_BOUND ( 'NONE', #210, .T. ) ;
#104 = CARTESIAN_POINT ( 'NONE',  ( 0.000000000000000000, 0.6250000000000000000, -0.2187499999999999167 ) ) ;
#105 = STYLED_ITEM ( 'NONE', ( #290 ), #343 ) ;
#106 =( NAMED_UNIT ( * ) SI_UNIT ( $, .STERADIAN. ) SOLID_ANGLE_UNIT ( ) );
#107 =( CONVERSION_BASED_UNIT ( 'INCH', #335 ) LENGTH_UNIT ( ) NAMED_UNIT ( #310 ) );
#108 = PRODUCT_DEFINITION ( 'UNKNOWN', '', #75, #289 ) ;
#109 =( NAMED_UNIT ( * ) SI_UNIT ( $, .STERADIAN. ) SOLID_ANGLE_UNIT ( ) );
#110 = FILL_AREA_STYLE_COLOUR ( '', #320 ) ;
#111 = UNCERTAINTY_MEASURE_WITH_UNIT (LENGTH_MEASURE( 1.000000000000000082E-05 ), #41, 'distance_accuracy_value', 'NONE');
#112 = DIRECTION ( 'NONE',  ( -0.000000000000000000, -1.000000000000000000, -0.000000000000000000 ) ) ;
#113 = ORIENTED_EDGE ( 'NONE', *, *, #114, .F. ) ;
#114 = EDGE_CURVE ( 'NONE', #368, #259, #73, .T. ) ;
#115 = EDGE_LOOP ( 'NONE', ( #171, #286, #179, #96, #113 ) ) ;
#116 = DIRECTION ( 'NONE',  ( 0.000000000000000000, 0.000000000000000000, -1.000000000000000000 ) ) ;
#117 = CIRCLE ( 'NONE', #153, 0.2187499999999995004 ) ;
#118 = ORIENTED_EDGE ( 'NONE', *, *, #30, .T. ) ;
#119 = DIMENSIONAL_EXPONENTS ( 1.000000000000000000, 0.000000000000000000, 0.000000000000000000, 0.000000000000000000, 0.000000000000000000, 0.000000000000000000, 0.000000000000000000 ) ;
#120 = CARTESIAN_POINT ( 'NONE',  ( 4.127235292415632754E-16, 0.6250000000000000000, 0.000000000000000000 ) ) ;
#121 = FACE_OUTER_BOUND ( 'NONE', #317, .T. ) ;
#122 =( GEOMETRIC_REPRESENTATION_CONTEXT ( 3 ) GLOBAL_UNCERTAINTY_ASSIGNED_CONTEXT ( ( #205 ) ) GLOBAL_UNIT_ASSIGNED_CONTEXT ( ( #243, #298, #297 ) ) REPRESENTATION_CONTEXT ( 'NONE', 'WORKASPACE' ) );
#123 = VECTOR ( 'NONE', #174, 39.37007874015748143 ) ;
#124 = SURFACE_STYLE_USAGE ( .BOTH. , #56 ) ;
#125 = ORIENTED_EDGE ( 'NONE', *, *, #190, .T. ) ;
#126 = CARTESIAN_POINT ( 'NONE',  ( 1.530808498934191817E-16, 2.750000000000000000, 0.000000000000000000 ) ) ;
#127 = FACE_OUTER_BOUND ( 'NONE', #149, .T. ) ;
#128 = STYLED_ITEM ( 'NONE', ( #78 ), #87 ) ;
#129 = AXIS2_PLACEMENT_3D ( 'NONE', #151, #71, #167 ) ;
#130 = DIRECTION ( 'NONE',  ( 0.000000000000000000, 0.000000000000000000, -1.000000000000000000 ) ) ;
#131 = DIRECTION ( 'NONE',  ( -0.000000000000000000, -1.000000000000000000, -0.000000000000000000 ) ) ;
#132 = DIRECTION ( 'NONE',  ( -1.221847902814795938E-16, 1.000000000000000000, -0.000000000000000000 ) ) ;
#133 = APPLICATION_PROTOCOL_DEFINITION ( 'draft international standard', 'automotive_design', 1998, #97 ) ;
#134 = DIRECTION ( 'NONE',  ( 1.224646799147353207E-16, -0.000000000000000000, 1.000000000000000000 ) ) ;
#135 = STYLED_ITEM ( 'NONE', ( #141 ), #137 ) ;
#136 = DIRECTION ( 'NONE',  ( 0.000000000000000000, 0.000000000000000000, -1.000000000000000000 ) ) ;
#137 = ADVANCED_FACE ( 'NONE', ( #311 ), #337, .T. ) ;
#138 = DIRECTION ( 'NONE',  ( -1.221847902814795938E-16, 1.000000000000000000, 0.000000000000000000 ) ) ;
#139 =( CONVERSION_BASED_UNIT ( 'INCH', #162 ) LENGTH_UNIT ( ) NAMED_UNIT ( #365 ) );
#140 = DIRECTION ( 'NONE',  ( 0.000000000000000000, 0.000000000000000000, -1.000000000000000000 ) ) ;
#141 = PRESENTATION_STYLE_ASSIGNMENT (( #45 ) ) ;
#142 = VERTEX_POINT ( 'NONE', #104 ) ;
#143 = SURFACE_STYLE_FILL_AREA ( #194 ) ;
#144 = FILL_AREA_STYLE ('',( #281 ) ) ;
#145 = COLOUR_RGB ( '',1.000000000000000000, 0.000000000000000000, 0.000000000000000000 ) ;
#146 = CARTESIAN_POINT ( 'NONE',  ( 0.2187499999999998890, 0.6250000000000000000, 2.678914873134831674E-17 ) ) ;
#147 = CIRCLE ( 'NONE', #129, 0.2187500000000000278 ) ;
#148 = PLANE ( 'NONE',  #271 ) ;
#149 = EDGE_LOOP ( 'NONE', ( #213, #4, #27, #34, #344 ) ) ;
#150 = CARTESIAN_POINT ( 'NONE',  ( 2.678914873134835372E-17, 0.2187500000000000278, 0.2187500000000000000 ) ) ;
#151 = CARTESIAN_POINT ( 'NONE',  ( 0.000000000000000000, 0.2187500000000000278, 0.000000000000000000 ) ) ;
#152 = EDGE_CURVE ( 'NONE', #323, #142, #22, .T. ) ;
#153 = AXIS2_PLACEMENT_3D ( 'NONE', #191, #329, #300 ) ;
#154 =( GEOMETRIC_REPRESENTATION_CONTEXT ( 3 ) GLOBAL_UNCERTAINTY_ASSIGNED_CONTEXT ( ( #280 ) ) GLOBAL_UNIT_ASSIGNED_CONTEXT ( ( #80, #82, #109 ) ) REPRESENTATION_CONTEXT ( 'NONE', 'WORKASPACE' ) );
#155 = DIRECTION ( 'NONE',  ( 0.000000000000000000, 0.000000000000000000, -1.000000000000000000 ) ) ;
#156 = DIRECTION ( 'NONE',  ( 1.000000000000000000, 0.000000000000000000, 0.000000000000000000 ) ) ;
#157 = DIRECTION ( 'NONE',  ( 0.000000000000000000, 0.000000000000000000, -1.000000000000000000 ) ) ;
#158 = DIRECTION ( 'NONE',  ( 1.000000000000000000, 1.221847902814795938E-16, 0.000000000000000000 ) ) ;
#159 = PLANE ( 'NONE',  #234 ) ;
#160 = CIRCLE ( 'NONE', #277, 0.2187499999999995004 ) ;
#161 = CIRCLE ( 'NONE', #100, 0.2187500000000000278 ) ;
#162 = LENGTH_MEASURE_WITH_UNIT ( LENGTH_MEASURE( 0.02539999999999999897 ), #25 );
#163 = FACE_OUTER_BOUND ( 'NONE', #84, .T. ) ;
#164 = APPLICATION_PROTOCOL_DEFINITION ( 'draft international standard', 'automotive_design', 1998, #360 ) ;
#165 =( LENGTH_UNIT ( ) NAMED_UNIT ( * ) SI_UNIT ( $, .METRE. ) );
#166 = FILL_AREA_STYLE ('',( #231 ) ) ;
#167 = DIRECTION ( 'NONE',  ( 0.000000000000000000, 0.000000000000000000, -1.000000000000000000 ) ) ;
#168 = MECHANICAL_DESIGN_GEOMETRIC_PRESENTATION_REPRESENTATION (  '', ( #288 ), #188 ) ;
#169 = ORIENTED_EDGE ( 'NONE', *, *, #114, .T. ) ;
#170 = FILL_AREA_STYLE ('',( #5 ) ) ;
#171 = ORIENTED_EDGE ( 'NONE', *, *, #303, .F. ) ;
#172 = EDGE_CURVE ( 'NONE', #226, #265, #266, .T. ) ;
#173 = VERTEX_POINT ( 'NONE', #215 ) ;
#174 = DIRECTION ( 'NONE',  ( -1.221847902814795938E-16, 1.000000000000000000, -0.000000000000000000 ) ) ;
#175 = MECHANICAL_DESIGN_GEOMETRIC_PRESENTATION_REPRESENTATION (  '', ( #128 ), #305 ) ;
#176 = CIRCLE ( 'NONE', #366, 0.2187499999999997780 ) ;
#177 = UNCERTAINTY_MEASURE_WITH_UNIT (LENGTH_MEASURE( 1.000000000000000082E-05 ), #249, 'distance_accuracy_value', 'NONE');
#178 = CARTESIAN_POINT ( 'NONE',  ( 2.678914873134834756E-17, 0.000000000000000000, 0.2187499999999999445 ) ) ;
#179 = ORIENTED_EDGE ( 'NONE', *, *, #229, .T. ) ;
#180 = AXIS2_PLACEMENT_3D ( 'NONE', #333, #295, #156 ) ;
#181 = AXIS2_PLACEMENT_3D ( 'NONE', #187, #353, #155 ) ;
#182 = CYLINDRICAL_SURFACE ( 'NONE', #183, 0.2187499999999996392 ) ;
#183 = AXIS2_PLACEMENT_3D ( 'NONE', #217, #332, #186 ) ;
#184 = ORIENTED_EDGE ( 'NONE', *, *, #67, .T. ) ;
#185 = EDGE_CURVE ( 'NONE', #173, #265, #223, .T. ) ;
#186 = DIRECTION ( 'NONE',  ( -1.000000000000000000, 0.000000000000000000, 0.000000000000000000 ) ) ;
#187 = CARTESIAN_POINT ( 'NONE',  ( 0.000000000000000000, 0.2187500000000000278, 0.000000000000000000 ) ) ;
#188 =( GEOMETRIC_REPRESENTATION_CONTEXT ( 3 ) GLOBAL_UNCERTAINTY_ASSIGNED_CONTEXT ( ( #252 ) ) GLOBAL_UNIT_ASSIGNED_CONTEXT ( ( #107, #340, #16 ) ) REPRESENTATION_CONTEXT ( 'NONE', 'WORKASPACE' ) );
#189 = DIRECTION ( 'NONE',  ( 1.000000000000000000, 0.000000000000000000, 0.000000000000000000 ) ) ;
#190 = EDGE_CURVE ( 'NONE', #259, #91, #89, .T. ) ;
#191 = CARTESIAN_POINT ( 'NONE',  ( 4.127235292415632754E-16, 0.6250000000000000000, 0.000000000000000000 ) ) ;
#192 = DIMENSIONAL_EXPONENTS ( 1.000000000000000000, 0.000000000000000000, 0.000000000000000000, 0.000000000000000000, 0.000000000000000000, 0.000000000000000000, 0.000000000000000000 ) ;
#193 = CLOSED_SHELL ( 'NONE', ( #36, #264, #352, #55 ) ) ;
#194 = FILL_AREA_STYLE ('',( #110 ) ) ;
#195 = STYLED_ITEM ( 'NONE', ( #248 ), #235 ) ;
#196 = SURFACE_STYLE_USAGE ( .BOTH. , #278 ) ;
#197 = DIRECTION ( 'NONE',  ( 0.000000000000000000, 0.000000000000000000, -1.000000000000000000 ) ) ;
#198 = DIRECTION ( 'NONE',  ( -1.221847902814795938E-16, 1.000000000000000000, -0.000000000000000000 ) ) ;
#199 = CARTESIAN_POINT ( 'NONE',  ( 0.000000000000000000, 0.2187500000000000278, 0.000000000000000000 ) ) ;
#200 = DIRECTION ( 'NONE',  ( -1.000000000000000000, 0.000000000000000000, 0.000000000000000000 ) ) ;
#201 = SURFACE_STYLE_USAGE ( .BOTH. , #225 ) ;
#202 = COLOUR_RGB ( '',1.000000000000000000, 0.000000000000000000, 0.000000000000000000 ) ;
#203 = ORIENTED_EDGE ( 'NONE', *, *, #237, .T. ) ;
#204 =( LENGTH_UNIT ( ) NAMED_UNIT ( * ) SI_UNIT ( $, .METRE. ) );
#205 = UNCERTAINTY_MEASURE_WITH_UNIT (LENGTH_MEASURE( 1.000000000000000082E-05 ), #243, 'distance_accuracy_value', 'NONE');
#206 = SURFACE_SIDE_STYLE ('',( #26 ) ) ;
#207 =( NAMED_UNIT ( * ) PLANE_ANGLE_UNIT ( ) SI_UNIT ( $, .RADIAN. ) );
#208 = EDGE_CURVE ( 'NONE', #259, #52, #161, .T. ) ;
#209 = UNCERTAINTY_MEASURE_WITH_UNIT (LENGTH_MEASURE( 1.000000000000000082E-05 ), #139, 'distance_accuracy_value', 'NONE');
#210 = EDGE_LOOP ( 'NONE', ( #236, #118, #347, #253 ) ) ;
#211 = LENGTH_MEASURE_WITH_UNIT ( LENGTH_MEASURE( 0.02539999999999999897 ), #204 );
#212 = LINE ( 'NONE', #324, #241 ) ;
#213 = ORIENTED_EDGE ( 'NONE', *, *, #282, .T. ) ;
#214 = SURFACE_STYLE_FILL_AREA ( #101 ) ;
#215 = CARTESIAN_POINT ( 'NONE',  ( 0.2187499999999998890, 2.750000000000000000, 2.678914873134831674E-17 ) ) ;
#216 = CARTESIAN_POINT ( 'NONE',  ( -2.678914873134835064E-17, 0.2187500000000000000, 0.000000000000000000 ) ) ;
#217 = CARTESIAN_POINT ( 'NONE',  ( 1.530808498934191817E-16, 2.750000000000000000, 0.000000000000000000 ) ) ;
#218 = AXIS2_PLACEMENT_3D ( 'NONE', #63, #131, #130 ) ;
#219 = CARTESIAN_POINT ( 'NONE',  ( -0.2187499999999995004, 2.750000000000000000, 0.000000000000000000 ) ) ;
#220 = DIRECTION ( 'NONE',  ( -1.000000000000000000, 0.000000000000000000, 0.000000000000000000 ) ) ;
#221 =( NAMED_UNIT ( * ) SI_UNIT ( $, .STERADIAN. ) SOLID_ANGLE_UNIT ( ) );
#222 = STYLED_ITEM ( 'NONE', ( #64 ), #24 ) ;
#223 = CIRCLE ( 'NONE', #28, 0.2187499999999997780 ) ;
#224 = CARTESIAN_POINT ( 'NONE',  ( 0.000000000000000000, 0.2187500000000000278, -0.2187500000000000278 ) ) ;
#225 = SURFACE_SIDE_STYLE ('',( #214 ) ) ;
#226 = VERTEX_POINT ( 'NONE', #38 ) ;
#227 =( NAMED_UNIT ( * ) PLANE_ANGLE_UNIT ( ) SI_UNIT ( $, .RADIAN. ) );
#228 = LENGTH_MEASURE_WITH_UNIT ( LENGTH_MEASURE( 0.02539999999999999897 ), #165 );
#229 = EDGE_CURVE ( 'NONE', #142, #91, #212, .T. ) ;
#230 = SURFACE_STYLE_FILL_AREA ( #321 ) ;
#231 = FILL_AREA_STYLE_COLOUR ( '', #258 ) ;
#232 = VERTEX_POINT ( 'NONE', #35 ) ;
#233 = ORIENTED_EDGE ( 'NONE', *, *, #67, .F. ) ;
#234 = AXIS2_PLACEMENT_3D ( 'NONE', #272, #138, #364 ) ;
#235 = MANIFOLD_SOLID_BREP ( 'Revolve - Tool Body (Straight Shanked)', #193 ) ;
#236 = ORIENTED_EDGE ( 'NONE', *, *, #314, .F. ) ;
#237 = EDGE_CURVE ( 'NONE', #232, #368, #147, .T. ) ;
#238 =( CONVERSION_BASED_UNIT ( 'INCH', #211 ) LENGTH_UNIT ( ) NAMED_UNIT ( #256 ) );
#239 = CYLINDRICAL_SURFACE ( 'NONE', #346, 0.2187499999999999445 ) ;
#240 = AXIS2_PLACEMENT_3D ( 'NONE', #6, #245, #158 ) ;
#241 = VECTOR ( 'NONE', #7, 39.37007874015748143 ) ;
#242 = DIRECTION ( 'NONE',  ( 0.000000000000000000, -0.000000000000000000, 1.000000000000000000 ) ) ;
#243 =( CONVERSION_BASED_UNIT ( 'INCH', #372 ) LENGTH_UNIT ( ) NAMED_UNIT ( #192 ) );
#244 = FILL_AREA_STYLE ('',( #39 ) ) ;
#245 = DIRECTION ( 'NONE',  ( 1.221847902814795938E-16, -1.000000000000000000, 0.000000000000000000 ) ) ;
#246 = MANIFOLD_SOLID_BREP ( 'Revolve - Cutting Edge', #250 ) ;
#247 = PRESENTATION_LAYER_ASSIGNMENT (  '', '', ( #195 ) ) ;
#248 = PRESENTATION_STYLE_ASSIGNMENT (( #196 ) ) ;
#249 =( CONVERSION_BASED_UNIT ( 'INCH', #276 ) LENGTH_UNIT ( ) NAMED_UNIT ( #74 ) );
#250 = CLOSED_SHELL ( 'NONE', ( #17, #87, #343, #137, #24 ) ) ;
#251 =( GEOMETRIC_REPRESENTATION_CONTEXT ( 3 ) GLOBAL_UNCERTAINTY_ASSIGNED_CONTEXT ( ( #209 ) ) GLOBAL_UNIT_ASSIGNED_CONTEXT ( ( #139, #207, #356 ) ) REPRESENTATION_CONTEXT ( 'NONE', 'WORKASPACE' ) );
#252 = UNCERTAINTY_MEASURE_WITH_UNIT (LENGTH_MEASURE( 1.000000000000000082E-05 ), #107, 'distance_accuracy_value', 'NONE');
#253 = ORIENTED_EDGE ( 'NONE', *, *, #185, .F. ) ;
#254 =( LENGTH_UNIT ( ) NAMED_UNIT ( * ) SI_UNIT ( $, .METRE. ) );
#255 = SURFACE_STYLE_USAGE ( .BOTH. , #206 ) ;
#256 = DIMENSIONAL_EXPONENTS ( 1.000000000000000000, 0.000000000000000000, 0.000000000000000000, 0.000000000000000000, 0.000000000000000000, 0.000000000000000000, 0.000000000000000000 ) ;
#257 = STYLED_ITEM ( 'NONE', ( #86 ), #17 ) ;
#258 = COLOUR_RGB ( '',1.000000000000000000, 0.000000000000000000, 0.000000000000000000 ) ;
#259 = VERTEX_POINT ( 'NONE', #44 ) ;
#260 = UNCERTAINTY_MEASURE_WITH_UNIT (LENGTH_MEASURE( 1.000000000000000082E-05 ), #341, 'distance_accuracy_value', 'NONE');
#261 = LINE ( 'NONE', #349, #123 ) ;
#262 = ORIENTED_EDGE ( 'NONE', *, *, #3, .T. ) ;
#263 = AXIS2_PLACEMENT_3D ( 'NONE', #273, #77, #140 ) ;
#264 = ADVANCED_FACE ( 'NONE', ( #163 ), #159, .F. ) ;
#265 = VERTEX_POINT ( 'NONE', #306 ) ;
#266 = LINE ( 'NONE', #219, #348 ) ;
#267 = CARTESIAN_POINT ( 'NONE',  ( -1.339457436567417378E-17, -3.414809992080329023E-17, 0.000000000000000000 ) ) ;
#268 = SURFACE_STYLE_FILL_AREA ( #244 ) ;
#269 = CARTESIAN_POINT ( 'NONE',  ( 1.530808498934191817E-16, 2.750000000000000000, 0.000000000000000000 ) ) ;
#270 =( GEOMETRIC_REPRESENTATION_CONTEXT ( 3 ) GLOBAL_UNCERTAINTY_ASSIGNED_CONTEXT ( ( #111 ) ) GLOBAL_UNIT_ASSIGNED_CONTEXT ( ( #41, #70, #106 ) ) REPRESENTATION_CONTEXT ( 'NONE', 'WORKASPACE' ) );
#271 = AXIS2_PLACEMENT_3D ( 'NONE', #296, #355, #242 ) ;
#272 = CARTESIAN_POINT ( 'NONE',  ( 4.127235292415632754E-16, 0.6250000000000000000, 0.000000000000000000 ) ) ;
#273 = CARTESIAN_POINT ( 'NONE',  ( 0.000000000000000000, 0.6250000000000000000, 0.000000000000000000 ) ) ;
#274 =( NAMED_UNIT ( * ) PLANE_ANGLE_UNIT ( ) SI_UNIT ( $, .RADIAN. ) );
#275 = SURFACE_STYLE_FILL_AREA ( #166 ) ;
#276 = LENGTH_MEASURE_WITH_UNIT ( LENGTH_MEASURE( 0.02539999999999999897 ), #76 );
#277 = AXIS2_PLACEMENT_3D ( 'NONE', #120, #81, #200 ) ;
#278 = SURFACE_SIDE_STYLE ('',( #312 ) ) ;
#279 = PRESENTATION_LAYER_ASSIGNMENT (  '', '', ( #135 ) ) ;
#280 = UNCERTAINTY_MEASURE_WITH_UNIT (LENGTH_MEASURE( 1.000000000000000082E-05 ), #80, 'distance_accuracy_value', 'NONE');
#281 = FILL_AREA_STYLE_COLOUR ( '', #287 ) ;
#282 = EDGE_CURVE ( 'NONE', #142, #323, #85, .T. ) ;
#283 = DIRECTION ( 'NONE',  ( -0.000000000000000000, -1.000000000000000000, -0.000000000000000000 ) ) ;
#284 = DIMENSIONAL_EXPONENTS ( 1.000000000000000000, 0.000000000000000000, 0.000000000000000000, 0.000000000000000000, 0.000000000000000000, 0.000000000000000000, 0.000000000000000000 ) ;
#285 = FACE_OUTER_BOUND ( 'NONE', #10, .T. ) ;
#286 = ORIENTED_EDGE ( 'NONE', *, *, #152, .T. ) ;
#287 = COLOUR_RGB ( '',1.000000000000000000, 0.000000000000000000, 0.000000000000000000 ) ;
#288 = STYLED_ITEM ( 'NONE', ( #18 ), #246 ) ;
#289 = PRODUCT_DEFINITION_CONTEXT ( 'detailed design', #360, 'design' ) ;
#290 = PRESENTATION_STYLE_ASSIGNMENT (( #124 ) ) ;
#291 = COLOUR_RGB ( '',1.000000000000000000, 0.000000000000000000, 0.000000000000000000 ) ;
#292 = ORIENTED_EDGE ( 'NONE', *, *, #282, .F. ) ;
#293 = AXIS2_PLACEMENT_3D ( 'NONE', #68, #294, #157 ) ;
#294 = DIRECTION ( 'NONE',  ( -0.000000000000000000, -1.000000000000000000, -0.000000000000000000 ) ) ;
#295 = DIRECTION ( 'NONE',  ( 0.000000000000000000, 0.000000000000000000, 1.000000000000000000 ) ) ;
#296 = CARTESIAN_POINT ( 'NONE',  ( 0.000000000000000000, 0.6250000000000000000, 0.000000000000000000 ) ) ;
#297 =( NAMED_UNIT ( * ) SI_UNIT ( $, .STERADIAN. ) SOLID_ANGLE_UNIT ( ) );
#298 =( NAMED_UNIT ( * ) PLANE_ANGLE_UNIT ( ) SI_UNIT ( $, .RADIAN. ) );
#299 = EDGE_CURVE ( 'NONE', #265, #173, #176, .T. ) ;
#300 = DIRECTION ( 'NONE',  ( -1.000000000000000000, 0.000000000000000000, 0.000000000000000000 ) ) ;
#301 = DIRECTION ( 'NONE',  ( -1.000000000000000000, 0.000000000000000000, 0.000000000000000000 ) ) ;
#302 =( LENGTH_UNIT ( ) NAMED_UNIT ( * ) SI_UNIT ( $, .METRE. ) );
#303 = EDGE_CURVE ( 'NONE', #323, #368, #371, .T. ) ;
#304 = MECHANICAL_DESIGN_GEOMETRIC_PRESENTATION_REPRESENTATION (  '', ( #257 ), #122 ) ;
#305 =( GEOMETRIC_REPRESENTATION_CONTEXT ( 3 ) GLOBAL_UNCERTAINTY_ASSIGNED_CONTEXT ( ( #260 ) ) GLOBAL_UNIT_ASSIGNED_CONTEXT ( ( #341, #274, #19 ) ) REPRESENTATION_CONTEXT ( 'NONE', 'WORKASPACE' ) );
#306 = CARTESIAN_POINT ( 'NONE',  ( -0.2187499999999996392, 2.750000000000000000, 0.000000000000000000 ) ) ;
#307 = LENGTH_MEASURE_WITH_UNIT ( LENGTH_MEASURE( 0.02539999999999999897 ), #370 );
#308 = CARTESIAN_POINT ( 'NONE',  ( 0.000000000000000000, 0.000000000000000000, 0.000000000000000000 ) ) ;
#309 = CARTESIAN_POINT ( 'NONE',  ( 1.530808498934191817E-16, 2.750000000000000000, 0.000000000000000000 ) ) ;
#310 = DIMENSIONAL_EXPONENTS ( 1.000000000000000000, 0.000000000000000000, 0.000000000000000000, 0.000000000000000000, 0.000000000000000000, 0.000000000000000000, 0.000000000000000000 ) ;
#311 = FACE_OUTER_BOUND ( 'NONE', #115, .T. ) ;
#312 = SURFACE_STYLE_FILL_AREA ( #170 ) ;
#313 = DIMENSIONAL_EXPONENTS ( 1.000000000000000000, 0.000000000000000000, 0.000000000000000000, 0.000000000000000000, 0.000000000000000000, 0.000000000000000000, 0.000000000000000000 ) ;
#314 = EDGE_CURVE ( 'NONE', #2, #173, #261, .T. ) ;
#315 = FACE_OUTER_BOUND ( 'NONE', #318, .T. ) ;
#316 = PRESENTATION_LAYER_ASSIGNMENT (  '', '', ( #105 ) ) ;
#317 = EDGE_LOOP ( 'NONE', ( #292, #49 ) ) ;
#318 = EDGE_LOOP ( 'NONE', ( #169, #326, #233, #203 ) ) ;
#319 = DIRECTION ( 'NONE',  ( -0.000000000000000000, -1.000000000000000000, -0.000000000000000000 ) ) ;
#320 = COLOUR_RGB ( '',0.7921568627450980005, 0.8196078431372548767, 0.9333333333333333481 ) ;
#321 = FILL_AREA_STYLE ('',( #90 ) ) ;
#322 = ORIENTED_EDGE ( 'NONE', *, *, #185, .T. ) ;
#323 = VERTEX_POINT ( 'NONE', #1 ) ;
#324 = CARTESIAN_POINT ( 'NONE',  ( 0.000000000000000000, 0.000000000000000000, -0.2187499999999999445 ) ) ;
#325 = AXIS2_PLACEMENT_3D ( 'NONE', #269, #132, #220 ) ;
#326 = ORIENTED_EDGE ( 'NONE', *, *, #208, .T. ) ;
#327 = ADVANCED_BREP_SHAPE_REPRESENTATION ( '84763', ( #246, #235, #9 ), #33 ) ;
#328 =( NAMED_UNIT ( * ) PLANE_ANGLE_UNIT ( ) SI_UNIT ( $, .RADIAN. ) );
#329 = DIRECTION ( 'NONE',  ( -1.221847902814795938E-16, 1.000000000000000000, -0.000000000000000000 ) ) ;
#330 = AXIS2_PLACEMENT_3D ( 'NONE', #216, #11, #189 ) ;
#331 = MECHANICAL_DESIGN_GEOMETRIC_PRESENTATION_REPRESENTATION (  '', ( #135 ), #251 ) ;
#332 = DIRECTION ( 'NONE',  ( -1.221847902814795938E-16, 1.000000000000000000, -0.000000000000000000 ) ) ;
#333 = CARTESIAN_POINT ( 'NONE',  ( -2.678914873134835064E-17, 0.2187500000000000000, 0.000000000000000000 ) ) ;
#334 = PRODUCT_RELATED_PRODUCT_CATEGORY ( 'part', '', ( #92 ) ) ;
#335 = LENGTH_MEASURE_WITH_UNIT ( LENGTH_MEASURE( 0.02539999999999999897 ), #254 );
#336 = SPHERICAL_SURFACE ( 'NONE', #180, 0.2187500000000000278 ) ;
#337 = CYLINDRICAL_SURFACE ( 'NONE', #218, 0.2187499999999999445 ) ;
#338 = PRESENTATION_LAYER_ASSIGNMENT (  '', '', ( #128 ) ) ;
#339 = AXIS2_PLACEMENT_3D ( 'NONE', #199, #83, #197 ) ;
#340 =( NAMED_UNIT ( * ) PLANE_ANGLE_UNIT ( ) SI_UNIT ( $, .RADIAN. ) );
#341 =( CONVERSION_BASED_UNIT ( 'INCH', #307 ) LENGTH_UNIT ( ) NAMED_UNIT ( #119 ) );
#342 = SURFACE_SIDE_STYLE ('',( #143 ) ) ;
#343 = ADVANCED_FACE ( 'NONE', ( #121 ), #148, .T. ) ;
#344 = ORIENTED_EDGE ( 'NONE', *, *, #229, .F. ) ;
#345 =( LENGTH_UNIT ( ) NAMED_UNIT ( * ) SI_UNIT ( $, .METRE. ) );
#346 = AXIS2_PLACEMENT_3D ( 'NONE', #48, #112, #116 ) ;
#347 = ORIENTED_EDGE ( 'NONE', *, *, #172, .T. ) ;
#348 = VECTOR ( 'NONE', #359, 39.37007874015748143 ) ;
#349 = CARTESIAN_POINT ( 'NONE',  ( 0.2187499999999997780, 2.750000000000000000, 2.678914873134831058E-17 ) ) ;
#350 = ORIENTED_EDGE ( 'NONE', *, *, #3, .F. ) ;
#351 = EDGE_LOOP ( 'NONE', ( #58, #322 ) ) ;
#352 = ADVANCED_FACE ( 'NONE', ( #103 ), #182, .T. ) ;
#353 = DIRECTION ( 'NONE',  ( -0.000000000000000000, -1.000000000000000000, -0.000000000000000000 ) ) ;
#354 = ORIENTED_EDGE ( 'NONE', *, *, #314, .T. ) ;
#355 = DIRECTION ( 'NONE',  ( 0.000000000000000000, 1.000000000000000000, 0.000000000000000000 ) ) ;
#356 =( NAMED_UNIT ( * ) SI_UNIT ( $, .STERADIAN. ) SOLID_ANGLE_UNIT ( ) );
#357 = FILL_AREA_STYLE_COLOUR ( '', #145 ) ;
#358 = MECHANICAL_DESIGN_GEOMETRIC_PRESENTATION_REPRESENTATION (  '', ( #195 ), #154 ) ;
#359 = DIRECTION ( 'NONE',  ( -1.221847902814795938E-16, 1.000000000000000000, -0.000000000000000000 ) ) ;
#360 = APPLICATION_CONTEXT ( 'automotive_design' ) ;
#361 = LENGTH_MEASURE_WITH_UNIT ( LENGTH_MEASURE( 0.02539999999999999897 ), #302 );
#362 = CIRCLE ( 'NONE', #339, 0.2187500000000000278 ) ;
#363 = DIRECTION ( 'NONE',  ( -1.000000000000000000, 0.000000000000000000, 0.000000000000000000 ) ) ;
#364 = DIRECTION ( 'NONE',  ( -1.000000000000000000, -1.221847902814795938E-16, 0.000000000000000000 ) ) ;
#365 = DIMENSIONAL_EXPONENTS ( 1.000000000000000000, 0.000000000000000000, 0.000000000000000000, 0.000000000000000000, 0.000000000000000000, 0.000000000000000000, 0.000000000000000000 ) ;
#366 = AXIS2_PLACEMENT_3D ( 'NONE', #309, #198, #29 ) ;
#367 = SHAPE_DEFINITION_REPRESENTATION ( #88, #327 ) ;
#368 = VERTEX_POINT ( 'NONE', #150 ) ;
#369 = DIRECTION ( 'NONE',  ( 1.000000000000000000, 0.000000000000000000, 0.000000000000000000 ) ) ;
#370 =( LENGTH_UNIT ( ) NAMED_UNIT ( * ) SI_UNIT ( $, .METRE. ) );
#371 = LINE ( 'NONE', #178, #65 ) ;
#372 = LENGTH_MEASURE_WITH_UNIT ( LENGTH_MEASURE( 0.02539999999999999897 ), #345 );
#373 = ORIENTED_EDGE ( 'NONE', *, *, #172, .F. ) ;
ENDSEC;
END-ISO-10303-21;
