ISO-10303-21;
HEADER;
FILE_DESCRIPTION (( 'STEP AP214' ),
    '1' );
FILE_NAME ('59752.STEP',
    '2023-07-24T15:33:34',
    ( '' ),
    ( '' ),
    'SwSTEP 2.0',
    'SolidWorks 2023',
    '' );
FILE_SCHEMA (( 'AUTOMOTIVE_DESIGN' ));
ENDSEC;

DATA;
#1 = DIRECTION ( 'NONE',  ( 1.000000000000000000, 1.213802797673107944E-16, 0.000000000000000000 ) ) ;
#2 = MANIFOLD_SOLID_BREP ( 'Revolve - Cutting Edge', #7 ) ;
#3 =( GEOMETRIC_REPRESENTATION_CONTEXT ( 3 ) GLOBAL_UNCERTAINTY_ASSIGNED_CONTEXT ( ( #41 ) ) GLOBAL_UNIT_ASSIGNED_CONTEXT ( ( #4, #289, #65 ) ) REPRESENTATION_CONTEXT ( 'NONE', 'WORKASPACE' ) );
#4 =( LENGTH_UNIT ( ) NAMED_UNIT ( * ) SI_UNIT ( .MILLI., .METRE. ) );
#5 = ORIENTED_EDGE ( 'NONE', *, *, #363, .T. ) ;
#6 = ORIENTED_EDGE ( 'NONE', *, *, #295, .F. ) ;
#7 = CLOSED_SHELL ( 'NONE', ( #188, #362, #89, #111, #340, #269 ) ) ;
#8 = ORIENTED_EDGE ( 'NONE', *, *, #239, .F. ) ;
#9 = EDGE_LOOP ( 'NONE', ( #357, #46 ) ) ;
#10 = EDGE_CURVE ( 'NONE', #185, #355, #231, .T. ) ;
#11 = AXIS2_PLACEMENT_3D ( 'NONE', #199, #262, #174 ) ;
#12 = MECHANICAL_DESIGN_GEOMETRIC_PRESENTATION_REPRESENTATION (  '', ( #172 ), #275 ) ;
#13 = FILL_AREA_STYLE_COLOUR ( '', #219 ) ;
#14 = DIRECTION ( 'NONE',  ( 1.000000000000000000, 0.000000000000000000, 0.000000000000000000 ) ) ;
#15 = APPLICATION_CONTEXT ( 'automotive_design' ) ;
#16 = AXIS2_PLACEMENT_3D ( 'NONE', #299, #76, #14 ) ;
#17 = MECHANICAL_DESIGN_GEOMETRIC_PRESENTATION_REPRESENTATION (  '', ( #54 ), #225 ) ;
#18 = PLANE ( 'NONE',  #106 ) ;
#19 = CIRCLE ( 'NONE', #44, 7.999999999999994671 ) ;
#20 = CARTESIAN_POINT ( 'NONE',  ( 0.000000000000000000, 32.00000000000000000, 0.000000000000000000 ) ) ;
#21 = VECTOR ( 'NONE', #333, 1000.000000000000000 ) ;
#22 = DIRECTION ( 'NONE',  ( -1.213802797673107944E-16, 1.000000000000000000, -0.000000000000000000 ) ) ;
#23 = DIRECTION ( 'NONE',  ( 0.000000000000000000, 0.000000000000000000, 1.000000000000000000 ) ) ;
#24 = DIRECTION ( 'NONE',  ( 0.000000000000000000, 0.000000000000000000, -1.000000000000000000 ) ) ;
#25 = DIRECTION ( 'NONE',  ( 0.000000000000000000, 0.000000000000000000, -1.000000000000000000 ) ) ;
#26 = AXIS2_PLACEMENT_3D ( 'NONE', #208, #98, #126 ) ;
#27 = DIRECTION ( 'NONE',  ( -1.000000000000000000, 0.000000000000000000, 0.000000000000000000 ) ) ;
#28 = VECTOR ( 'NONE', #60, 1000.000000000000000 ) ;
#29 = LINE ( 'NONE', #152, #180 ) ;
#30 = PRODUCT_RELATED_PRODUCT_CATEGORY ( 'part', '', ( #229 ) ) ;
#31 = SURFACE_STYLE_USAGE ( .BOTH. , #156 ) ;
#32 = LINE ( 'NONE', #123, #28 ) ;
#33 =( GEOMETRIC_REPRESENTATION_CONTEXT ( 3 ) GLOBAL_UNCERTAINTY_ASSIGNED_CONTEXT ( ( #353 ) ) GLOBAL_UNIT_ASSIGNED_CONTEXT ( ( #284, #149, #288 ) ) REPRESENTATION_CONTEXT ( 'NONE', 'WORKASPACE' ) );
#34 = ORIENTED_EDGE ( 'NONE', *, *, #104, .T. ) ;
#35 = UNCERTAINTY_MEASURE_WITH_UNIT (LENGTH_MEASURE( 1.000000000000000082E-05 ), #171, 'distance_accuracy_value', 'NONE');
#36 =( LENGTH_UNIT ( ) NAMED_UNIT ( * ) SI_UNIT ( .MILLI., .METRE. ) );
#37 = CIRCLE ( 'NONE', #121, 8.000000000000000000 ) ;
#38 = DIRECTION ( 'NONE',  ( -0.000000000000000000, -1.000000000000000000, -0.000000000000000000 ) ) ;
#39 = CIRCLE ( 'NONE', #321, 8.000000000000001776 ) ;
#40 = CARTESIAN_POINT ( 'NONE',  ( -8.000000000000003553, 89.00000000000000000, 0.000000000000000000 ) ) ;
#41 = UNCERTAINTY_MEASURE_WITH_UNIT (LENGTH_MEASURE( 1.000000000000000082E-05 ), #4, 'distance_accuracy_value', 'NONE');
#42 = ORIENTED_EDGE ( 'NONE', *, *, #96, .T. ) ;
#43 = CARTESIAN_POINT ( 'NONE',  ( 0.000000000000000000, 0.000000000000000000, 0.000000000000000000 ) ) ;
#44 = AXIS2_PLACEMENT_3D ( 'NONE', #316, #253, #83 ) ;
#45 = PRESENTATION_STYLE_ASSIGNMENT (( #336 ) ) ;
#46 = ORIENTED_EDGE ( 'NONE', *, *, #365, .F. ) ;
#47 = DIRECTION ( 'NONE',  ( 0.000000000000000000, 0.000000000000000000, -1.000000000000000000 ) ) ;
#48 = ADVANCED_FACE ( 'NONE', ( #103 ), #186, .T. ) ;
#49 = CARTESIAN_POINT ( 'NONE',  ( -1.714505518806293849E-15, 89.00000000000000000, 0.000000000000000000 ) ) ;
#50 = FACE_OUTER_BOUND ( 'NONE', #9, .T. ) ;
#51 = PRESENTATION_LAYER_ASSIGNMENT (  '', '', ( #319 ) ) ;
#52 = CARTESIAN_POINT ( 'NONE',  ( -7.999999999999989342, 32.00000000000000000, 0.000000000000000000 ) ) ;
#53 = SURFACE_SIDE_STYLE ('',( #264 ) ) ;
#54 = STYLED_ITEM ( 'NONE', ( #137 ), #2 ) ;
#55 = SURFACE_SIDE_STYLE ('',( #278 ) ) ;
#56 = PRESENTATION_STYLE_ASSIGNMENT (( #203 ) ) ;
#57 = DIRECTION ( 'NONE',  ( -1.000000000000000000, -1.213802797673107944E-16, 0.000000000000000000 ) ) ;
#58 = SURFACE_STYLE_USAGE ( .BOTH. , #368 ) ;
#59 = CIRCLE ( 'NONE', #132, 7.500000000000000000 ) ;
#60 = DIRECTION ( 'NONE',  ( -1.213802797673107944E-16, 1.000000000000000000, -0.000000000000000000 ) ) ;
#61 = DIRECTION ( 'NONE',  ( 0.000000000000000000, 0.000000000000000000, -1.000000000000000000 ) ) ;
#62 = DIRECTION ( 'NONE',  ( -0.000000000000000000, -1.000000000000000000, -0.000000000000000000 ) ) ;
#63 = VERTEX_POINT ( 'NONE', #302 ) ;
#64 = VECTOR ( 'NONE', #90, 1000.000000000000000 ) ;
#65 =( NAMED_UNIT ( * ) SI_UNIT ( $, .STERADIAN. ) SOLID_ANGLE_UNIT ( ) );
#66 =( GEOMETRIC_REPRESENTATION_CONTEXT ( 3 ) GLOBAL_UNCERTAINTY_ASSIGNED_CONTEXT ( ( #249 ) ) GLOBAL_UNIT_ASSIGNED_CONTEXT ( ( #36, #210, #190 ) ) REPRESENTATION_CONTEXT ( 'NONE', 'WORKASPACE' ) );
#67 = EDGE_LOOP ( 'NONE', ( #322, #181, #245, #212 ) ) ;
#68 = UNCERTAINTY_MEASURE_WITH_UNIT (LENGTH_MEASURE( 1.000000000000000082E-05 ), #366, 'distance_accuracy_value', 'NONE');
#69 = AXIS2_PLACEMENT_3D ( 'NONE', #95, #124, #25 ) ;
#70 = AXIS2_PLACEMENT_3D ( 'NONE', #107, #38, #73 ) ;
#71 = VERTEX_POINT ( 'NONE', #40 ) ;
#72 = EDGE_CURVE ( 'NONE', #63, #185, #193, .T. ) ;
#73 = DIRECTION ( 'NONE',  ( 0.000000000000000000, 0.000000000000000000, -1.000000000000000000 ) ) ;
#74 =( GEOMETRIC_REPRESENTATION_CONTEXT ( 3 ) GLOBAL_UNCERTAINTY_ASSIGNED_CONTEXT ( ( #68 ) ) GLOBAL_UNIT_ASSIGNED_CONTEXT ( ( #366, #122, #88 ) ) REPRESENTATION_CONTEXT ( 'NONE', 'WORKASPACE' ) );
#75 = ORIENTED_EDGE ( 'NONE', *, *, #84, .F. ) ;
#76 = DIRECTION ( 'NONE',  ( 0.000000000000000000, 0.000000000000000000, 1.000000000000000000 ) ) ;
#77 = CARTESIAN_POINT ( 'NONE',  ( -1.714505518806293652E-15, 89.00000000000000000, 0.000000000000000000 ) ) ;
#78 =( NAMED_UNIT ( * ) PLANE_ANGLE_UNIT ( ) SI_UNIT ( $, .RADIAN. ) );
#79 = ORIENTED_EDGE ( 'NONE', *, *, #96, .F. ) ;
#80 = PRESENTATION_LAYER_ASSIGNMENT (  '', '', ( #204 ) ) ;
#81 = SURFACE_SIDE_STYLE ('',( #341 ) ) ;
#82 = DIRECTION ( 'NONE',  ( 0.000000000000000000, 0.000000000000000000, -1.000000000000000000 ) ) ;
#83 = DIRECTION ( 'NONE',  ( -1.000000000000000000, 0.000000000000000000, 0.000000000000000000 ) ) ;
#84 = EDGE_CURVE ( 'NONE', #71, #361, #39, .T. ) ;
#85 =( NAMED_UNIT ( * ) SI_UNIT ( $, .STERADIAN. ) SOLID_ANGLE_UNIT ( ) );
#86 = AXIS2_PLACEMENT_3D ( 'NONE', #43, #129, #47 ) ;
#87 = FILL_AREA_STYLE_COLOUR ( '', #99 ) ;
#88 =( NAMED_UNIT ( * ) SI_UNIT ( $, .STERADIAN. ) SOLID_ANGLE_UNIT ( ) );
#89 = ADVANCED_FACE ( 'NONE', ( #303 ), #164, .T. ) ;
#90 = DIRECTION ( 'NONE',  ( -1.213802797673107944E-16, 1.000000000000000000, -0.000000000000000000 ) ) ;
#91 = STYLED_ITEM ( 'NONE', ( #226 ), #340 ) ;
#92 = UNCERTAINTY_MEASURE_WITH_UNIT (LENGTH_MEASURE( 1.000000000000000082E-05 ), #113, 'distance_accuracy_value', 'NONE');
#93 = CIRCLE ( 'NONE', #151, 7.999999999999994671 ) ;
#94 = PRESENTATION_STYLE_ASSIGNMENT (( #236 ) ) ;
#95 = CARTESIAN_POINT ( 'NONE',  ( 0.000000000000000000, 32.00000000000000000, 0.000000000000000000 ) ) ;
#96 = EDGE_CURVE ( 'NONE', #297, #334, #93, .T. ) ;
#97 = DIRECTION ( 'NONE',  ( -1.000000000000000000, 0.000000000000000000, 0.000000000000000000 ) ) ;
#98 = DIRECTION ( 'NONE',  ( -0.000000000000000000, -1.000000000000000000, -0.000000000000000000 ) ) ;
#99 = COLOUR_RGB ( '',0.7921568627450980005, 0.8196078431372548767, 0.9333333333333333481 ) ;
#100 = EDGE_LOOP ( 'NONE', ( #158, #163, #191, #360 ) ) ;
#101 = UNCERTAINTY_MEASURE_WITH_UNIT (LENGTH_MEASURE( 1.000000000000000082E-05 ), #196, 'distance_accuracy_value', 'NONE');
#102 = STYLED_ITEM ( 'NONE', ( #45 ), #89 ) ;
#103 = FACE_OUTER_BOUND ( 'NONE', #300, .T. ) ;
#104 = EDGE_CURVE ( 'NONE', #297, #71, #32, .T. ) ;
#105 = ORIENTED_EDGE ( 'NONE', *, *, #251, .T. ) ;
#106 = AXIS2_PLACEMENT_3D ( 'NONE', #20, #147, #347 ) ;
#107 = CARTESIAN_POINT ( 'NONE',  ( 0.000000000000000000, 0.5000000000000000000, 0.000000000000000000 ) ) ;
#108 = EDGE_LOOP ( 'NONE', ( #330, #326, #328, #162 ) ) ;
#109 = CIRCLE ( 'NONE', #69, 8.000000000000000000 ) ;
#110 = PRESENTATION_LAYER_ASSIGNMENT (  '', '', ( #102 ) ) ;
#111 = ADVANCED_FACE ( 'NONE', ( #259 ), #179, .T. ) ;
#112 = UNCERTAINTY_MEASURE_WITH_UNIT (LENGTH_MEASURE( 1.000000000000000082E-05 ), #281, 'distance_accuracy_value', 'NONE');
#113 =( LENGTH_UNIT ( ) NAMED_UNIT ( * ) SI_UNIT ( .MILLI., .METRE. ) );
#114 = FACE_OUTER_BOUND ( 'NONE', #100, .T. ) ;
#115 = AXIS2_PLACEMENT_3D ( 'NONE', #49, #277, #142 ) ;
#116 = PRESENTATION_LAYER_ASSIGNMENT (  '', '', ( #54 ) ) ;
#117 = DIRECTION ( 'NONE',  ( -1.000000000000000000, 0.000000000000000000, 0.000000000000000000 ) ) ;
#118 = DIRECTION ( 'NONE',  ( -0.000000000000000000, -1.000000000000000000, -0.000000000000000000 ) ) ;
#119 = SURFACE_STYLE_FILL_AREA ( #292 ) ;
#120 = PRESENTATION_STYLE_ASSIGNMENT (( #58 ) ) ;
#121 = AXIS2_PLACEMENT_3D ( 'NONE', #200, #118, #82 ) ;
#122 =( NAMED_UNIT ( * ) PLANE_ANGLE_UNIT ( ) SI_UNIT ( $, .RADIAN. ) );
#123 = CARTESIAN_POINT ( 'NONE',  ( -8.000000000000000000, 89.00000000000000000, 0.000000000000000000 ) ) ;
#124 = DIRECTION ( 'NONE',  ( -0.000000000000000000, -1.000000000000000000, -0.000000000000000000 ) ) ;
#125 = DIRECTION ( 'NONE',  ( -0.000000000000000000, -1.000000000000000000, -0.000000000000000000 ) ) ;
#126 = DIRECTION ( 'NONE',  ( 0.000000000000000000, 0.000000000000000000, -1.000000000000000000 ) ) ;
#127 = EDGE_CURVE ( 'NONE', #334, #361, #201, .T. ) ;
#128 = COLOUR_RGB ( '',0.7921568627450980005, 0.8196078431372548767, 0.9333333333333333481 ) ;
#129 = DIRECTION ( 'NONE',  ( -0.000000000000000000, -1.000000000000000000, -0.000000000000000000 ) ) ;
#130 =( NAMED_UNIT ( * ) PLANE_ANGLE_UNIT ( ) SI_UNIT ( $, .RADIAN. ) );
#131 = ORIENTED_EDGE ( 'NONE', *, *, #127, .F. ) ;
#132 = AXIS2_PLACEMENT_3D ( 'NONE', #195, #313, #283 ) ;
#133 =( NAMED_UNIT ( * ) PLANE_ANGLE_UNIT ( ) SI_UNIT ( $, .RADIAN. ) );
#134 = CIRCLE ( 'NONE', #267, 8.000000000000001776 ) ;
#135 = FILL_AREA_STYLE ('',( #268 ) ) ;
#136 = PRODUCT_CONTEXT ( 'NONE', #335, 'mechanical' ) ;
#137 = PRESENTATION_STYLE_ASSIGNMENT (( #246 ) ) ;
#138 = ORIENTED_EDGE ( 'NONE', *, *, #350, .T. ) ;
#139 = AXIS2_PLACEMENT_3D ( 'NONE', #343, #197, #312 ) ;
#140 = SURFACE_STYLE_FILL_AREA ( #276 ) ;
#141 = SURFACE_STYLE_FILL_AREA ( #332 ) ;
#142 = DIRECTION ( 'NONE',  ( -1.000000000000000000, 0.000000000000000000, 0.000000000000000000 ) ) ;
#143 = EDGE_CURVE ( 'NONE', #157, #183, #354, .T. ) ;
#144 = MANIFOLD_SOLID_BREP ( 'Revolve - Tool Body (Straight Shanked)', #184 ) ;
#145 = SURFACE_STYLE_USAGE ( .BOTH. , #81 ) ;
#146 = STYLED_ITEM ( 'NONE', ( #153 ), #362 ) ;
#147 = DIRECTION ( 'NONE',  ( 0.000000000000000000, 1.000000000000000000, 0.000000000000000000 ) ) ;
#148 = CYLINDRICAL_SURFACE ( 'NONE', #150, 8.000000000000000000 ) ;
#149 =( NAMED_UNIT ( * ) PLANE_ANGLE_UNIT ( ) SI_UNIT ( $, .RADIAN. ) );
#150 = AXIS2_PLACEMENT_3D ( 'NONE', #209, #62, #318 ) ;
#151 = AXIS2_PLACEMENT_3D ( 'NONE', #227, #22, #290 ) ;
#152 = CARTESIAN_POINT ( 'NONE',  ( 0.000000000000000000, 0.000000000000000000, -8.000000000000000000 ) ) ;
#153 = PRESENTATION_STYLE_ASSIGNMENT (( #31 ) ) ;
#154 = CARTESIAN_POINT ( 'NONE',  ( 7.999999999999996447, 89.00000000000000000, 9.797174393178823685E-16 ) ) ;
#155 = PRESENTATION_LAYER_ASSIGNMENT (  '', '', ( #146 ) ) ;
#156 = SURFACE_SIDE_STYLE ('',( #293 ) ) ;
#157 = VERTEX_POINT ( 'NONE', #261 ) ;
#158 = ORIENTED_EDGE ( 'NONE', *, *, #72, .F. ) ;
#159 = EDGE_CURVE ( 'NONE', #166, #355, #29, .T. ) ;
#160 = ORIENTED_EDGE ( 'NONE', *, *, #104, .F. ) ;
#161 = MECHANICAL_DESIGN_GEOMETRIC_PRESENTATION_REPRESENTATION (  '', ( #247 ), #66 ) ;
#162 = ORIENTED_EDGE ( 'NONE', *, *, #159, .F. ) ;
#163 = ORIENTED_EDGE ( 'NONE', *, *, #365, .T. ) ;
#164 = PLANE ( 'NONE',  #215 ) ;
#165 = FACE_OUTER_BOUND ( 'NONE', #307, .T. ) ;
#166 = VERTEX_POINT ( 'NONE', #233 ) ;
#167 = ADVANCED_BREP_SHAPE_REPRESENTATION ( '59752', ( #2, #144, #16 ), #348 ) ;
#168 =( NAMED_UNIT ( * ) SI_UNIT ( $, .STERADIAN. ) SOLID_ANGLE_UNIT ( ) );
#169 = DIRECTION ( 'NONE',  ( -1.000000000000000000, 0.000000000000000000, 0.000000000000000000 ) ) ;
#170 = DIRECTION ( 'NONE',  ( 0.000000000000000000, -1.000000000000000000, -0.000000000000000000 ) ) ;
#171 =( LENGTH_UNIT ( ) NAMED_UNIT ( * ) SI_UNIT ( .MILLI., .METRE. ) );
#172 = STYLED_ITEM ( 'NONE', ( #311 ), #269 ) ;
#173 = DIRECTION ( 'NONE',  ( -0.000000000000000000, -1.000000000000000000, -0.000000000000000000 ) ) ;
#174 = DIRECTION ( 'NONE',  ( 0.000000000000000000, 0.000000000000000000, -1.000000000000000000 ) ) ;
#175 = PRODUCT_DEFINITION_FORMATION_WITH_SPECIFIED_SOURCE ( 'ANY', '', #229, .NOT_KNOWN. ) ;
#176 = DIRECTION ( 'NONE',  ( 1.213802797673107944E-16, -1.000000000000000000, 0.000000000000000000 ) ) ;
#177 = FACE_OUTER_BOUND ( 'NONE', #108, .T. ) ;
#178 = FACE_OUTER_BOUND ( 'NONE', #273, .T. ) ;
#179 = TOROIDAL_SURFACE ( 'NONE', #11, 7.500000000000000000, 0.5000000000000002220 ) ;
#180 = VECTOR ( 'NONE', #125, 1000.000000000000000 ) ;
#181 = ORIENTED_EDGE ( 'NONE', *, *, #10, .T. ) ;
#182 = FILL_AREA_STYLE_COLOUR ( '', #240 ) ;
#183 = VERTEX_POINT ( 'NONE', #351 ) ;
#184 = CLOSED_SHELL ( 'NONE', ( #48, #202, #282, #358 ) ) ;
#185 = VERTEX_POINT ( 'NONE', #207 ) ;
#186 = CYLINDRICAL_SURFACE ( 'NONE', #260, 7.999999999999998224 ) ;
#187 = CIRCLE ( 'NONE', #346, 0.5000000000000004441 ) ;
#188 = ADVANCED_FACE ( 'NONE', ( #177 ), #325, .T. ) ;
#189 = SHAPE_DEFINITION_REPRESENTATION ( #345, #167 ) ;
#190 =( NAMED_UNIT ( * ) SI_UNIT ( $, .STERADIAN. ) SOLID_ANGLE_UNIT ( ) );
#191 = ORIENTED_EDGE ( 'NONE', *, *, #159, .T. ) ;
#192 = PRESENTATION_LAYER_ASSIGNMENT (  '', '', ( #91 ) ) ;
#193 = LINE ( 'NONE', #218, #21 ) ;
#194 =( NAMED_UNIT ( * ) PLANE_ANGLE_UNIT ( ) SI_UNIT ( $, .RADIAN. ) );
#195 = CARTESIAN_POINT ( 'NONE',  ( 0.000000000000000000, 0.000000000000000000, 0.000000000000000000 ) ) ;
#196 =( LENGTH_UNIT ( ) NAMED_UNIT ( * ) SI_UNIT ( .MILLI., .METRE. ) );
#197 = DIRECTION ( 'NONE',  ( 1.000000000000000000, 0.000000000000000000, -1.224646799147353207E-16 ) ) ;
#198 = COLOUR_RGB ( '',1.000000000000000000, 0.000000000000000000, 0.000000000000000000 ) ;
#199 = CARTESIAN_POINT ( 'NONE',  ( 0.000000000000000000, 0.5000000000000000000, 0.000000000000000000 ) ) ;
#200 = CARTESIAN_POINT ( 'NONE',  ( 0.000000000000000000, 32.00000000000000000, 0.000000000000000000 ) ) ;
#201 = LINE ( 'NONE', #154, #64 ) ;
#202 = ADVANCED_FACE ( 'NONE', ( #165 ), #250, .F. ) ;
#203 = SURFACE_STYLE_USAGE ( .BOTH. , #53 ) ;
#204 = STYLED_ITEM ( 'NONE', ( #56 ), #144 ) ;
#205 = PLANE ( 'NONE',  #265 ) ;
#206 = EDGE_CURVE ( 'NONE', #166, #63, #37, .T. ) ;
#207 = CARTESIAN_POINT ( 'NONE',  ( 9.797174393178825657E-16, 0.5000000000000000000, 8.000000000000000000 ) ) ;
#208 = CARTESIAN_POINT ( 'NONE',  ( 0.000000000000000000, 0.5000000000000000000, 0.000000000000000000 ) ) ;
#209 = CARTESIAN_POINT ( 'NONE',  ( 0.000000000000000000, 0.000000000000000000, 0.000000000000000000 ) ) ;
#210 =( NAMED_UNIT ( * ) PLANE_ANGLE_UNIT ( ) SI_UNIT ( $, .RADIAN. ) );
#211 = CIRCLE ( 'NONE', #139, 0.5000000000000004441 ) ;
#212 = ORIENTED_EDGE ( 'NONE', *, *, #251, .F. ) ;
#213 = FILL_AREA_STYLE_COLOUR ( '', #198 ) ;
#214 = ORIENTED_EDGE ( 'NONE', *, *, #232, .T. ) ;
#215 = AXIS2_PLACEMENT_3D ( 'NONE', #349, #170, #61 ) ;
#216 = ORIENTED_EDGE ( 'NONE', *, *, #295, .T. ) ;
#217 = EDGE_LOOP ( 'NONE', ( #272, #5 ) ) ;
#218 = CARTESIAN_POINT ( 'NONE',  ( 9.797174393178825657E-16, 0.000000000000000000, 8.000000000000000000 ) ) ;
#219 = COLOUR_RGB ( '',1.000000000000000000, 0.000000000000000000, 0.000000000000000000 ) ;
#220 = APPLICATION_PROTOCOL_DEFINITION ( 'draft international standard', 'automotive_design', 1998, #335 ) ;
#221 = CARTESIAN_POINT ( 'NONE',  ( 5.204170427930421283E-15, 32.00000000000000000, 0.000000000000000000 ) ) ;
#222 = PRESENTATION_LAYER_ASSIGNMENT (  '', '', ( #247 ) ) ;
#223 = FILL_AREA_STYLE_COLOUR ( '', #324 ) ;
#224 = FILL_AREA_STYLE_COLOUR ( '', #339 ) ;
#225 =( GEOMETRIC_REPRESENTATION_CONTEXT ( 3 ) GLOBAL_UNCERTAINTY_ASSIGNED_CONTEXT ( ( #248 ) ) GLOBAL_UNIT_ASSIGNED_CONTEXT ( ( #270, #130, #242 ) ) REPRESENTATION_CONTEXT ( 'NONE', 'WORKASPACE' ) );
#226 = PRESENTATION_STYLE_ASSIGNMENT (( #145 ) ) ;
#227 = CARTESIAN_POINT ( 'NONE',  ( 5.204170427930421283E-15, 32.00000000000000000, 0.000000000000000000 ) ) ;
#228 = FILL_AREA_STYLE ('',( #224 ) ) ;
#229 = PRODUCT ( '59752', '59752', '', ( #136 ) ) ;
#230 =( NAMED_UNIT ( * ) PLANE_ANGLE_UNIT ( ) SI_UNIT ( $, .RADIAN. ) );
#231 = CIRCLE ( 'NONE', #70, 8.000000000000000000 ) ;
#232 = EDGE_CURVE ( 'NONE', #185, #183, #211, .T. ) ;
#233 = CARTESIAN_POINT ( 'NONE',  ( 0.000000000000000000, 32.00000000000000000, -8.000000000000000000 ) ) ;
#234 = MECHANICAL_DESIGN_GEOMETRIC_PRESENTATION_REPRESENTATION (  '', ( #91 ), #74 ) ;
#235 = CARTESIAN_POINT ( 'NONE',  ( 0.000000000000000000, 0.5000000000000000000, 0.000000000000000000 ) ) ;
#236 = SURFACE_STYLE_USAGE ( .BOTH. , #296 ) ;
#237 = DIRECTION ( 'NONE',  ( -1.213802797673107944E-16, 1.000000000000000000, -0.000000000000000000 ) ) ;
#238 = CARTESIAN_POINT ( 'NONE',  ( -1.714505518806293652E-15, 89.00000000000000000, 0.000000000000000000 ) ) ;
#239 = EDGE_CURVE ( 'NONE', #355, #157, #187, .T. ) ;
#240 = COLOUR_RGB ( '',1.000000000000000000, 0.000000000000000000, 0.000000000000000000 ) ;
#241 = ORIENTED_EDGE ( 'NONE', *, *, #363, .F. ) ;
#242 =( NAMED_UNIT ( * ) SI_UNIT ( $, .STERADIAN. ) SOLID_ANGLE_UNIT ( ) );
#243 = COLOUR_RGB ( '',1.000000000000000000, 0.000000000000000000, 0.000000000000000000 ) ;
#244 = CARTESIAN_POINT ( 'NONE',  ( -1.714505518806293849E-15, 89.00000000000000000, 0.000000000000000000 ) ) ;
#245 = ORIENTED_EDGE ( 'NONE', *, *, #239, .T. ) ;
#246 = SURFACE_STYLE_USAGE ( .BOTH. , #356 ) ;
#247 = STYLED_ITEM ( 'NONE', ( #94 ), #188 ) ;
#248 = UNCERTAINTY_MEASURE_WITH_UNIT (LENGTH_MEASURE( 1.000000000000000082E-05 ), #270, 'distance_accuracy_value', 'NONE');
#249 = UNCERTAINTY_MEASURE_WITH_UNIT (LENGTH_MEASURE( 1.000000000000000082E-05 ), #36, 'distance_accuracy_value', 'NONE');
#250 = PLANE ( 'NONE',  #287 ) ;
#251 = EDGE_CURVE ( 'NONE', #183, #157, #59, .T. ) ;
#252 = SURFACE_SIDE_STYLE ('',( #140 ) ) ;
#253 = DIRECTION ( 'NONE',  ( -1.213802797673107944E-16, 1.000000000000000000, -0.000000000000000000 ) ) ;
#254 = CYLINDRICAL_SURFACE ( 'NONE', #115, 7.999999999999998224 ) ;
#255 = MECHANICAL_DESIGN_GEOMETRIC_PRESENTATION_REPRESENTATION (  '', ( #102 ), #310 ) ;
#256 = FILL_AREA_STYLE_COLOUR ( '', #243 ) ;
#257 = SURFACE_STYLE_USAGE ( .BOTH. , #55 ) ;
#258 = AXIS2_PLACEMENT_3D ( 'NONE', #235, #173, #263 ) ;
#259 = FACE_OUTER_BOUND ( 'NONE', #67, .T. ) ;
#260 = AXIS2_PLACEMENT_3D ( 'NONE', #244, #237, #97 ) ;
#261 = CARTESIAN_POINT ( 'NONE',  ( 0.000000000000000000, 0.000000000000000000, -7.500000000000000000 ) ) ;
#262 = DIRECTION ( 'NONE',  ( -0.000000000000000000, -1.000000000000000000, -0.000000000000000000 ) ) ;
#263 = DIRECTION ( 'NONE',  ( 0.000000000000000000, 0.000000000000000000, -1.000000000000000000 ) ) ;
#264 = SURFACE_STYLE_FILL_AREA ( #315 ) ;
#265 = AXIS2_PLACEMENT_3D ( 'NONE', #320, #176, #1 ) ;
#266 = TOROIDAL_SURFACE ( 'NONE', #26, 7.500000000000000000, 0.5000000000000002220 ) ;
#267 = AXIS2_PLACEMENT_3D ( 'NONE', #238, #286, #27 ) ;
#268 = FILL_AREA_STYLE_COLOUR ( '', #128 ) ;
#269 = ADVANCED_FACE ( 'NONE', ( #50 ), #18, .T. ) ;
#270 =( LENGTH_UNIT ( ) NAMED_UNIT ( * ) SI_UNIT ( .MILLI., .METRE. ) );
#271 = MECHANICAL_DESIGN_GEOMETRIC_PRESENTATION_REPRESENTATION (  '', ( #204 ), #33 ) ;
#272 = ORIENTED_EDGE ( 'NONE', *, *, #84, .T. ) ;
#273 = EDGE_LOOP ( 'NONE', ( #138, #214, #274, #8 ) ) ;
#274 = ORIENTED_EDGE ( 'NONE', *, *, #143, .F. ) ;
#275 =( GEOMETRIC_REPRESENTATION_CONTEXT ( 3 ) GLOBAL_UNCERTAINTY_ASSIGNED_CONTEXT ( ( #112 ) ) GLOBAL_UNIT_ASSIGNED_CONTEXT ( ( #281, #194, #168 ) ) REPRESENTATION_CONTEXT ( 'NONE', 'WORKASPACE' ) );
#276 = FILL_AREA_STYLE ('',( #13 ) ) ;
#277 = DIRECTION ( 'NONE',  ( -1.213802797673107944E-16, 1.000000000000000000, -0.000000000000000000 ) ) ;
#278 = SURFACE_STYLE_FILL_AREA ( #228 ) ;
#279 =( GEOMETRIC_REPRESENTATION_CONTEXT ( 3 ) GLOBAL_UNCERTAINTY_ASSIGNED_CONTEXT ( ( #35 ) ) GLOBAL_UNIT_ASSIGNED_CONTEXT ( ( #171, #230, #85 ) ) REPRESENTATION_CONTEXT ( 'NONE', 'WORKASPACE' ) );
#280 = MECHANICAL_DESIGN_GEOMETRIC_PRESENTATION_REPRESENTATION (  '', ( #146 ), #3 ) ;
#281 =( LENGTH_UNIT ( ) NAMED_UNIT ( * ) SI_UNIT ( .MILLI., .METRE. ) );
#282 = ADVANCED_FACE ( 'NONE', ( #285 ), #254, .T. ) ;
#283 = DIRECTION ( 'NONE',  ( 0.000000000000000000, 0.000000000000000000, -1.000000000000000000 ) ) ;
#284 =( LENGTH_UNIT ( ) NAMED_UNIT ( * ) SI_UNIT ( .MILLI., .METRE. ) );
#285 = FACE_OUTER_BOUND ( 'NONE', #304, .T. ) ;
#286 = DIRECTION ( 'NONE',  ( -1.213802797673107944E-16, 1.000000000000000000, -0.000000000000000000 ) ) ;
#287 = AXIS2_PLACEMENT_3D ( 'NONE', #221, #338, #57 ) ;
#288 =( NAMED_UNIT ( * ) SI_UNIT ( $, .STERADIAN. ) SOLID_ANGLE_UNIT ( ) );
#289 =( NAMED_UNIT ( * ) PLANE_ANGLE_UNIT ( ) SI_UNIT ( $, .RADIAN. ) );
#290 = DIRECTION ( 'NONE',  ( -1.000000000000000000, 0.000000000000000000, 0.000000000000000000 ) ) ;
#291 = FILL_AREA_STYLE ('',( #213 ) ) ;
#292 = FILL_AREA_STYLE ('',( #256 ) ) ;
#293 = SURFACE_STYLE_FILL_AREA ( #291 ) ;
#294 = ORIENTED_EDGE ( 'NONE', *, *, #127, .T. ) ;
#295 = EDGE_CURVE ( 'NONE', #334, #297, #19, .T. ) ;
#296 = SURFACE_SIDE_STYLE ('',( #141 ) ) ;
#297 = VERTEX_POINT ( 'NONE', #52 ) ;
#298 = EDGE_LOOP ( 'NONE', ( #337, #105 ) ) ;
#299 = CARTESIAN_POINT ( 'NONE',  ( 0.000000000000000000, 0.000000000000000000, 0.000000000000000000 ) ) ;
#300 = EDGE_LOOP ( 'NONE', ( #42, #294, #75, #160 ) ) ;
#301 = PRODUCT_DEFINITION_CONTEXT ( 'detailed design', #15, 'design' ) ;
#302 = CARTESIAN_POINT ( 'NONE',  ( 9.797174393178825657E-16, 32.00000000000000000, 8.000000000000000000 ) ) ;
#303 = FACE_OUTER_BOUND ( 'NONE', #298, .T. ) ;
#304 = EDGE_LOOP ( 'NONE', ( #131, #216, #34, #241 ) ) ;
#305 =( NAMED_UNIT ( * ) SI_UNIT ( $, .STERADIAN. ) SOLID_ANGLE_UNIT ( ) );
#306 = CIRCLE ( 'NONE', #258, 8.000000000000000000 ) ;
#307 = EDGE_LOOP ( 'NONE', ( #79, #6 ) ) ;
#308 = PRODUCT_DEFINITION ( 'UNKNOWN', '', #175, #301 ) ;
#309 =( NAMED_UNIT ( * ) SI_UNIT ( $, .STERADIAN. ) SOLID_ANGLE_UNIT ( ) );
#310 =( GEOMETRIC_REPRESENTATION_CONTEXT ( 3 ) GLOBAL_UNCERTAINTY_ASSIGNED_CONTEXT ( ( #101 ) ) GLOBAL_UNIT_ASSIGNED_CONTEXT ( ( #196, #78, #305 ) ) REPRESENTATION_CONTEXT ( 'NONE', 'WORKASPACE' ) );
#311 = PRESENTATION_STYLE_ASSIGNMENT (( #257 ) ) ;
#312 = DIRECTION ( 'NONE',  ( -1.224646799147353454E-16, 0.000000000000000000, -1.000000000000000000 ) ) ;
#313 = DIRECTION ( 'NONE',  ( -0.000000000000000000, -1.000000000000000000, -0.000000000000000000 ) ) ;
#314 = CARTESIAN_POINT ( 'NONE',  ( 0.000000000000000000, 0.000000000000000000, 0.000000000000000000 ) ) ;
#315 = FILL_AREA_STYLE ('',( #87 ) ) ;
#316 = CARTESIAN_POINT ( 'NONE',  ( 5.204170427930421283E-15, 32.00000000000000000, 0.000000000000000000 ) ) ;
#317 = DIRECTION ( 'NONE',  ( -0.000000000000000000, -1.000000000000000000, -0.000000000000000000 ) ) ;
#318 = DIRECTION ( 'NONE',  ( 0.000000000000000000, 0.000000000000000000, -1.000000000000000000 ) ) ;
#319 = STYLED_ITEM ( 'NONE', ( #120 ), #111 ) ;
#320 = CARTESIAN_POINT ( 'NONE',  ( 8.000000000000000000, 89.00000000000000000, 0.000000000000000000 ) ) ;
#321 = AXIS2_PLACEMENT_3D ( 'NONE', #77, #342, #117 ) ;
#322 = ORIENTED_EDGE ( 'NONE', *, *, #232, .F. ) ;
#323 = CARTESIAN_POINT ( 'NONE',  ( 8.000000000000000000, 89.00000000000000000, 9.797174393178825657E-16 ) ) ;
#324 = COLOUR_RGB ( '',1.000000000000000000, 0.000000000000000000, 0.000000000000000000 ) ;
#325 = CYLINDRICAL_SURFACE ( 'NONE', #86, 8.000000000000000000 ) ;
#326 = ORIENTED_EDGE ( 'NONE', *, *, #72, .T. ) ;
#327 = FACE_OUTER_BOUND ( 'NONE', #217, .T. ) ;
#328 = ORIENTED_EDGE ( 'NONE', *, *, #350, .F. ) ;
#329 = SURFACE_STYLE_FILL_AREA ( #135 ) ;
#330 = ORIENTED_EDGE ( 'NONE', *, *, #206, .T. ) ;
#331 = APPLICATION_PROTOCOL_DEFINITION ( 'draft international standard', 'automotive_design', 1998, #15 ) ;
#332 = FILL_AREA_STYLE ('',( #182 ) ) ;
#333 = DIRECTION ( 'NONE',  ( -0.000000000000000000, -1.000000000000000000, -0.000000000000000000 ) ) ;
#334 = VERTEX_POINT ( 'NONE', #367 ) ;
#335 = APPLICATION_CONTEXT ( 'automotive_design' ) ;
#336 = SURFACE_STYLE_USAGE ( .BOTH. , #252 ) ;
#337 = ORIENTED_EDGE ( 'NONE', *, *, #143, .T. ) ;
#338 = DIRECTION ( 'NONE',  ( -1.213802797673107944E-16, 1.000000000000000000, 0.000000000000000000 ) ) ;
#339 = COLOUR_RGB ( '',1.000000000000000000, 0.000000000000000000, 0.000000000000000000 ) ;
#340 = ADVANCED_FACE ( 'NONE', ( #114 ), #148, .T. ) ;
#341 = SURFACE_STYLE_FILL_AREA ( #370 ) ;
#342 = DIRECTION ( 'NONE',  ( -1.213802797673107944E-16, 1.000000000000000000, -0.000000000000000000 ) ) ;
#343 = CARTESIAN_POINT ( 'NONE',  ( 9.184850993605147944E-16, 0.5000000000000000000, 7.500000000000000000 ) ) ;
#344 = MECHANICAL_DESIGN_GEOMETRIC_PRESENTATION_REPRESENTATION (  '', ( #319 ), #279 ) ;
#345 = PRODUCT_DEFINITION_SHAPE ( 'NONE', 'NONE',  #308 ) ;
#346 = AXIS2_PLACEMENT_3D ( 'NONE', #364, #169, #23 ) ;
#347 = DIRECTION ( 'NONE',  ( 0.000000000000000000, -0.000000000000000000, 1.000000000000000000 ) ) ;
#348 =( GEOMETRIC_REPRESENTATION_CONTEXT ( 3 ) GLOBAL_UNCERTAINTY_ASSIGNED_CONTEXT ( ( #92 ) ) GLOBAL_UNIT_ASSIGNED_CONTEXT ( ( #113, #133, #309 ) ) REPRESENTATION_CONTEXT ( 'NONE', 'WORKASPACE' ) );
#349 = CARTESIAN_POINT ( 'NONE',  ( 0.000000000000000000, 0.000000000000000000, 0.000000000000000000 ) ) ;
#350 = EDGE_CURVE ( 'NONE', #355, #185, #306, .T. ) ;
#351 = CARTESIAN_POINT ( 'NONE',  ( 9.491012693391985815E-16, 0.000000000000000000, 7.500000000000000000 ) ) ;
#352 = CARTESIAN_POINT ( 'NONE',  ( 0.000000000000000000, 0.5000000000000000000, -8.000000000000000000 ) ) ;
#353 = UNCERTAINTY_MEASURE_WITH_UNIT (LENGTH_MEASURE( 1.000000000000000082E-05 ), #284, 'distance_accuracy_value', 'NONE');
#354 = CIRCLE ( 'NONE', #369, 7.500000000000000000 ) ;
#355 = VERTEX_POINT ( 'NONE', #352 ) ;
#356 = SURFACE_SIDE_STYLE ('',( #329 ) ) ;
#357 = ORIENTED_EDGE ( 'NONE', *, *, #206, .F. ) ;
#358 = ADVANCED_FACE ( 'NONE', ( #327 ), #205, .F. ) ;
#359 = PRESENTATION_LAYER_ASSIGNMENT (  '', '', ( #172 ) ) ;
#360 = ORIENTED_EDGE ( 'NONE', *, *, #10, .F. ) ;
#361 = VERTEX_POINT ( 'NONE', #323 ) ;
#362 = ADVANCED_FACE ( 'NONE', ( #178 ), #266, .T. ) ;
#363 = EDGE_CURVE ( 'NONE', #361, #71, #134, .T. ) ;
#364 = CARTESIAN_POINT ( 'NONE',  ( 0.000000000000000000, 0.5000000000000000000, -7.500000000000000000 ) ) ;
#365 = EDGE_CURVE ( 'NONE', #63, #166, #109, .T. ) ;
#366 =( LENGTH_UNIT ( ) NAMED_UNIT ( * ) SI_UNIT ( .MILLI., .METRE. ) );
#367 = CARTESIAN_POINT ( 'NONE',  ( 8.000000000000000000, 32.00000000000000000, 9.797174393178825657E-16 ) ) ;
#368 = SURFACE_SIDE_STYLE ('',( #119 ) ) ;
#369 = AXIS2_PLACEMENT_3D ( 'NONE', #314, #317, #24 ) ;
#370 = FILL_AREA_STYLE ('',( #223 ) ) ;
ENDSEC;
END-ISO-10303-21;
