ISO-10303-21;
HEADER;
FILE_DESCRIPTION (( 'STEP AP214' ),
    '1' );
FILE_NAME ('83288.STEP',
    '2023-06-30T22:56:51',
    ( '' ),
    ( '' ),
    'SwSTEP 2.0',
    'SolidWorks 2023',
    '' );
FILE_SCHEMA (( 'AUTOMOTIVE_DESIGN' ));
ENDSEC;

DATA;
#1 = DIRECTION ( 'NONE',  ( -1.000000000000000000, 0.000000000000000000, 0.000000000000000000 ) ) ;
#2 = EDGE_CURVE ( 'NONE', #246, #54, #348, .T. ) ;
#3 = CARTESIAN_POINT ( 'NONE',  ( 0.000000000000000000, 0.000000000000000000, 0.000000000000000000 ) ) ;
#4 = DIRECTION ( 'NONE',  ( 1.000000000000000000, 0.000000000000000000, 0.000000000000000000 ) ) ;
#5 = DIMENSIONAL_EXPONENTS ( 1.000000000000000000, 0.000000000000000000, 0.000000000000000000, 0.000000000000000000, 0.000000000000000000, 0.000000000000000000, 0.000000000000000000 ) ;
#6 = CLOSED_SHELL ( 'NONE', ( #169, #194, #207, #114 ) ) ;
#7 =( GEOMETRIC_REPRESENTATION_CONTEXT ( 3 ) GLOBAL_UNCERTAINTY_ASSIGNED_CONTEXT ( ( #306 ) ) GLOBAL_UNIT_ASSIGNED_CONTEXT ( ( #132, #302, #361 ) ) REPRESENTATION_CONTEXT ( 'NONE', 'WORKASPACE' ) );
#8 = CYLINDRICAL_SURFACE ( 'NONE', #112, 0.1562499999999999445 ) ;
#9 = DIRECTION ( 'NONE',  ( -1.224646799147352961E-16, 1.000000000000000000, -0.000000000000000000 ) ) ;
#10 = DIRECTION ( 'NONE',  ( -1.224646799147352961E-16, 1.000000000000000000, -0.000000000000000000 ) ) ;
#11 = CARTESIAN_POINT ( 'NONE',  ( 0.000000000000000000, 0.1562500000000000278, 0.000000000000000000 ) ) ;
#12 = SURFACE_STYLE_USAGE ( .BOTH. , #304 ) ;
#13 = CARTESIAN_POINT ( 'NONE',  ( -0.1562499999999999445, 2.500000000000000000, 0.000000000000000000 ) ) ;
#14 = FACE_OUTER_BOUND ( 'NONE', #152, .T. ) ;
#15 = ORIENTED_EDGE ( 'NONE', *, *, #357, .F. ) ;
#16 = SURFACE_STYLE_FILL_AREA ( #192 ) ;
#17 = MECHANICAL_DESIGN_GEOMETRIC_PRESENTATION_REPRESENTATION (  '', ( #319 ), #45 ) ;
#18 =( GEOMETRIC_REPRESENTATION_CONTEXT ( 3 ) GLOBAL_UNCERTAINTY_ASSIGNED_CONTEXT ( ( #193 ) ) GLOBAL_UNIT_ASSIGNED_CONTEXT ( ( #97, #154, #127 ) ) REPRESENTATION_CONTEXT ( 'NONE', 'WORKASPACE' ) );
#19 = SHAPE_DEFINITION_REPRESENTATION ( #364, #93 ) ;
#20 = PRODUCT_DEFINITION_CONTEXT ( 'detailed design', #209, 'design' ) ;
#21 = SURFACE_STYLE_FILL_AREA ( #32 ) ;
#22 = MANIFOLD_SOLID_BREP ( 'Revolve - Cutting Edge', #223 ) ;
#23 = VERTEX_POINT ( 'NONE', #136 ) ;
#24 = ORIENTED_EDGE ( 'NONE', *, *, #353, .F. ) ;
#25 = CARTESIAN_POINT ( 'NONE',  ( 0.000000000000000000, 0.7500000000000001110, 0.000000000000000000 ) ) ;
#26 = ORIENTED_EDGE ( 'NONE', *, *, #74, .T. ) ;
#27 = PRESENTATION_LAYER_ASSIGNMENT (  '', '', ( #195 ) ) ;
#28 = DIRECTION ( 'NONE',  ( 1.000000000000000000, 0.000000000000000000, 0.000000000000000000 ) ) ;
#29 = EDGE_CURVE ( 'NONE', #54, #346, #145, .T. ) ;
#30 =( LENGTH_UNIT ( ) NAMED_UNIT ( * ) SI_UNIT ( $, .METRE. ) );
#31 = MANIFOLD_SOLID_BREP ( 'Revolve - Tool Body (Straight Shanked)', #6 ) ;
#32 = FILL_AREA_STYLE ('',( #43 ) ) ;
#33 = DIRECTION ( 'NONE',  ( -1.000000000000000000, 0.000000000000000000, 0.000000000000000000 ) ) ;
#34 = SURFACE_STYLE_FILL_AREA ( #151 ) ;
#35 = DIMENSIONAL_EXPONENTS ( 1.000000000000000000, 0.000000000000000000, 0.000000000000000000, 0.000000000000000000, 0.000000000000000000, 0.000000000000000000, 0.000000000000000000 ) ;
#36 = PRESENTATION_STYLE_ASSIGNMENT (( #66 ) ) ;
#37 = CIRCLE ( 'NONE', #146, 0.1562500000000000000 ) ;
#38 =( NAMED_UNIT ( * ) SI_UNIT ( $, .STERADIAN. ) SOLID_ANGLE_UNIT ( ) );
#39 = DIRECTION ( 'NONE',  ( -1.000000000000000000, 0.000000000000000000, 0.000000000000000000 ) ) ;
#40 =( GEOMETRIC_REPRESENTATION_CONTEXT ( 3 ) GLOBAL_UNCERTAINTY_ASSIGNED_CONTEXT ( ( #305 ) ) GLOBAL_UNIT_ASSIGNED_CONTEXT ( ( #284, #371, #203 ) ) REPRESENTATION_CONTEXT ( 'NONE', 'WORKASPACE' ) );
#41 = ADVANCED_FACE ( 'NONE', ( #87 ), #338, .T. ) ;
#42 = FACE_OUTER_BOUND ( 'NONE', #313, .T. ) ;
#43 = FILL_AREA_STYLE_COLOUR ( '', #253 ) ;
#44 = DIRECTION ( 'NONE',  ( -1.000000000000000000, -1.224646799147352961E-16, 0.000000000000000000 ) ) ;
#45 =( GEOMETRIC_REPRESENTATION_CONTEXT ( 3 ) GLOBAL_UNCERTAINTY_ASSIGNED_CONTEXT ( ( #232 ) ) GLOBAL_UNIT_ASSIGNED_CONTEXT ( ( #257, #59, #175 ) ) REPRESENTATION_CONTEXT ( 'NONE', 'WORKASPACE' ) );
#46 = PRESENTATION_LAYER_ASSIGNMENT (  '', '', ( #129 ) ) ;
#47 = UNCERTAINTY_MEASURE_WITH_UNIT (LENGTH_MEASURE( 1.000000000000000082E-05 ), #153, 'distance_accuracy_value', 'NONE');
#48 = EDGE_CURVE ( 'NONE', #52, #83, #103, .T. ) ;
#49 = AXIS2_PLACEMENT_3D ( 'NONE', #143, #343, #57 ) ;
#50 = AXIS2_PLACEMENT_3D ( 'NONE', #187, #244, #363 ) ;
#51 = PRODUCT_DEFINITION_FORMATION_WITH_SPECIFIED_SOURCE ( 'ANY', '', #267, .NOT_KNOWN. ) ;
#52 = VERTEX_POINT ( 'NONE', #53 ) ;
#53 = CARTESIAN_POINT ( 'NONE',  ( 0.1562500000000000000, 0.1562500000000000278, 0.000000000000000000 ) ) ;
#54 = VERTEX_POINT ( 'NONE', #259 ) ;
#55 = PLANE ( 'NONE',  #230 ) ;
#56 = CARTESIAN_POINT ( 'NONE',  ( 0.000000000000000000, 0.000000000000000000, -0.1562499999999999445 ) ) ;
#57 = DIRECTION ( 'NONE',  ( 0.000000000000000000, 0.000000000000000000, -1.000000000000000000 ) ) ;
#58 =( LENGTH_UNIT ( ) NAMED_UNIT ( * ) SI_UNIT ( $, .METRE. ) );
#59 =( NAMED_UNIT ( * ) PLANE_ANGLE_UNIT ( ) SI_UNIT ( $, .RADIAN. ) );
#60 = PRESENTATION_STYLE_ASSIGNMENT (( #91 ) ) ;
#61 = STYLED_ITEM ( 'NONE', ( #60 ), #22 ) ;
#62 = AXIS2_PLACEMENT_3D ( 'NONE', #3, #125, #92 ) ;
#63 = CARTESIAN_POINT ( 'NONE',  ( 0.1562499999999999167, 2.500000000000000000, 1.913510623667738231E-17 ) ) ;
#64 = PRESENTATION_STYLE_ASSIGNMENT (( #336 ) ) ;
#65 = EDGE_CURVE ( 'NONE', #23, #346, #231, .T. ) ;
#66 = SURFACE_STYLE_USAGE ( .BOTH. , #210 ) ;
#67 = ORIENTED_EDGE ( 'NONE', *, *, #226, .T. ) ;
#68 = AXIS2_PLACEMENT_3D ( 'NONE', #370, #157, #131 ) ;
#69 = LENGTH_MEASURE_WITH_UNIT ( LENGTH_MEASURE( 0.02539999999999999897 ), #296 );
#70 = DIMENSIONAL_EXPONENTS ( 1.000000000000000000, 0.000000000000000000, 0.000000000000000000, 0.000000000000000000, 0.000000000000000000, 0.000000000000000000, 0.000000000000000000 ) ;
#71 = FILL_AREA_STYLE_COLOUR ( '', #310 ) ;
#72 =( NAMED_UNIT ( * ) PLANE_ANGLE_UNIT ( ) SI_UNIT ( $, .RADIAN. ) );
#73 = CARTESIAN_POINT ( 'NONE',  ( 0.1562499999999999167, 0.7499999999999998890, 1.913510623667738231E-17 ) ) ;
#74 = EDGE_CURVE ( 'NONE', #184, #23, #362, .T. ) ;
#75 = LENGTH_MEASURE_WITH_UNIT ( LENGTH_MEASURE( 0.02539999999999999897 ), #217 );
#76 = FACE_OUTER_BOUND ( 'NONE', #314, .T. ) ;
#77 = AXIS2_PLACEMENT_3D ( 'NONE', #347, #318, #204 ) ;
#78 = CIRCLE ( 'NONE', #276, 0.1562500000000000000 ) ;
#79 = SURFACE_STYLE_FILL_AREA ( #102 ) ;
#80 = FACE_OUTER_BOUND ( 'NONE', #220, .T. ) ;
#81 = EDGE_CURVE ( 'NONE', #184, #246, #122, .T. ) ;
#82 = ORIENTED_EDGE ( 'NONE', *, *, #264, .T. ) ;
#83 = VERTEX_POINT ( 'NONE', #205 ) ;
#84 = COLOUR_RGB ( '',0.7921568627450980005, 0.8196078431372548767, 0.9333333333333333481 ) ;
#85 = CIRCLE ( 'NONE', #77, 0.1562499999999999167 ) ;
#86 = ORIENTED_EDGE ( 'NONE', *, *, #81, .T. ) ;
#87 = FACE_OUTER_BOUND ( 'NONE', #337, .T. ) ;
#88 = ORIENTED_EDGE ( 'NONE', *, *, #334, .F. ) ;
#89 = LENGTH_MEASURE_WITH_UNIT ( LENGTH_MEASURE( 0.02539999999999999897 ), #202 );
#90 = MECHANICAL_DESIGN_GEOMETRIC_PRESENTATION_REPRESENTATION (  '', ( #235 ), #7 ) ;
#91 = SURFACE_STYLE_USAGE ( .BOTH. , #339 ) ;
#92 = DIRECTION ( 'NONE',  ( 0.000000000000000000, 0.000000000000000000, -1.000000000000000000 ) ) ;
#93 = ADVANCED_BREP_SHAPE_REPRESENTATION ( '83288', ( #22, #31, #173 ), #311 ) ;
#94 =( NAMED_UNIT ( * ) SI_UNIT ( $, .STERADIAN. ) SOLID_ANGLE_UNIT ( ) );
#95 = PRODUCT_RELATED_PRODUCT_CATEGORY ( 'part', '', ( #267 ) ) ;
#96 = ORIENTED_EDGE ( 'NONE', *, *, #264, .F. ) ;
#97 =( CONVERSION_BASED_UNIT ( 'INCH', #123 ) LENGTH_UNIT ( ) NAMED_UNIT ( #269 ) );
#98 = PRESENTATION_STYLE_ASSIGNMENT (( #255 ) ) ;
#99 = FILL_AREA_STYLE_COLOUR ( '', #341 ) ;
#100 = EDGE_CURVE ( 'NONE', #295, #178, #355, .T. ) ;
#101 = DIRECTION ( 'NONE',  ( 1.224646799147353207E-16, -0.000000000000000000, 1.000000000000000000 ) ) ;
#102 = FILL_AREA_STYLE ('',( #215 ) ) ;
#103 = CIRCLE ( 'NONE', #291, 0.1562500000000000000 ) ;
#104 = DIMENSIONAL_EXPONENTS ( 1.000000000000000000, 0.000000000000000000, 0.000000000000000000, 0.000000000000000000, 0.000000000000000000, 0.000000000000000000, 0.000000000000000000 ) ;
#105 = SPHERICAL_SURFACE ( 'NONE', #150, 0.1562500000000000000 ) ;
#106 = DIRECTION ( 'NONE',  ( -1.000000000000000000, 0.000000000000000000, 0.000000000000000000 ) ) ;
#107 = CARTESIAN_POINT ( 'NONE',  ( 0.000000000000000000, 0.000000000000000000, 0.000000000000000000 ) ) ;
#108 = CYLINDRICAL_SURFACE ( 'NONE', #50, 0.1562499999999998612 ) ;
#109 =( GEOMETRIC_REPRESENTATION_CONTEXT ( 3 ) GLOBAL_UNCERTAINTY_ASSIGNED_CONTEXT ( ( #155 ) ) GLOBAL_UNIT_ASSIGNED_CONTEXT ( ( #227, #137, #94 ) ) REPRESENTATION_CONTEXT ( 'NONE', 'WORKASPACE' ) );
#110 = AXIS2_PLACEMENT_3D ( 'NONE', #282, #128, #249 ) ;
#111 = UNCERTAINTY_MEASURE_WITH_UNIT (LENGTH_MEASURE( 1.000000000000000082E-05 ), #321, 'distance_accuracy_value', 'NONE');
#112 = AXIS2_PLACEMENT_3D ( 'NONE', #107, #126, #352 ) ;
#113 = ORIENTED_EDGE ( 'NONE', *, *, #357, .T. ) ;
#114 = ADVANCED_FACE ( 'NONE', ( #76 ), #218, .F. ) ;
#115 = FILL_AREA_STYLE ('',( #159 ) ) ;
#116 = DIRECTION ( 'NONE',  ( 0.000000000000000000, 0.000000000000000000, 1.000000000000000000 ) ) ;
#117 = ORIENTED_EDGE ( 'NONE', *, *, #221, .T. ) ;
#118 = CARTESIAN_POINT ( 'NONE',  ( -1.913510623667739463E-17, 0.1562500000000000000, 0.000000000000000000 ) ) ;
#119 = FILL_AREA_STYLE ('',( #229 ) ) ;
#120 = CARTESIAN_POINT ( 'NONE',  ( -1.913510623667739463E-17, 0.1562500000000000000, 0.000000000000000000 ) ) ;
#121 = CIRCLE ( 'NONE', #110, 0.1562499999999997780 ) ;
#122 = LINE ( 'NONE', #373, #286 ) ;
#123 = LENGTH_MEASURE_WITH_UNIT ( LENGTH_MEASURE( 0.02539999999999999897 ), #58 );
#124 = SURFACE_SIDE_STYLE ('',( #21 ) ) ;
#125 = DIRECTION ( 'NONE',  ( -0.000000000000000000, -1.000000000000000000, -0.000000000000000000 ) ) ;
#126 = DIRECTION ( 'NONE',  ( -0.000000000000000000, -1.000000000000000000, -0.000000000000000000 ) ) ;
#127 =( NAMED_UNIT ( * ) SI_UNIT ( $, .STERADIAN. ) SOLID_ANGLE_UNIT ( ) );
#128 = DIRECTION ( 'NONE',  ( -1.224646799147352961E-16, 1.000000000000000000, -0.000000000000000000 ) ) ;
#129 = STYLED_ITEM ( 'NONE', ( #64 ), #250 ) ;
#130 = CARTESIAN_POINT ( 'NONE',  ( -6.123233995736766036E-17, 2.500000000000000000, 0.000000000000000000 ) ) ;
#131 = DIRECTION ( 'NONE',  ( 0.000000000000000000, 0.000000000000000000, -1.000000000000000000 ) ) ;
#132 =( CONVERSION_BASED_UNIT ( 'INCH', #277 ) LENGTH_UNIT ( ) NAMED_UNIT ( #237 ) );
#133 = CARTESIAN_POINT ( 'NONE',  ( 1.530808498934191571E-16, 0.7500000000000001110, 0.000000000000000000 ) ) ;
#134 = PRESENTATION_LAYER_ASSIGNMENT (  '', '', ( #61 ) ) ;
#135 = UNCERTAINTY_MEASURE_WITH_UNIT (LENGTH_MEASURE( 1.000000000000000082E-05 ), #359, 'distance_accuracy_value', 'NONE');
#136 = CARTESIAN_POINT ( 'NONE',  ( 0.000000000000000000, 0.7500000000000001110, -0.1562499999999999167 ) ) ;
#137 =( NAMED_UNIT ( * ) PLANE_ANGLE_UNIT ( ) SI_UNIT ( $, .RADIAN. ) );
#138 = CIRCLE ( 'NONE', #292, 0.1562499999999999722 ) ;
#139 = CARTESIAN_POINT ( 'NONE',  ( 0.000000000000000000, 0.000000000000000000, 0.000000000000000000 ) ) ;
#140 = ORIENTED_EDGE ( 'NONE', *, *, #100, .T. ) ;
#141 = SURFACE_SIDE_STYLE ('',( #265 ) ) ;
#142 = ORIENTED_EDGE ( 'NONE', *, *, #74, .F. ) ;
#143 = CARTESIAN_POINT ( 'NONE',  ( 0.000000000000000000, 0.1562500000000000278, 0.000000000000000000 ) ) ;
#144 = DIRECTION ( 'NONE',  ( -0.000000000000000000, -1.000000000000000000, -0.000000000000000000 ) ) ;
#145 = CIRCLE ( 'NONE', #68, 0.1562500000000000000 ) ;
#146 = AXIS2_PLACEMENT_3D ( 'NONE', #245, #101, #299 ) ;
#147 = EDGE_LOOP ( 'NONE', ( #290, #26, #367, #258, #212 ) ) ;
#148 = LENGTH_MEASURE_WITH_UNIT ( LENGTH_MEASURE( 0.02539999999999999897 ), #30 );
#149 = CYLINDRICAL_SURFACE ( 'NONE', #254, 0.1562499999999998612 ) ;
#150 = AXIS2_PLACEMENT_3D ( 'NONE', #162, #279, #4 ) ;
#151 = FILL_AREA_STYLE ('',( #99 ) ) ;
#152 = EDGE_LOOP ( 'NONE', ( #24, #233, #360, #369 ) ) ;
#153 =( CONVERSION_BASED_UNIT ( 'INCH', #69 ) LENGTH_UNIT ( ) NAMED_UNIT ( #104 ) );
#154 =( NAMED_UNIT ( * ) PLANE_ANGLE_UNIT ( ) SI_UNIT ( $, .RADIAN. ) );
#155 = UNCERTAINTY_MEASURE_WITH_UNIT (LENGTH_MEASURE( 1.000000000000000082E-05 ), #227, 'distance_accuracy_value', 'NONE');
#156 = DIRECTION ( 'NONE',  ( -1.224646799147352961E-16, 1.000000000000000000, 0.000000000000000000 ) ) ;
#157 = DIRECTION ( 'NONE',  ( -0.000000000000000000, -1.000000000000000000, -0.000000000000000000 ) ) ;
#158 = LINE ( 'NONE', #275, #190 ) ;
#159 = FILL_AREA_STYLE_COLOUR ( '', #219 ) ;
#160 = CIRCLE ( 'NONE', #329, 0.1562500000000000000 ) ;
#161 = CARTESIAN_POINT ( 'NONE',  ( 0.000000000000000000, 0.1562500000000000278, 0.000000000000000000 ) ) ;
#162 = CARTESIAN_POINT ( 'NONE',  ( -1.913510623667739463E-17, 0.1562500000000000000, 0.000000000000000000 ) ) ;
#163 = APPLICATION_PROTOCOL_DEFINITION ( 'draft international standard', 'automotive_design', 1998, #180 ) ;
#164 = DIRECTION ( 'NONE',  ( -1.224646799147352961E-16, 1.000000000000000000, -0.000000000000000000 ) ) ;
#165 = PRODUCT_CONTEXT ( 'NONE', #180, 'mechanical' ) ;
#166 = AXIS2_PLACEMENT_3D ( 'NONE', #316, #320, #106 ) ;
#167 = VERTEX_POINT ( 'NONE', #247 ) ;
#168 = SURFACE_SIDE_STYLE ('',( #332 ) ) ;
#169 = ADVANCED_FACE ( 'NONE', ( #80 ), #108, .T. ) ;
#170 =( NAMED_UNIT ( * ) PLANE_ANGLE_UNIT ( ) SI_UNIT ( $, .RADIAN. ) );
#171 = SURFACE_STYLE_USAGE ( .BOTH. , #141 ) ;
#172 = MECHANICAL_DESIGN_GEOMETRIC_PRESENTATION_REPRESENTATION (  '', ( #224 ), #301 ) ;
#173 = AXIS2_PLACEMENT_3D ( 'NONE', #139, #116, #222 ) ;
#174 = ORIENTED_EDGE ( 'NONE', *, *, #273, .T. ) ;
#175 =( NAMED_UNIT ( * ) SI_UNIT ( $, .STERADIAN. ) SOLID_ANGLE_UNIT ( ) );
#176 = ORIENTED_EDGE ( 'NONE', *, *, #353, .T. ) ;
#177 = LENGTH_MEASURE_WITH_UNIT ( LENGTH_MEASURE( 0.02539999999999999897 ), #288 );
#178 = VERTEX_POINT ( 'NONE', #73 ) ;
#179 =( NAMED_UNIT ( * ) SI_UNIT ( $, .STERADIAN. ) SOLID_ANGLE_UNIT ( ) );
#180 = APPLICATION_CONTEXT ( 'automotive_design' ) ;
#181 = CARTESIAN_POINT ( 'NONE',  ( 1.913510623667739463E-17, 0.1562500000000000278, 0.1562500000000000000 ) ) ;
#182 = ADVANCED_FACE ( 'NONE', ( #14 ), #105, .T. ) ;
#183 = STYLED_ITEM ( 'NONE', ( #98 ), #31 ) ;
#184 = VERTEX_POINT ( 'NONE', #216 ) ;
#185 = DIRECTION ( 'NONE',  ( -0.000000000000000000, -1.000000000000000000, -0.000000000000000000 ) ) ;
#186 = CARTESIAN_POINT ( 'NONE',  ( 0.000000000000000000, 0.1562500000000000278, -0.1562500000000000000 ) ) ;
#187 = CARTESIAN_POINT ( 'NONE',  ( -6.123233995736766036E-17, 2.500000000000000000, 0.000000000000000000 ) ) ;
#188 = DIRECTION ( 'NONE',  ( -1.224646799147352961E-16, 1.000000000000000000, -0.000000000000000000 ) ) ;
#189 = CARTESIAN_POINT ( 'NONE',  ( 0.1562499999999999167, 2.500000000000000000, 0.000000000000000000 ) ) ;
#190 = VECTOR ( 'NONE', #211, 39.37007874015748143 ) ;
#191 = FACE_OUTER_BOUND ( 'NONE', #147, .T. ) ;
#192 = FILL_AREA_STYLE ('',( #71 ) ) ;
#193 = UNCERTAINTY_MEASURE_WITH_UNIT (LENGTH_MEASURE( 1.000000000000000082E-05 ), #97, 'distance_accuracy_value', 'NONE');
#194 = ADVANCED_FACE ( 'NONE', ( #42 ), #297, .F. ) ;
#195 = STYLED_ITEM ( 'NONE', ( #36 ), #266 ) ;
#196 = ORIENTED_EDGE ( 'NONE', *, *, #2, .T. ) ;
#197 = FILL_AREA_STYLE_COLOUR ( '', #213 ) ;
#198 = EDGE_LOOP ( 'NONE', ( #82, #86, #228, #335, #331 ) ) ;
#199 = CIRCLE ( 'NONE', #208, 0.1562499999999999722 ) ;
#200 = FILL_AREA_STYLE ('',( #197 ) ) ;
#201 =( LENGTH_UNIT ( ) NAMED_UNIT ( * ) SI_UNIT ( $, .METRE. ) );
#202 =( LENGTH_UNIT ( ) NAMED_UNIT ( * ) SI_UNIT ( $, .METRE. ) );
#203 =( NAMED_UNIT ( * ) SI_UNIT ( $, .STERADIAN. ) SOLID_ANGLE_UNIT ( ) );
#204 = DIRECTION ( 'NONE',  ( 0.000000000000000000, 0.000000000000000000, -1.000000000000000000 ) ) ;
#205 = CARTESIAN_POINT ( 'NONE',  ( -9.567553118338697316E-18, 0.000000000000000000, 0.000000000000000000 ) ) ;
#206 = SURFACE_STYLE_FILL_AREA ( #119 ) ;
#207 = ADVANCED_FACE ( 'NONE', ( #234 ), #149, .T. ) ;
#208 = AXIS2_PLACEMENT_3D ( 'NONE', #130, #188, #278 ) ;
#209 = APPLICATION_CONTEXT ( 'automotive_design' ) ;
#210 = SURFACE_SIDE_STYLE ('',( #34 ) ) ;
#211 = DIRECTION ( 'NONE',  ( -1.224646799147352961E-16, 1.000000000000000000, -0.000000000000000000 ) ) ;
#212 = ORIENTED_EDGE ( 'NONE', *, *, #2, .F. ) ;
#213 = COLOUR_RGB ( '',1.000000000000000000, 0.000000000000000000, 0.000000000000000000 ) ;
#214 = MECHANICAL_DESIGN_GEOMETRIC_PRESENTATION_REPRESENTATION (  '', ( #129 ), #262 ) ;
#215 = FILL_AREA_STYLE_COLOUR ( '', #333 ) ;
#216 = CARTESIAN_POINT ( 'NONE',  ( 1.913510623667738231E-17, 0.7500000000000001110, 0.1562499999999999167 ) ) ;
#217 =( LENGTH_UNIT ( ) NAMED_UNIT ( * ) SI_UNIT ( $, .METRE. ) );
#218 = PLANE ( 'NONE',  #372 ) ;
#219 = COLOUR_RGB ( '',1.000000000000000000, 0.000000000000000000, 0.000000000000000000 ) ;
#220 = EDGE_LOOP ( 'NONE', ( #140, #113, #308, #88 ) ) ;
#221 = EDGE_CURVE ( 'NONE', #236, #167, #138, .T. ) ;
#222 = DIRECTION ( 'NONE',  ( 1.000000000000000000, 0.000000000000000000, 0.000000000000000000 ) ) ;
#223 = CLOSED_SHELL ( 'NONE', ( #41, #250, #266, #298, #182 ) ) ;
#224 = STYLED_ITEM ( 'NONE', ( #303 ), #298 ) ;
#225 = EDGE_LOOP ( 'NONE', ( #15, #67, #256, #317 ) ) ;
#226 = EDGE_CURVE ( 'NONE', #178, #295, #121, .T. ) ;
#227 =( CONVERSION_BASED_UNIT ( 'INCH', #177 ) LENGTH_UNIT ( ) NAMED_UNIT ( #328 ) );
#228 = ORIENTED_EDGE ( 'NONE', *, *, #273, .F. ) ;
#229 = FILL_AREA_STYLE_COLOUR ( '', #84 ) ;
#230 = AXIS2_PLACEMENT_3D ( 'NONE', #324, #271, #268 ) ;
#231 = LINE ( 'NONE', #56, #366 ) ;
#232 = UNCERTAINTY_MEASURE_WITH_UNIT (LENGTH_MEASURE( 1.000000000000000082E-05 ), #257, 'distance_accuracy_value', 'NONE');
#233 = ORIENTED_EDGE ( 'NONE', *, *, #29, .T. ) ;
#234 = FACE_OUTER_BOUND ( 'NONE', #225, .T. ) ;
#235 = STYLED_ITEM ( 'NONE', ( #327 ), #182 ) ;
#236 = VERTEX_POINT ( 'NONE', #63 ) ;
#237 = DIMENSIONAL_EXPONENTS ( 1.000000000000000000, 0.000000000000000000, 0.000000000000000000, 0.000000000000000000, 0.000000000000000000, 0.000000000000000000, 0.000000000000000000 ) ;
#238 = LINE ( 'NONE', #13, #350 ) ;
#239 = PRESENTATION_LAYER_ASSIGNMENT (  '', '', ( #183 ) ) ;
#240 = PRESENTATION_LAYER_ASSIGNMENT (  '', '', ( #235 ) ) ;
#241 = SURFACE_STYLE_USAGE ( .BOTH. , #354 ) ;
#242 = FACE_OUTER_BOUND ( 'NONE', #198, .T. ) ;
#243 = DIRECTION ( 'NONE',  ( -0.000000000000000000, -1.000000000000000000, -0.000000000000000000 ) ) ;
#244 = DIRECTION ( 'NONE',  ( -1.224646799147352961E-16, 1.000000000000000000, -0.000000000000000000 ) ) ;
#245 = CARTESIAN_POINT ( 'NONE',  ( -1.913510623667739463E-17, 0.1562500000000000000, 0.000000000000000000 ) ) ;
#246 = VERTEX_POINT ( 'NONE', #181 ) ;
#247 = CARTESIAN_POINT ( 'NONE',  ( -0.1562500000000000278, 2.500000000000000000, 0.000000000000000000 ) ) ;
#248 = AXIS2_PLACEMENT_3D ( 'NONE', #25, #144, #263 ) ;
#249 = DIRECTION ( 'NONE',  ( -1.000000000000000000, 0.000000000000000000, 0.000000000000000000 ) ) ;
#250 = ADVANCED_FACE ( 'NONE', ( #242 ), #326, .T. ) ;
#251 =( NAMED_UNIT ( * ) SI_UNIT ( $, .STERADIAN. ) SOLID_ANGLE_UNIT ( ) );
#252 = ORIENTED_EDGE ( 'NONE', *, *, #48, .F. ) ;
#253 = COLOUR_RGB ( '',0.7921568627450980005, 0.8196078431372548767, 0.9333333333333333481 ) ;
#254 = AXIS2_PLACEMENT_3D ( 'NONE', #272, #164, #33 ) ;
#255 = SURFACE_STYLE_USAGE ( .BOTH. , #124 ) ;
#256 = ORIENTED_EDGE ( 'NONE', *, *, #334, .T. ) ;
#257 =( CONVERSION_BASED_UNIT ( 'INCH', #89 ) LENGTH_UNIT ( ) NAMED_UNIT ( #35 ) );
#258 = ORIENTED_EDGE ( 'NONE', *, *, #29, .F. ) ;
#259 = CARTESIAN_POINT ( 'NONE',  ( -0.1562500000000000000, 0.1562500000000000278, 1.913510623667738847E-17 ) ) ;
#260 = LENGTH_MEASURE_WITH_UNIT ( LENGTH_MEASURE( 0.02539999999999999897 ), #201 );
#261 = AXIS2_PLACEMENT_3D ( 'NONE', #120, #293, #28 ) ;
#262 =( GEOMETRIC_REPRESENTATION_CONTEXT ( 3 ) GLOBAL_UNCERTAINTY_ASSIGNED_CONTEXT ( ( #111 ) ) GLOBAL_UNIT_ASSIGNED_CONTEXT ( ( #321, #344, #179 ) ) REPRESENTATION_CONTEXT ( 'NONE', 'WORKASPACE' ) );
#263 = DIRECTION ( 'NONE',  ( 0.000000000000000000, 0.000000000000000000, -1.000000000000000000 ) ) ;
#264 = EDGE_CURVE ( 'NONE', #23, #184, #85, .T. ) ;
#265 = SURFACE_STYLE_FILL_AREA ( #200 ) ;
#266 = ADVANCED_FACE ( 'NONE', ( #315 ), #55, .T. ) ;
#267 = PRODUCT ( '83288', '83288', '', ( #165 ) ) ;
#268 = DIRECTION ( 'NONE',  ( 0.000000000000000000, -0.000000000000000000, 1.000000000000000000 ) ) ;
#269 = DIMENSIONAL_EXPONENTS ( 1.000000000000000000, 0.000000000000000000, 0.000000000000000000, 0.000000000000000000, 0.000000000000000000, 0.000000000000000000, 0.000000000000000000 ) ;
#270 = EDGE_LOOP ( 'NONE', ( #96, #142 ) ) ;
#271 = DIRECTION ( 'NONE',  ( 0.000000000000000000, 1.000000000000000000, 0.000000000000000000 ) ) ;
#272 = CARTESIAN_POINT ( 'NONE',  ( -6.123233995736766036E-17, 2.500000000000000000, 0.000000000000000000 ) ) ;
#273 = EDGE_CURVE ( 'NONE', #52, #246, #160, .T. ) ;
#274 = MECHANICAL_DESIGN_GEOMETRIC_PRESENTATION_REPRESENTATION (  '', ( #195 ), #18 ) ;
#275 = CARTESIAN_POINT ( 'NONE',  ( 0.1562499999999998057, 2.500000000000000000, 1.913510623667737923E-17 ) ) ;
#276 = AXIS2_PLACEMENT_3D ( 'NONE', #11, #243, #356 ) ;
#277 = LENGTH_MEASURE_WITH_UNIT ( LENGTH_MEASURE( 0.02539999999999999897 ), #300 );
#278 = DIRECTION ( 'NONE',  ( -1.000000000000000000, 0.000000000000000000, 0.000000000000000000 ) ) ;
#279 = DIRECTION ( 'NONE',  ( 0.000000000000000000, 0.000000000000000000, 1.000000000000000000 ) ) ;
#280 = APPLICATION_PROTOCOL_DEFINITION ( 'draft international standard', 'automotive_design', 1998, #209 ) ;
#281 = PRODUCT_DEFINITION ( 'UNKNOWN', '', #51, #20 ) ;
#282 = CARTESIAN_POINT ( 'NONE',  ( 1.530808498934191078E-16, 0.7499999999999998890, 0.000000000000000000 ) ) ;
#283 = PRESENTATION_LAYER_ASSIGNMENT (  '', '', ( #224 ) ) ;
#284 =( CONVERSION_BASED_UNIT ( 'INCH', #260 ) LENGTH_UNIT ( ) NAMED_UNIT ( #70 ) );
#285 = MECHANICAL_DESIGN_GEOMETRIC_PRESENTATION_REPRESENTATION (  '', ( #61 ), #40 ) ;
#286 = VECTOR ( 'NONE', #345, 39.37007874015748143 ) ;
#287 = ORIENTED_EDGE ( 'NONE', *, *, #226, .F. ) ;
#288 =( LENGTH_UNIT ( ) NAMED_UNIT ( * ) SI_UNIT ( $, .METRE. ) );
#289 = ORIENTED_EDGE ( 'NONE', *, *, #100, .F. ) ;
#290 = ORIENTED_EDGE ( 'NONE', *, *, #81, .F. ) ;
#291 = AXIS2_PLACEMENT_3D ( 'NONE', #118, #312, #1 ) ;
#292 = AXIS2_PLACEMENT_3D ( 'NONE', #351, #10, #39 ) ;
#293 = DIRECTION ( 'NONE',  ( 0.000000000000000000, 0.000000000000000000, 1.000000000000000000 ) ) ;
#294 = DIRECTION ( 'NONE',  ( 1.000000000000000000, 1.224646799147352961E-16, 0.000000000000000000 ) ) ;
#295 = VERTEX_POINT ( 'NONE', #322 ) ;
#296 =( LENGTH_UNIT ( ) NAMED_UNIT ( * ) SI_UNIT ( $, .METRE. ) );
#297 = PLANE ( 'NONE',  #323 ) ;
#298 = ADVANCED_FACE ( 'NONE', ( #191 ), #8, .T. ) ;
#299 = DIRECTION ( 'NONE',  ( 1.000000000000000000, 0.000000000000000000, -1.224646799147353207E-16 ) ) ;
#300 =( LENGTH_UNIT ( ) NAMED_UNIT ( * ) SI_UNIT ( $, .METRE. ) );
#301 =( GEOMETRIC_REPRESENTATION_CONTEXT ( 3 ) GLOBAL_UNCERTAINTY_ASSIGNED_CONTEXT ( ( #47 ) ) GLOBAL_UNIT_ASSIGNED_CONTEXT ( ( #153, #72, #38 ) ) REPRESENTATION_CONTEXT ( 'NONE', 'WORKASPACE' ) );
#302 =( NAMED_UNIT ( * ) PLANE_ANGLE_UNIT ( ) SI_UNIT ( $, .RADIAN. ) );
#303 = PRESENTATION_STYLE_ASSIGNMENT (( #241 ) ) ;
#304 = SURFACE_SIDE_STYLE ('',( #16 ) ) ;
#305 = UNCERTAINTY_MEASURE_WITH_UNIT (LENGTH_MEASURE( 1.000000000000000082E-05 ), #284, 'distance_accuracy_value', 'NONE');
#306 = UNCERTAINTY_MEASURE_WITH_UNIT (LENGTH_MEASURE( 1.000000000000000082E-05 ), #132, 'distance_accuracy_value', 'NONE');
#307 = ORIENTED_EDGE ( 'NONE', *, *, #325, .T. ) ;
#308 = ORIENTED_EDGE ( 'NONE', *, *, #325, .F. ) ;
#309 = PRESENTATION_LAYER_ASSIGNMENT (  '', '', ( #319 ) ) ;
#310 = COLOUR_RGB ( '',1.000000000000000000, 0.000000000000000000, 0.000000000000000000 ) ;
#311 =( GEOMETRIC_REPRESENTATION_CONTEXT ( 3 ) GLOBAL_UNCERTAINTY_ASSIGNED_CONTEXT ( ( #135 ) ) GLOBAL_UNIT_ASSIGNED_CONTEXT ( ( #359, #170, #251 ) ) REPRESENTATION_CONTEXT ( 'NONE', 'WORKASPACE' ) );
#312 = DIRECTION ( 'NONE',  ( 0.000000000000000000, 0.000000000000000000, -1.000000000000000000 ) ) ;
#313 = EDGE_LOOP ( 'NONE', ( #289, #287 ) ) ;
#314 = EDGE_LOOP ( 'NONE', ( #307, #117 ) ) ;
#315 = FACE_OUTER_BOUND ( 'NONE', #270, .T. ) ;
#316 = CARTESIAN_POINT ( 'NONE',  ( 1.530808498934191078E-16, 0.7499999999999998890, 0.000000000000000000 ) ) ;
#317 = ORIENTED_EDGE ( 'NONE', *, *, #221, .F. ) ;
#318 = DIRECTION ( 'NONE',  ( -0.000000000000000000, -1.000000000000000000, -0.000000000000000000 ) ) ;
#319 = STYLED_ITEM ( 'NONE', ( #368 ), #41 ) ;
#320 = DIRECTION ( 'NONE',  ( -1.224646799147352961E-16, 1.000000000000000000, -0.000000000000000000 ) ) ;
#321 =( CONVERSION_BASED_UNIT ( 'INCH', #148 ) LENGTH_UNIT ( ) NAMED_UNIT ( #349 ) );
#322 = CARTESIAN_POINT ( 'NONE',  ( -0.1562499999999996392, 0.7499999999999998890, 0.000000000000000000 ) ) ;
#323 = AXIS2_PLACEMENT_3D ( 'NONE', #133, #156, #44 ) ;
#324 = CARTESIAN_POINT ( 'NONE',  ( 0.000000000000000000, 0.7500000000000001110, 0.000000000000000000 ) ) ;
#325 = EDGE_CURVE ( 'NONE', #167, #236, #199, .T. ) ;
#326 = CYLINDRICAL_SURFACE ( 'NONE', #62, 0.1562499999999999445 ) ;
#327 = PRESENTATION_STYLE_ASSIGNMENT (( #12 ) ) ;
#328 = DIMENSIONAL_EXPONENTS ( 1.000000000000000000, 0.000000000000000000, 0.000000000000000000, 0.000000000000000000, 0.000000000000000000, 0.000000000000000000, 0.000000000000000000 ) ;
#329 = AXIS2_PLACEMENT_3D ( 'NONE', #161, #185, #330 ) ;
#330 = DIRECTION ( 'NONE',  ( 0.000000000000000000, 0.000000000000000000, -1.000000000000000000 ) ) ;
#331 = ORIENTED_EDGE ( 'NONE', *, *, #65, .F. ) ;
#332 = SURFACE_STYLE_FILL_AREA ( #115 ) ;
#333 = COLOUR_RGB ( '',1.000000000000000000, 0.000000000000000000, 0.000000000000000000 ) ;
#334 = EDGE_CURVE ( 'NONE', #295, #167, #238, .T. ) ;
#335 = ORIENTED_EDGE ( 'NONE', *, *, #365, .F. ) ;
#336 = SURFACE_STYLE_USAGE ( .BOTH. , #168 ) ;
#337 = EDGE_LOOP ( 'NONE', ( #196, #176, #252, #174 ) ) ;
#338 = SPHERICAL_SURFACE ( 'NONE', #261, 0.1562500000000000000 ) ;
#339 = SURFACE_SIDE_STYLE ('',( #206 ) ) ;
#340 = MECHANICAL_DESIGN_GEOMETRIC_PRESENTATION_REPRESENTATION (  '', ( #183 ), #109 ) ;
#341 = COLOUR_RGB ( '',1.000000000000000000, 0.000000000000000000, 0.000000000000000000 ) ;
#342 = DIRECTION ( 'NONE',  ( -0.000000000000000000, -1.000000000000000000, -0.000000000000000000 ) ) ;
#343 = DIRECTION ( 'NONE',  ( -0.000000000000000000, -1.000000000000000000, -0.000000000000000000 ) ) ;
#344 =( NAMED_UNIT ( * ) PLANE_ANGLE_UNIT ( ) SI_UNIT ( $, .RADIAN. ) );
#345 = DIRECTION ( 'NONE',  ( -0.000000000000000000, -1.000000000000000000, -0.000000000000000000 ) ) ;
#346 = VERTEX_POINT ( 'NONE', #186 ) ;
#347 = CARTESIAN_POINT ( 'NONE',  ( 0.000000000000000000, 0.7500000000000001110, 0.000000000000000000 ) ) ;
#348 = CIRCLE ( 'NONE', #49, 0.1562500000000000000 ) ;
#349 = DIMENSIONAL_EXPONENTS ( 1.000000000000000000, 0.000000000000000000, 0.000000000000000000, 0.000000000000000000, 0.000000000000000000, 0.000000000000000000, 0.000000000000000000 ) ;
#350 = VECTOR ( 'NONE', #9, 39.37007874015748143 ) ;
#351 = CARTESIAN_POINT ( 'NONE',  ( -6.123233995736766036E-17, 2.500000000000000000, 0.000000000000000000 ) ) ;
#352 = DIRECTION ( 'NONE',  ( 0.000000000000000000, 0.000000000000000000, -1.000000000000000000 ) ) ;
#353 = EDGE_CURVE ( 'NONE', #54, #83, #37, .T. ) ;
#354 = SURFACE_SIDE_STYLE ('',( #79 ) ) ;
#355 = CIRCLE ( 'NONE', #166, 0.1562499999999997780 ) ;
#356 = DIRECTION ( 'NONE',  ( 0.000000000000000000, 0.000000000000000000, -1.000000000000000000 ) ) ;
#357 = EDGE_CURVE ( 'NONE', #178, #236, #158, .T. ) ;
#358 = DIRECTION ( 'NONE',  ( 1.224646799147352961E-16, -1.000000000000000000, 0.000000000000000000 ) ) ;
#359 =( CONVERSION_BASED_UNIT ( 'INCH', #75 ) LENGTH_UNIT ( ) NAMED_UNIT ( #5 ) );
#360 = ORIENTED_EDGE ( 'NONE', *, *, #365, .T. ) ;
#361 =( NAMED_UNIT ( * ) SI_UNIT ( $, .STERADIAN. ) SOLID_ANGLE_UNIT ( ) );
#362 = CIRCLE ( 'NONE', #248, 0.1562499999999999167 ) ;
#363 = DIRECTION ( 'NONE',  ( -1.000000000000000000, 0.000000000000000000, 0.000000000000000000 ) ) ;
#364 = PRODUCT_DEFINITION_SHAPE ( 'NONE', 'NONE',  #281 ) ;
#365 = EDGE_CURVE ( 'NONE', #346, #52, #78, .T. ) ;
#366 = VECTOR ( 'NONE', #342, 39.37007874015748143 ) ;
#367 = ORIENTED_EDGE ( 'NONE', *, *, #65, .T. ) ;
#368 = PRESENTATION_STYLE_ASSIGNMENT (( #171 ) ) ;
#369 = ORIENTED_EDGE ( 'NONE', *, *, #48, .T. ) ;
#370 = CARTESIAN_POINT ( 'NONE',  ( 0.000000000000000000, 0.1562500000000000278, 0.000000000000000000 ) ) ;
#371 =( NAMED_UNIT ( * ) PLANE_ANGLE_UNIT ( ) SI_UNIT ( $, .RADIAN. ) );
#372 = AXIS2_PLACEMENT_3D ( 'NONE', #189, #358, #294 ) ;
#373 = CARTESIAN_POINT ( 'NONE',  ( 1.913510623667738539E-17, 0.000000000000000000, 0.1562499999999999445 ) ) ;
ENDSEC;
END-ISO-10303-21;
