ISO-10303-21;
HEADER;
FILE_DESCRIPTION (( 'STEP AP214' ),
    '1' );
FILE_NAME ('Micro_BMSM-019-4.STEP',
    '2021-09-03T15:58:49',
    ( '' ),
    ( '' ),
    'SwSTEP 2.0',
    'SolidWorks 2020',
    '' );
FILE_SCHEMA (( 'AUTOMOTIVE_DESIGN' ));
ENDSEC;

DATA;
#1 = CARTESIAN_POINT ( 'NONE',  ( 0.0000000000000000000, 0.0000000000000000000, 1.481062999999999574 ) ) ;
#2 = DIRECTION ( 'NONE',  ( 1.000000000000000000, 0.0000000000000000000, 0.0000000000000000000 ) ) ;
#3 = PRESENTATION_STYLE_ASSIGNMENT (( #228 ) ) ;
#4 = LINE ( 'NONE', #306, #121 ) ;
#5 = AXIS2_PLACEMENT_3D ( 'NONE', #242, #41, #99 ) ;
#6 = SURFACE_STYLE_FILL_AREA ( #136 ) ;
#7 = VERTEX_POINT ( 'NONE', #161 ) ;
#8 = EDGE_CURVE ( 'NONE', #205, #62, #19, .T. ) ;
#9 = DIRECTION ( 'NONE',  ( 1.000000000000000000, 0.0000000000000000000, 0.0000000000000000000 ) ) ;
#10 = DIRECTION ( 'NONE',  ( 0.0000000000000000000, 1.000000000000000000, 0.0000000000000000000 ) ) ;
#11 = AXIS2_PLACEMENT_3D ( 'NONE', #260, #262, #216 ) ;
#12 = LENGTH_MEASURE_WITH_UNIT ( LENGTH_MEASURE( 0.02539999999999999897 ), #89 );
#13 = DIRECTION ( 'NONE',  ( -1.224646799147353207E-16, -0.0000000000000000000, -1.000000000000000000 ) ) ;
#14 = DIRECTION ( 'NONE',  ( 1.224646799147353207E-16, 1.000000000000000000, -0.0000000000000000000 ) ) ;
#15 = CIRCLE ( 'NONE', #11, 0.03736409850000000504 ) ;
#16 = EDGE_CURVE ( 'NONE', #62, #108, #45, .T. ) ;
#17 = ORIENTED_EDGE ( 'NONE', *, *, #240, .T. ) ;
#18 = EDGE_CURVE ( 'NONE', #50, #150, #236, .T. ) ;
#19 = CIRCLE ( 'NONE', #144, 0.05905500000000000332 ) ;
#20 = PRODUCT_DEFINITION_CONTEXT ( 'detailed design', #59, 'design' ) ;
#21 = AXIS2_PLACEMENT_3D ( 'NONE', #154, #140, #204 ) ;
#22 =( GEOMETRIC_REPRESENTATION_CONTEXT ( 3 ) GLOBAL_UNCERTAINTY_ASSIGNED_CONTEXT ( ( #226 ) ) GLOBAL_UNIT_ASSIGNED_CONTEXT ( ( #128, #280, #163 ) ) REPRESENTATION_CONTEXT ( 'NONE', 'WORKASPACE' ) );
#23 = ORIENTED_EDGE ( 'NONE', *, *, #239, .F. ) ;
#24 = EDGE_LOOP ( 'NONE', ( #177, #229, #132 ) ) ;
#25 = DIRECTION ( 'NONE',  ( -1.000000000000000000, 0.0000000000000000000, 1.224646799147353207E-16 ) ) ;
#26 = VERTEX_POINT ( 'NONE', #152 ) ;
#27 = COLOUR_RGB ( '',0.7921568627450980005, 0.8196078431372548767, 0.9333333333333333481 ) ;
#28 = CARTESIAN_POINT ( 'NONE',  ( 0.0000000000000000000, 0.0000000000000000000, 1.496062999999999921 ) ) ;
#29 = SURFACE_SIDE_STYLE ('',( #258 ) ) ;
#30 = CARTESIAN_POINT ( 'NONE',  ( 0.0000000000000000000, 0.0000000000000000000, 1.496062999999999921 ) ) ;
#31 = LENGTH_MEASURE_WITH_UNIT ( LENGTH_MEASURE( 0.02539999999999999897 ), #259 );
#32 = ADVANCED_FACE ( 'NONE', ( #158 ), #282, .T. ) ;
#33 = AXIS2_PLACEMENT_3D ( 'NONE', #314, #190, #287 ) ;
#34 =( LENGTH_UNIT ( ) NAMED_UNIT ( * ) SI_UNIT ( $, .METRE. ) );
#35 = LENGTH_MEASURE_WITH_UNIT ( LENGTH_MEASURE( 0.02539999999999999897 ), #34 );
#36 = DIMENSIONAL_EXPONENTS ( 1.000000000000000000, 0.0000000000000000000, 0.0000000000000000000, 0.0000000000000000000, 0.0000000000000000000, 0.0000000000000000000, 0.0000000000000000000 ) ;
#37 = DIRECTION ( 'NONE',  ( -1.000000000000000000, 0.0000000000000000000, 0.0000000000000000000 ) ) ;
#38 = EDGE_CURVE ( 'NONE', #150, #108, #206, .T. ) ;
#39 = AXIS2_PLACEMENT_3D ( 'NONE', #192, #290, #72 ) ;
#40 = AXIS2_PLACEMENT_3D ( 'NONE', #80, #179, #273 ) ;
#41 = DIRECTION ( 'NONE',  ( -1.224646799147353207E-16, -0.0000000000000000000, -1.000000000000000000 ) ) ;
#42 =( NAMED_UNIT ( * ) PLANE_ANGLE_UNIT ( ) SI_UNIT ( $, .RADIAN. ) );
#43 = CARTESIAN_POINT ( 'NONE',  ( 0.05905500000000000332, 7.232151672364695422E-18, 1.481062999999999574 ) ) ;
#44 = STYLED_ITEM ( 'NONE', ( #3 ), #71 ) ;
#45 = LINE ( 'NONE', #157, #292 ) ;
#46 = EDGE_LOOP ( 'NONE', ( #305, #247, #221, #223 ) ) ;
#47 = DIRECTION ( 'NONE',  ( 0.0000000000000000000, 0.0000000000000000000, -1.000000000000000000 ) ) ;
#48 = ORIENTED_EDGE ( 'NONE', *, *, #16, .T. ) ;
#49 = ORIENTED_EDGE ( 'NONE', *, *, #91, .T. ) ;
#50 = VERTEX_POINT ( 'NONE', #185 ) ;
#51 = CARTESIAN_POINT ( 'NONE',  ( 0.03736409850000000504, 4.575782363105143009E-18, 0.03736409849999999117 ) ) ;
#52 = EDGE_LOOP ( 'NONE', ( #274, #211, #83, #256 ) ) ;
#53 = CARTESIAN_POINT ( 'NONE',  ( 0.0000000000000000000, 0.0000000000000000000, 1.496062999999999921 ) ) ;
#54 = VERTEX_POINT ( 'NONE', #111 ) ;
#55 = CARTESIAN_POINT ( 'NONE',  ( -0.05905500000000000332, 0.0000000000000000000, 1.481062999999999574 ) ) ;
#56 = CIRCLE ( 'NONE', #317, 0.03736409850000000504 ) ;
#57 = EDGE_CURVE ( 'NONE', #293, #205, #283, .T. ) ;
#58 = PRESENTATION_STYLE_ASSIGNMENT (( #212 ) ) ;
#59 = APPLICATION_CONTEXT ( 'automotive_design' ) ;
#60 = ADVANCED_FACE ( 'NONE', ( #61 ), #300, .T. ) ;
#61 = FACE_OUTER_BOUND ( 'NONE', #69, .T. ) ;
#62 = VERTEX_POINT ( 'NONE', #55 ) ;
#63 = DIRECTION ( 'NONE',  ( 0.0000000000000000000, 0.0000000000000000000, 1.000000000000000000 ) ) ;
#64 = CONICAL_SURFACE ( 'NONE', #160, 0.04405499999999973326, 0.7853981633974491672 ) ;
#65 = DIRECTION ( 'NONE',  ( 0.0000000000000000000, 0.0000000000000000000, -1.000000000000000000 ) ) ;
#66 =( NAMED_UNIT ( * ) SI_UNIT ( $, .STERADIAN. ) SOLID_ANGLE_UNIT ( ) );
#67 = CARTESIAN_POINT ( 'NONE',  ( -0.03736409849999999117, 5.903967017734918445E-18, 0.1102360000000000007 ) ) ;
#68 = FACE_OUTER_BOUND ( 'NONE', #272, .T. ) ;
#69 = EDGE_LOOP ( 'NONE', ( #104, #149, #297, #176 ) ) ;
#70 = CONICAL_SURFACE ( 'NONE', #105, 0.04405499999999973326, 0.7853981633974491672 ) ;
#71 = MANIFOLD_SOLID_BREP ( 'Fillet1', #301 ) ;
#72 = DIRECTION ( 'NONE',  ( 1.000000000000000000, 0.0000000000000000000, 0.0000000000000000000 ) ) ;
#73 = UNCERTAINTY_MEASURE_WITH_UNIT (LENGTH_MEASURE( 1.000000000000000082E-05 ), #307, 'distance_accuracy_value', 'NONE');
#74 = DIRECTION ( 'NONE',  ( 1.000000000000000000, 0.0000000000000000000, 0.0000000000000000000 ) ) ;
#75 = APPLICATION_PROTOCOL_DEFINITION ( 'draft international standard', 'automotive_design', 1998, #289 ) ;
#76 = VECTOR ( 'NONE', #217, 39.37007874015748143 ) ;
#77 = ORIENTED_EDGE ( 'NONE', *, *, #96, .T. ) ;
#78 = DIRECTION ( 'NONE',  ( -1.000000000000000000, 0.0000000000000000000, 0.0000000000000000000 ) ) ;
#79 = ORIENTED_EDGE ( 'NONE', *, *, #321, .T. ) ;
#80 = CARTESIAN_POINT ( 'NONE',  ( 0.0000000000000000000, 0.0000000000000000000, 1.496062999999999921 ) ) ;
#81 = ORIENTED_EDGE ( 'NONE', *, *, #18, .T. ) ;
#82 = CONICAL_SURFACE ( 'NONE', #145, 0.03736409850000000504, 0.1745329251994338915 ) ;
#83 = ORIENTED_EDGE ( 'NONE', *, *, #146, .T. ) ;
#84 = EDGE_CURVE ( 'NONE', #54, #269, #15, .T. ) ;
#85 = DIRECTION ( 'NONE',  ( -1.000000000000000000, 0.0000000000000000000, 0.0000000000000000000 ) ) ;
#86 = DIMENSIONAL_EXPONENTS ( 1.000000000000000000, 0.0000000000000000000, 0.0000000000000000000, 0.0000000000000000000, 0.0000000000000000000, 0.0000000000000000000, 0.0000000000000000000 ) ;
#87 = DIRECTION ( 'NONE',  ( 0.0000000000000000000, 0.0000000000000000000, 1.000000000000000000 ) ) ;
#88 = DIRECTION ( 'NONE',  ( -0.0000000000000000000, -0.0000000000000000000, -1.000000000000000000 ) ) ;
#89 =( LENGTH_UNIT ( ) NAMED_UNIT ( * ) SI_UNIT ( $, .METRE. ) );
#90 = ORIENTED_EDGE ( 'NONE', *, *, #239, .T. ) ;
#91 = EDGE_CURVE ( 'NONE', #150, #54, #243, .T. ) ;
#92 = DIRECTION ( 'NONE',  ( 1.000000000000000000, 0.0000000000000000000, 0.0000000000000000000 ) ) ;
#93 = CARTESIAN_POINT ( 'NONE',  ( 0.04405499999999973326, 5.395181473643630390E-18, 1.496062999999999921 ) ) ;
#94 = DIRECTION ( 'NONE',  ( -0.0000000000000000000, -0.0000000000000000000, -1.000000000000000000 ) ) ;
#95 =( GEOMETRIC_REPRESENTATION_CONTEXT ( 3 ) GLOBAL_UNCERTAINTY_ASSIGNED_CONTEXT ( ( #198 ) ) GLOBAL_UNIT_ASSIGNED_CONTEXT ( ( #238, #42, #66 ) ) REPRESENTATION_CONTEXT ( 'NONE', 'WORKASPACE' ) );
#96 = EDGE_CURVE ( 'NONE', #150, #50, #56, .T. ) ;
#97 = DIRECTION ( 'NONE',  ( 0.0000000000000000000, 0.0000000000000000000, -1.000000000000000000 ) ) ;
#98 = DIRECTION ( 'NONE',  ( -1.224646799147353207E-16, -0.0000000000000000000, -1.000000000000000000 ) ) ;
#99 = DIRECTION ( 'NONE',  ( 1.000000000000000000, 0.0000000000000000000, 0.0000000000000000000 ) ) ;
#100 = AXIS2_PLACEMENT_3D ( 'NONE', #30, #299, #85 ) ;
#101 = AXIS2_PLACEMENT_3D ( 'NONE', #237, #10, #115 ) ;
#102 = DIRECTION ( 'NONE',  ( 0.0000000000000000000, 0.0000000000000000000, -1.000000000000000000 ) ) ;
#103 = DIRECTION ( 'NONE',  ( 0.0000000000000000000, 0.0000000000000000000, 1.000000000000000000 ) ) ;
#104 = ORIENTED_EDGE ( 'NONE', *, *, #124, .T. ) ;
#105 = AXIS2_PLACEMENT_3D ( 'NONE', #53, #47, #78 ) ;
#106 = ORIENTED_EDGE ( 'NONE', *, *, #186, .T. ) ;
#107 = ORIENTED_EDGE ( 'NONE', *, *, #146, .F. ) ;
#108 = VERTEX_POINT ( 'NONE', #165 ) ;
#109 = ADVANCED_FACE ( 'NONE', ( #191 ), #64, .T. ) ;
#110 = EDGE_CURVE ( 'NONE', #26, #269, #126, .T. ) ;
#111 = CARTESIAN_POINT ( 'NONE',  ( -0.03736409849999999810, 0.0000000000000000000, 0.03736409850000000504 ) ) ;
#112 = DIRECTION ( 'NONE',  ( 1.000000000000000000, 0.0000000000000000000, 0.0000000000000000000 ) ) ;
#113 = SURFACE_SIDE_STYLE ('',( #6 ) ) ;
#114 =( GEOMETRIC_REPRESENTATION_CONTEXT ( 3 ) GLOBAL_UNCERTAINTY_ASSIGNED_CONTEXT ( ( #73 ) ) GLOBAL_UNIT_ASSIGNED_CONTEXT ( ( #307, #130, #303 ) ) REPRESENTATION_CONTEXT ( 'NONE', 'WORKASPACE' ) );
#115 = DIRECTION ( 'NONE',  ( 1.000000000000000000, 0.0000000000000000000, 0.0000000000000000000 ) ) ;
#116 = CYLINDRICAL_SURFACE ( 'NONE', #298, 0.03736409850000000504 ) ;
#117 = CARTESIAN_POINT ( 'NONE',  ( -0.03736409850000000504, 0.0000000000000000000, 4.575782363105143009E-18 ) ) ;
#118 = PRODUCT_DEFINITION ( 'UNKNOWN', '', #225, #20 ) ;
#119 = STYLED_ITEM ( 'NONE', ( #58 ), #241 ) ;
#120 = ORIENTED_EDGE ( 'NONE', *, *, #57, .T. ) ;
#121 = VECTOR ( 'NONE', #94, 39.37007874015748143 ) ;
#122 = CONICAL_SURFACE ( 'NONE', #219, 0.03736409850000000504, 0.1745329251994338915 ) ;
#123 = EDGE_LOOP ( 'NONE', ( #77, #90, #17, #224 ) ) ;
#124 = EDGE_CURVE ( 'NONE', #62, #205, #141, .T. ) ;
#125 = ORIENTED_EDGE ( 'NONE', *, *, #18, .F. ) ;
#126 = CIRCLE ( 'NONE', #174, 0.03736409849999999810 ) ;
#127 = ORIENTED_EDGE ( 'NONE', *, *, #38, .F. ) ;
#128 =( CONVERSION_BASED_UNIT ( 'INCH', #35 ) LENGTH_UNIT ( ) NAMED_UNIT ( #36 ) );
#129 = DIRECTION ( 'NONE',  ( -0.1736481776669311916, 2.126576849575783316E-17, 0.9848077530122080203 ) ) ;
#130 =( NAMED_UNIT ( * ) PLANE_ANGLE_UNIT ( ) SI_UNIT ( $, .RADIAN. ) );
#131 = CARTESIAN_POINT ( 'NONE',  ( -0.03736409849999999117, 4.575782363105143009E-18, 0.1102360000000000007 ) ) ;
#132 = ORIENTED_EDGE ( 'NONE', *, *, #84, .F. ) ;
#133 = FILL_AREA_STYLE_COLOUR ( '', #134 ) ;
#134 = COLOUR_RGB ( '',0.7921568627450980005, 0.8196078431372548767, 0.9333333333333333481 ) ;
#135 = CIRCLE ( 'NONE', #5, 0.05905500000000000332 ) ;
#136 = FILL_AREA_STYLE ('',( #138 ) ) ;
#137 = ADVANCED_FACE ( 'NONE', ( #286 ), #315, .T. ) ;
#138 = FILL_AREA_STYLE_COLOUR ( '', #27 ) ;
#139 = FACE_OUTER_BOUND ( 'NONE', #24, .T. ) ;
#140 = DIRECTION ( 'NONE',  ( -1.224646799147353207E-16, -0.0000000000000000000, -1.000000000000000000 ) ) ;
#141 = CIRCLE ( 'NONE', #309, 0.05905500000000000332 ) ;
#142 = FACE_OUTER_BOUND ( 'NONE', #322, .T. ) ;
#143 = DIRECTION ( 'NONE',  ( 1.224646799147353207E-16, 0.0000000000000000000, 1.000000000000000000 ) ) ;
#144 = AXIS2_PLACEMENT_3D ( 'NONE', #1, #277, #74 ) ;
#145 = AXIS2_PLACEMENT_3D ( 'NONE', #169, #265, #112 ) ;
#146 = EDGE_CURVE ( 'NONE', #7, #62, #213, .T. ) ;
#147 = ORIENTED_EDGE ( 'NONE', *, *, #186, .F. ) ;
#148 = PRODUCT ( 'Micro_BMSM-019-4', 'Micro_BMSM-019-4', '', ( #201 ) ) ;
#149 = ORIENTED_EDGE ( 'NONE', *, *, #167, .T. ) ;
#150 = VERTEX_POINT ( 'NONE', #67 ) ;
#151 = PRESENTATION_LAYER_ASSIGNMENT (  '', '', ( #44 ) ) ;
#152 = CARTESIAN_POINT ( 'NONE',  ( 6.863673544657712203E-18, 0.0000000000000000000, 0.0000000000000000000 ) ) ;
#153 = ADVANCED_FACE ( 'NONE', ( #252 ), #70, .T. ) ;
#154 = CARTESIAN_POINT ( 'NONE',  ( 1.350001645508076191E-17, 0.0000000000000000000, 0.1102360000000000007 ) ) ;
#155 = ORIENTED_EDGE ( 'NONE', *, *, #167, .F. ) ;
#156 = CARTESIAN_POINT ( 'NONE',  ( 0.0000000000000000000, 0.0000000000000000000, 0.0000000000000000000 ) ) ;
#157 = CARTESIAN_POINT ( 'NONE',  ( -0.05905500000000000332, 0.0000000000000000000, 1.496062999999999921 ) ) ;
#158 = FACE_OUTER_BOUND ( 'NONE', #202, .T. ) ;
#159 = LINE ( 'NONE', #231, #261 ) ;
#160 = AXIS2_PLACEMENT_3D ( 'NONE', #234, #65, #311 ) ;
#161 = CARTESIAN_POINT ( 'NONE',  ( -0.04405499999999973326, 0.0000000000000000000, 1.496062999999999921 ) ) ;
#162 = PRESENTATION_LAYER_ASSIGNMENT (  '', '', ( #119 ) ) ;
#163 =( NAMED_UNIT ( * ) SI_UNIT ( $, .STERADIAN. ) SOLID_ANGLE_UNIT ( ) );
#164 = DIRECTION ( 'NONE',  ( -0.7071067811865482389, 0.0000000000000000000, -0.7071067811865469066 ) ) ;
#165 = CARTESIAN_POINT ( 'NONE',  ( -0.05905499999999998251, 0.0000000000000000000, 0.2332512153280678346 ) ) ;
#166 = LINE ( 'NONE', #215, #76 ) ;
#167 = EDGE_CURVE ( 'NONE', #205, #170, #4, .T. ) ;
#168 = DIRECTION ( 'NONE',  ( 0.0000000000000000000, -1.000000000000000000, 0.0000000000000000000 ) ) ;
#169 = CARTESIAN_POINT ( 'NONE',  ( 1.350001645508076191E-17, 0.0000000000000000000, 0.1102360000000000007 ) ) ;
#170 = VERTEX_POINT ( 'NONE', #316 ) ;
#171 = FACE_OUTER_BOUND ( 'NONE', #320, .T. ) ;
#172 = PRODUCT_RELATED_PRODUCT_CATEGORY ( 'part', '', ( #148 ) ) ;
#173 = ORIENTED_EDGE ( 'NONE', *, *, #84, .T. ) ;
#174 = AXIS2_PLACEMENT_3D ( 'NONE', #318, #168, #97 ) ;
#175 = ADVANCED_FACE ( 'NONE', ( #142 ), #116, .T. ) ;
#176 = ORIENTED_EDGE ( 'NONE', *, *, #16, .F. ) ;
#177 = ORIENTED_EDGE ( 'NONE', *, *, #194, .F. ) ;
#178 = EDGE_LOOP ( 'NONE', ( #324, #249, #210 ) ) ;
#179 = DIRECTION ( 'NONE',  ( 0.0000000000000000000, 0.0000000000000000000, 1.000000000000000000 ) ) ;
#180 = CIRCLE ( 'NONE', #245, 0.03736409849999999810 ) ;
#181 = DIRECTION ( 'NONE',  ( 0.7071067811865482389, 8.659560562354941486E-17, -0.7071067811865469066 ) ) ;
#182 = DIMENSIONAL_EXPONENTS ( 1.000000000000000000, 0.0000000000000000000, 0.0000000000000000000, 0.0000000000000000000, 0.0000000000000000000, 0.0000000000000000000, 0.0000000000000000000 ) ;
#183 = DIRECTION ( 'NONE',  ( -0.0000000000000000000, -0.0000000000000000000, -1.000000000000000000 ) ) ;
#184 = MECHANICAL_DESIGN_GEOMETRIC_PRESENTATION_REPRESENTATION (  '', ( #119 ), #114 ) ;
#185 = CARTESIAN_POINT ( 'NONE',  ( 0.03736409850000001198, 0.0000000000000000000, 0.1102360000000000007 ) ) ;
#186 = EDGE_CURVE ( 'NONE', #170, #108, #135, .T. ) ;
#187 = VECTOR ( 'NONE', #129, 39.37007874015747433 ) ;
#188 = CARTESIAN_POINT ( 'NONE',  ( 0.0000000000000000000, 0.0000000000000000000, 1.496062999999999921 ) ) ;
#189 = CARTESIAN_POINT ( 'NONE',  ( 0.0000000000000000000, 0.0000000000000000000, 1.481062999999999574 ) ) ;
#190 = DIRECTION ( 'NONE',  ( 1.224646799147353207E-16, 0.0000000000000000000, 1.000000000000000000 ) ) ;
#191 = FACE_OUTER_BOUND ( 'NONE', #248, .T. ) ;
#192 = CARTESIAN_POINT ( 'NONE',  ( 4.575782363105141468E-18, 0.0000000000000000000, 0.03736409849999999810 ) ) ;
#193 = DIRECTION ( 'NONE',  ( 1.000000000000000000, 0.0000000000000000000, -0.0000000000000000000 ) ) ;
#194 = EDGE_CURVE ( 'NONE', #26, #54, #180, .T. ) ;
#195 = ORIENTED_EDGE ( 'NONE', *, *, #295, .T. ) ;
#196 = VECTOR ( 'NONE', #181, 39.37007874015748143 ) ;
#197 = CIRCLE ( 'NONE', #288, 0.05905500000000000332 ) ;
#198 = UNCERTAINTY_MEASURE_WITH_UNIT (LENGTH_MEASURE( 1.000000000000000082E-05 ), #238, 'distance_accuracy_value', 'NONE');
#199 = PRODUCT_DEFINITION_SHAPE ( 'NONE', 'NONE',  #118 ) ;
#200 = ADVANCED_FACE ( 'NONE', ( #171 ), #319, .T. ) ;
#201 = PRODUCT_CONTEXT ( 'NONE', #289, 'mechanical' ) ;
#202 = EDGE_LOOP ( 'NONE', ( #155, #281, #48, #147 ) ) ;
#203 = CIRCLE ( 'NONE', #40, 0.04405499999999973326 ) ;
#204 = DIRECTION ( 'NONE',  ( -1.000000000000000000, 0.0000000000000000000, 0.0000000000000000000 ) ) ;
#205 = VERTEX_POINT ( 'NONE', #43 ) ;
#206 = LINE ( 'NONE', #131, #187 ) ;
#207 = ADVANCED_FACE ( 'NONE', ( #312 ), #122, .T. ) ;
#208 = FACE_OUTER_BOUND ( 'NONE', #123, .T. ) ;
#209 = AXIS2_PLACEMENT_3D ( 'NONE', #230, #88, #278 ) ;
#210 = ORIENTED_EDGE ( 'NONE', *, *, #240, .F. ) ;
#211 = ORIENTED_EDGE ( 'NONE', *, *, #263, .F. ) ;
#212 = SURFACE_STYLE_USAGE ( .BOTH. , #113 ) ;
#213 = LINE ( 'NONE', #308, #222 ) ;
#214 = AXIS2_PLACEMENT_3D ( 'NONE', #284, #63, #9 ) ;
#215 = CARTESIAN_POINT ( 'NONE',  ( 0.03736409850000000504, 4.575782363105143009E-18, -4.575782363105143009E-18 ) ) ;
#216 = DIRECTION ( 'NONE',  ( -1.000000000000000000, 0.0000000000000000000, 1.142410137394432400E-16 ) ) ;
#217 = DIRECTION ( 'NONE',  ( -1.224646799147353207E-16, -0.0000000000000000000, -1.000000000000000000 ) ) ;
#218 = DIRECTION ( 'NONE',  ( -1.224646799147353207E-16, -0.0000000000000000000, -1.000000000000000000 ) ) ;
#219 = AXIS2_PLACEMENT_3D ( 'NONE', #291, #143, #246 ) ;
#220 = DIRECTION ( 'NONE',  ( -1.000000000000000000, 1.224646799147353207E-16, 0.0000000000000000000 ) ) ;
#221 = ORIENTED_EDGE ( 'NONE', *, *, #254, .T. ) ;
#222 = VECTOR ( 'NONE', #164, 39.37007874015748143 ) ;
#223 = ORIENTED_EDGE ( 'NONE', *, *, #295, .F. ) ;
#224 = ORIENTED_EDGE ( 'NONE', *, *, #91, .F. ) ;
#225 = PRODUCT_DEFINITION_FORMATION_WITH_SPECIFIED_SOURCE ( 'ANY', '', #148, .NOT_KNOWN. ) ;
#226 = UNCERTAINTY_MEASURE_WITH_UNIT (LENGTH_MEASURE( 1.000000000000000082E-05 ), #128, 'distance_accuracy_value', 'NONE');
#227 = ADVANCED_FACE ( 'NONE', ( #139 ), #235, .T. ) ;
#228 = SURFACE_STYLE_USAGE ( .BOTH. , #29 ) ;
#229 = ORIENTED_EDGE ( 'NONE', *, *, #110, .T. ) ;
#230 = CARTESIAN_POINT ( 'NONE',  ( 0.0000000000000000000, 0.0000000000000000000, 1.496062999999999921 ) ) ;
#231 = CARTESIAN_POINT ( 'NONE',  ( 0.03736409850000001198, 0.0000000000000000000, 0.1102360000000000007 ) ) ;
#232 = FILL_AREA_STYLE ('',( #133 ) ) ;
#233 = DIRECTION ( 'NONE',  ( 0.1736481776669313859, 0.0000000000000000000, 0.9848077530122077983 ) ) ;
#234 = CARTESIAN_POINT ( 'NONE',  ( 0.0000000000000000000, 0.0000000000000000000, 1.496062999999999921 ) ) ;
#235 = SPHERICAL_SURFACE ( 'NONE', #101, 0.03736409849999999810 ) ;
#236 = CIRCLE ( 'NONE', #21, 0.03736409850000000504 ) ;
#237 = CARTESIAN_POINT ( 'NONE',  ( 4.575782363105141468E-18, 0.0000000000000000000, 0.03736409849999999810 ) ) ;
#238 =( CONVERSION_BASED_UNIT ( 'INCH', #12 ) LENGTH_UNIT ( ) NAMED_UNIT ( #86 ) );
#239 = EDGE_CURVE ( 'NONE', #50, #269, #166, .T. ) ;
#240 = EDGE_CURVE ( 'NONE', #269, #54, #276, .T. ) ;
#241 = ADVANCED_BREP_SHAPE_REPRESENTATION ( 'Micro_BMSM-019-4', ( #71, #214 ), #22 ) ;
#242 = CARTESIAN_POINT ( 'NONE',  ( 2.856503542487483366E-17, 0.0000000000000000000, 0.2332512153280678346 ) ) ;
#243 = LINE ( 'NONE', #117, #268 ) ;
#244 = MECHANICAL_DESIGN_GEOMETRIC_PRESENTATION_REPRESENTATION (  '', ( #44 ), #95 ) ;
#245 = AXIS2_PLACEMENT_3D ( 'NONE', #267, #14, #220 ) ;
#246 = DIRECTION ( 'NONE',  ( 1.000000000000000000, 0.0000000000000000000, 0.0000000000000000000 ) ) ;
#247 = ORIENTED_EDGE ( 'NONE', *, *, #38, .T. ) ;
#248 = EDGE_LOOP ( 'NONE', ( #275, #120, #255, #107 ) ) ;
#249 = ORIENTED_EDGE ( 'NONE', *, *, #194, .T. ) ;
#250 = ADVANCED_FACE ( 'NONE', ( #68 ), #82, .T. ) ;
#251 = SHAPE_DEFINITION_REPRESENTATION ( #199, #241 ) ;
#252 = FACE_OUTER_BOUND ( 'NONE', #52, .T. ) ;
#253 = ADVANCED_FACE ( 'NONE', ( #208 ), #302, .T. ) ;
#254 = EDGE_CURVE ( 'NONE', #108, #170, #197, .T. ) ;
#255 = ORIENTED_EDGE ( 'NONE', *, *, #124, .F. ) ;
#256 = ORIENTED_EDGE ( 'NONE', *, *, #8, .F. ) ;
#257 = AXIS2_PLACEMENT_3D ( 'NONE', #28, #87, #92 ) ;
#258 = SURFACE_STYLE_FILL_AREA ( #232 ) ;
#259 =( LENGTH_UNIT ( ) NAMED_UNIT ( * ) SI_UNIT ( $, .METRE. ) );
#260 = CARTESIAN_POINT ( 'NONE',  ( 4.575782363105141468E-18, 0.0000000000000000000, 0.03736409849999999810 ) ) ;
#261 = VECTOR ( 'NONE', #233, 39.37007874015748143 ) ;
#262 = DIRECTION ( 'NONE',  ( 1.224646799147353207E-16, 0.0000000000000000000, 1.000000000000000000 ) ) ;
#263 = EDGE_CURVE ( 'NONE', #7, #293, #203, .T. ) ;
#264 = DIRECTION ( 'NONE',  ( -1.000000000000000000, 0.0000000000000000000, 1.224646799147353207E-16 ) ) ;
#265 = DIRECTION ( 'NONE',  ( 1.224646799147353207E-16, 0.0000000000000000000, 1.000000000000000000 ) ) ;
#266 = CARTESIAN_POINT ( 'NONE',  ( 0.0000000000000000000, 0.0000000000000000000, 0.0000000000000000000 ) ) ;
#267 = CARTESIAN_POINT ( 'NONE',  ( 4.575782363105141468E-18, 0.0000000000000000000, 0.03736409849999999810 ) ) ;
#268 = VECTOR ( 'NONE', #13, 39.37007874015748143 ) ;
#269 = VERTEX_POINT ( 'NONE', #51 ) ;
#270 = AXIS2_PLACEMENT_3D ( 'NONE', #188, #103, #193 ) ;
#271 = APPLICATION_PROTOCOL_DEFINITION ( 'draft international standard', 'automotive_design', 1998, #59 ) ;
#272 = EDGE_LOOP ( 'NONE', ( #127, #125, #195, #106 ) ) ;
#273 = DIRECTION ( 'NONE',  ( 1.000000000000000000, 0.0000000000000000000, 0.0000000000000000000 ) ) ;
#274 = ORIENTED_EDGE ( 'NONE', *, *, #57, .F. ) ;
#275 = ORIENTED_EDGE ( 'NONE', *, *, #321, .F. ) ;
#276 = CIRCLE ( 'NONE', #33, 0.03736409850000000504 ) ;
#277 = DIRECTION ( 'NONE',  ( 0.0000000000000000000, 0.0000000000000000000, -1.000000000000000000 ) ) ;
#278 = DIRECTION ( 'NONE',  ( -1.000000000000000000, 0.0000000000000000000, 0.0000000000000000000 ) ) ;
#279 = AXIS2_PLACEMENT_3D ( 'NONE', #156, #296, #25 ) ;
#280 =( NAMED_UNIT ( * ) PLANE_ANGLE_UNIT ( ) SI_UNIT ( $, .RADIAN. ) );
#281 = ORIENTED_EDGE ( 'NONE', *, *, #8, .T. ) ;
#282 = CYLINDRICAL_SURFACE ( 'NONE', #100, 0.05905500000000000332 ) ;
#283 = LINE ( 'NONE', #93, #196 ) ;
#284 = CARTESIAN_POINT ( 'NONE',  ( 0.0000000000000000000, 0.0000000000000000000, 0.0000000000000000000 ) ) ;
#285 = DIRECTION ( 'NONE',  ( 1.000000000000000000, 0.0000000000000000000, 0.0000000000000000000 ) ) ;
#286 = FACE_OUTER_BOUND ( 'NONE', #178, .T. ) ;
#287 = DIRECTION ( 'NONE',  ( -1.000000000000000000, 0.0000000000000000000, 1.142410137394432400E-16 ) ) ;
#288 = AXIS2_PLACEMENT_3D ( 'NONE', #294, #325, #2 ) ;
#289 = APPLICATION_CONTEXT ( 'automotive_design' ) ;
#290 = DIRECTION ( 'NONE',  ( 0.0000000000000000000, 1.000000000000000000, 0.0000000000000000000 ) ) ;
#291 = CARTESIAN_POINT ( 'NONE',  ( 1.350001645508076191E-17, 0.0000000000000000000, 0.1102360000000000007 ) ) ;
#292 = VECTOR ( 'NONE', #183, 39.37007874015748143 ) ;
#293 = VERTEX_POINT ( 'NONE', #304 ) ;
#294 = CARTESIAN_POINT ( 'NONE',  ( 2.856503542487483366E-17, 0.0000000000000000000, 0.2332512153280678346 ) ) ;
#295 = EDGE_CURVE ( 'NONE', #50, #170, #159, .T. ) ;
#296 = DIRECTION ( 'NONE',  ( -1.224646799147353207E-16, -0.0000000000000000000, -1.000000000000000000 ) ) ;
#297 = ORIENTED_EDGE ( 'NONE', *, *, #254, .F. ) ;
#298 = AXIS2_PLACEMENT_3D ( 'NONE', #266, #98, #264 ) ;
#299 = DIRECTION ( 'NONE',  ( -0.0000000000000000000, -0.0000000000000000000, -1.000000000000000000 ) ) ;
#300 = CYLINDRICAL_SURFACE ( 'NONE', #209, 0.05905500000000000332 ) ;
#301 = CLOSED_SHELL ( 'NONE', ( #137, #253, #207, #109, #60, #32, #200, #153, #250, #175, #227 ) ) ;
#302 = CYLINDRICAL_SURFACE ( 'NONE', #279, 0.03736409850000000504 ) ;
#303 =( NAMED_UNIT ( * ) SI_UNIT ( $, .STERADIAN. ) SOLID_ANGLE_UNIT ( ) );
#304 = CARTESIAN_POINT ( 'NONE',  ( 0.04405499999999973326, 6.313666573004162521E-18, 1.496062999999999921 ) ) ;
#305 = ORIENTED_EDGE ( 'NONE', *, *, #96, .F. ) ;
#306 = CARTESIAN_POINT ( 'NONE',  ( 0.05905500000000000332, 7.232151672364695422E-18, 1.496062999999999921 ) ) ;
#307 =( CONVERSION_BASED_UNIT ( 'INCH', #31 ) LENGTH_UNIT ( ) NAMED_UNIT ( #182 ) );
#308 = CARTESIAN_POINT ( 'NONE',  ( -0.04405499999999973326, 0.0000000000000000000, 1.496062999999999921 ) ) ;
#309 = AXIS2_PLACEMENT_3D ( 'NONE', #189, #102, #285 ) ;
#310 = CIRCLE ( 'NONE', #257, 0.04405499999999973326 ) ;
#311 = DIRECTION ( 'NONE',  ( -1.000000000000000000, 0.0000000000000000000, 0.0000000000000000000 ) ) ;
#312 = FACE_OUTER_BOUND ( 'NONE', #46, .T. ) ;
#313 = CARTESIAN_POINT ( 'NONE',  ( 1.350001645508076191E-17, 0.0000000000000000000, 0.1102360000000000007 ) ) ;
#314 = CARTESIAN_POINT ( 'NONE',  ( 4.575782363105141468E-18, 0.0000000000000000000, 0.03736409849999999810 ) ) ;
#315 = SPHERICAL_SURFACE ( 'NONE', #39, 0.03736409849999999810 ) ;
#316 = CARTESIAN_POINT ( 'NONE',  ( 0.05905500000000003108, 7.232151672364698504E-18, 0.2332512153280678346 ) ) ;
#317 = AXIS2_PLACEMENT_3D ( 'NONE', #313, #218, #37 ) ;
#318 = CARTESIAN_POINT ( 'NONE',  ( 4.575782363105141468E-18, 0.0000000000000000000, 0.03736409849999999810 ) ) ;
#319 = PLANE ( 'NONE',  #270 ) ;
#320 = EDGE_LOOP ( 'NONE', ( #323, #79 ) ) ;
#321 = EDGE_CURVE ( 'NONE', #293, #7, #310, .T. ) ;
#322 = EDGE_LOOP ( 'NONE', ( #23, #81, #49, #173 ) ) ;
#323 = ORIENTED_EDGE ( 'NONE', *, *, #263, .T. ) ;
#324 = ORIENTED_EDGE ( 'NONE', *, *, #110, .F. ) ;
#325 = DIRECTION ( 'NONE',  ( -1.224646799147353207E-16, -0.0000000000000000000, -1.000000000000000000 ) ) ;
ENDSEC;
END-ISO-10303-21;
