ISO-10303-21;
HEADER;
FILE_DESCRIPTION (( 'STEP AP214' ),
    '1' );
FILE_NAME ('Micro_DMM-050-4120.STEP',
    '2021-09-02T16:21:15',
    ( '' ),
    ( '' ),
    'SwSTEP 2.0',
    'SolidWorks 2020',
    '' );
FILE_SCHEMA (( 'AUTOMOTIVE_DESIGN' ));
ENDSEC;

DATA;
#1 = CARTESIAN_POINT ( 'NONE',  ( 0.1181100000000000066, 1.446430334472939084E-17, 0.5118110000000001270 ) ) ;
#2 = EDGE_CURVE ( 'NONE', #45, #43, #129, .T. ) ;
#3 = CIRCLE ( 'NONE', #231, 0.1031100000000002570 ) ;
#4 = DIRECTION ( 'NONE',  ( 1.000000000000000000, 0.0000000000000000000, -0.0000000000000000000 ) ) ;
#5 = EDGE_CURVE ( 'NONE', #228, #251, #65, .T. ) ;
#6 = FACE_OUTER_BOUND ( 'NONE', #118, .T. ) ;
#7 =( NAMED_UNIT ( * ) PLANE_ANGLE_UNIT ( ) SI_UNIT ( $, .RADIAN. ) );
#8 = SURFACE_SIDE_STYLE ('',( #106 ) ) ;
#9 = AXIS2_PLACEMENT_3D ( 'NONE', #140, #75, #91 ) ;
#10 = EDGE_CURVE ( 'NONE', #251, #203, #214, .T. ) ;
#11 = DIMENSIONAL_EXPONENTS ( 1.000000000000000000, 0.0000000000000000000, 0.0000000000000000000, 0.0000000000000000000, 0.0000000000000000000, 0.0000000000000000000, 0.0000000000000000000 ) ;
#12 = AXIS2_PLACEMENT_3D ( 'NONE', #328, #226, #50 ) ;
#13 = PRESENTATION_LAYER_ASSIGNMENT (  '', '', ( #176 ) ) ;
#14 = EDGE_CURVE ( 'NONE', #45, #114, #316, .T. ) ;
#15 = ORIENTED_EDGE ( 'NONE', *, *, #285, .F. ) ;
#16 = ORIENTED_EDGE ( 'NONE', *, *, #79, .T. ) ;
#17 = EDGE_LOOP ( 'NONE', ( #302, #291, #117, #92 ) ) ;
#18 = FACE_OUTER_BOUND ( 'NONE', #246, .T. ) ;
#19 = CARTESIAN_POINT ( 'NONE',  ( 0.0000000000000000000, 0.0000000000000000000, 2.244094000000000033 ) ) ;
#20 = ORIENTED_EDGE ( 'NONE', *, *, #40, .F. ) ;
#21 = DIRECTION ( 'NONE',  ( -0.0000000000000000000, -0.0000000000000000000, -1.000000000000000000 ) ) ;
#22 = ORIENTED_EDGE ( 'NONE', *, *, #83, .T. ) ;
#23 = DIRECTION ( 'NONE',  ( -0.0000000000000000000, -0.0000000000000000000, -1.000000000000000000 ) ) ;
#24 = DIRECTION ( 'NONE',  ( 1.000000000000000000, 0.0000000000000000000, 0.0000000000000000000 ) ) ;
#25 = VECTOR ( 'NONE', #248, 39.37007874015748143 ) ;
#26 = DIRECTION ( 'NONE',  ( -1.000000000000000000, 0.0000000000000000000, 0.0000000000000000000 ) ) ;
#27 = PRODUCT_DEFINITION_CONTEXT ( 'detailed design', #196, 'design' ) ;
#28 = CARTESIAN_POINT ( 'NONE',  ( 0.0000000000000000000, 0.0000000000000000000, 2.244094000000000033 ) ) ;
#29 = VECTOR ( 'NONE', #223, 39.37007874015748143 ) ;
#30 = FACE_BOUND ( 'NONE', #71, .T. ) ;
#31 = CARTESIAN_POINT ( 'NONE',  ( 0.09837500000000004574, 0.0000000000000000000, 0.5118110000000000159 ) ) ;
#32 = ADVANCED_FACE ( 'NONE', ( #290 ), #97, .T. ) ;
#33 = AXIS2_PLACEMENT_3D ( 'NONE', #172, #180, #225 ) ;
#34 = EDGE_CURVE ( 'NONE', #114, #203, #197, .T. ) ;
#35 = DIRECTION ( 'NONE',  ( -0.8660254037844400399, 1.060575238724908640E-16, 0.4999999999999976685 ) ) ;
#36 = PRODUCT_RELATED_PRODUCT_CATEGORY ( 'part', '', ( #139 ) ) ;
#37 = AXIS2_PLACEMENT_3D ( 'NONE', #293, #122, #69 ) ;
#38 = ORIENTED_EDGE ( 'NONE', *, *, #103, .F. ) ;
#39 = FACE_OUTER_BOUND ( 'NONE', #46, .T. ) ;
#40 = EDGE_CURVE ( 'NONE', #43, #228, #297, .T. ) ;
#41 = APPLICATION_CONTEXT ( 'automotive_design' ) ;
#42 = CARTESIAN_POINT ( 'NONE',  ( 0.0000000000000000000, 0.0000000000000000000, 2.244094000000000033 ) ) ;
#43 = VERTEX_POINT ( 'NONE', #273 ) ;
#44 = ADVANCED_FACE ( 'NONE', ( #227 ), #322, .T. ) ;
#45 = VERTEX_POINT ( 'NONE', #326 ) ;
#46 = EDGE_LOOP ( 'NONE', ( #20, #96, #265, #198 ) ) ;
#47 = CARTESIAN_POINT ( 'NONE',  ( 0.0000000000000000000, 0.0000000000000000000, 2.244094000000000033 ) ) ;
#48 = CARTESIAN_POINT ( 'NONE',  ( 0.1181100000000000066, 1.446430334472939084E-17, 2.244094000000000033 ) ) ;
#49 = DIRECTION ( 'NONE',  ( 0.0000000000000000000, 0.0000000000000000000, 1.000000000000000000 ) ) ;
#50 = DIRECTION ( 'NONE',  ( 1.000000000000000000, 0.0000000000000000000, 0.0000000000000000000 ) ) ;
#51 = DIRECTION ( 'NONE',  ( -0.0000000000000000000, -0.0000000000000000000, -1.000000000000000000 ) ) ;
#52 = CIRCLE ( 'NONE', #242, 0.09837500000000004574 ) ;
#53 = LENGTH_MEASURE_WITH_UNIT ( LENGTH_MEASURE( 0.02539999999999999897 ), #258 );
#54 = CARTESIAN_POINT ( 'NONE',  ( 0.1181100000000000066, 1.446430334472939084E-17, 2.229093999999999465 ) ) ;
#55 = FACE_OUTER_BOUND ( 'NONE', #141, .T. ) ;
#56 = AXIS2_PLACEMENT_3D ( 'NONE', #66, #116, #168 ) ;
#57 = DIRECTION ( 'NONE',  ( -1.000000000000000000, 0.0000000000000000000, 0.0000000000000000000 ) ) ;
#58 = EDGE_CURVE ( 'NONE', #224, #298, #268, .T. ) ;
#59 =( NAMED_UNIT ( * ) PLANE_ANGLE_UNIT ( ) SI_UNIT ( $, .RADIAN. ) );
#60 =( LENGTH_UNIT ( ) NAMED_UNIT ( * ) SI_UNIT ( $, .METRE. ) );
#61 = ORIENTED_EDGE ( 'NONE', *, *, #193, .F. ) ;
#62 = EDGE_CURVE ( 'NONE', #93, #298, #143, .T. ) ;
#63 = CARTESIAN_POINT ( 'NONE',  ( -0.09837500000000003186, 0.0000000000000000000, 0.0000000000000000000 ) ) ;
#64 = PRESENTATION_LAYER_ASSIGNMENT (  '', '', ( #123 ) ) ;
#65 = LINE ( 'NONE', #48, #25 ) ;
#66 = CARTESIAN_POINT ( 'NONE',  ( 0.0000000000000000000, 0.0000000000000000000, 0.0000000000000000000 ) ) ;
#67 = DIRECTION ( 'NONE',  ( 0.7071067811865358044, 8.659560562354788645E-17, -0.7071067811865590080 ) ) ;
#68 = EDGE_LOOP ( 'NONE', ( #274, #300, #135, #276 ) ) ;
#69 = DIRECTION ( 'NONE',  ( -1.000000000000000000, 0.0000000000000000000, 0.0000000000000000000 ) ) ;
#70 = CARTESIAN_POINT ( 'NONE',  ( 0.1031100000000002570, 1.262733314600838667E-17, 2.244094000000000033 ) ) ;
#71 = EDGE_LOOP ( 'NONE', ( #61, #38 ) ) ;
#72 = DIRECTION ( 'NONE',  ( -1.000000000000000000, 0.0000000000000000000, 0.0000000000000000000 ) ) ;
#73 = ORIENTED_EDGE ( 'NONE', *, *, #160, .F. ) ;
#74 = PLANE ( 'NONE',  #156 ) ;
#75 = DIRECTION ( 'NONE',  ( 0.0000000000000000000, 0.0000000000000000000, -1.000000000000000000 ) ) ;
#76 = UNCERTAINTY_MEASURE_WITH_UNIT (LENGTH_MEASURE( 1.000000000000000082E-05 ), #183, 'distance_accuracy_value', 'NONE');
#77 = CARTESIAN_POINT ( 'NONE',  ( -0.1181100000000000066, 0.0000000000000000000, 0.5118110000000001270 ) ) ;
#78 = AXIS2_PLACEMENT_3D ( 'NONE', #120, #51, #306 ) ;
#79 = EDGE_CURVE ( 'NONE', #161, #144, #102, .T. ) ;
#80 = FILL_AREA_STYLE ('',( #104 ) ) ;
#81 = DIRECTION ( 'NONE',  ( 1.000000000000000000, 0.0000000000000000000, 0.0000000000000000000 ) ) ;
#82 = DIRECTION ( 'NONE',  ( 0.0000000000000000000, 0.0000000000000000000, 1.000000000000000000 ) ) ;
#83 = EDGE_CURVE ( 'NONE', #114, #228, #204, .T. ) ;
#84 = COLOUR_RGB ( '',0.7921568627450980005, 0.8196078431372548767, 0.9333333333333333481 ) ;
#85 = FACE_OUTER_BOUND ( 'NONE', #317, .T. ) ;
#86 = SURFACE_STYLE_USAGE ( .BOTH. , #314 ) ;
#87 = CIRCLE ( 'NONE', #33, 0.1181100000000000066 ) ;
#88 = ORIENTED_EDGE ( 'NONE', *, *, #155, .T. ) ;
#89 = VECTOR ( 'NONE', #67, 39.37007874015748854 ) ;
#90 = DIRECTION ( 'NONE',  ( -1.000000000000000000, 0.0000000000000000000, 0.0000000000000000000 ) ) ;
#91 = DIRECTION ( 'NONE',  ( -1.000000000000000000, 0.0000000000000000000, 0.0000000000000000000 ) ) ;
#92 = ORIENTED_EDGE ( 'NONE', *, *, #62, .F. ) ;
#93 = VERTEX_POINT ( 'NONE', #100 ) ;
#94 = ADVANCED_FACE ( 'NONE', ( #282 ), #303, .T. ) ;
#95 = DIRECTION ( 'NONE',  ( 0.0000000000000000000, 0.0000000000000000000, -1.000000000000000000 ) ) ;
#96 = ORIENTED_EDGE ( 'NONE', *, *, #2, .F. ) ;
#97 = CONICAL_SURFACE ( 'NONE', #215, 0.1031100000000002570, 0.7853981633974318477 ) ;
#98 =( CONVERSION_BASED_UNIT ( 'INCH', #105 ) LENGTH_UNIT ( ) NAMED_UNIT ( #133 ) );
#99 = AXIS2_PLACEMENT_3D ( 'NONE', #28, #208, #57 ) ;
#100 = CARTESIAN_POINT ( 'NONE',  ( 0.09837500000000001799, 0.0000000000000000000, 0.05246670571260693416 ) ) ;
#101 = EDGE_CURVE ( 'NONE', #43, #45, #3, .T. ) ;
#102 = CIRCLE ( 'NONE', #37, 0.007499999999999999722 ) ;
#103 = EDGE_CURVE ( 'NONE', #202, #224, #52, .T. ) ;
#104 = FILL_AREA_STYLE_COLOUR ( '', #269 ) ;
#105 = LENGTH_MEASURE_WITH_UNIT ( LENGTH_MEASURE( 0.02539999999999999897 ), #60 );
#106 = SURFACE_STYLE_FILL_AREA ( #80 ) ;
#107 = ADVANCED_FACE ( 'NONE', ( #39 ), #187, .T. ) ;
#108 = MECHANICAL_DESIGN_GEOMETRIC_PRESENTATION_REPRESENTATION (  '', ( #123 ), #154 ) ;
#109 = ORIENTED_EDGE ( 'NONE', *, *, #2, .T. ) ;
#110 = CARTESIAN_POINT ( 'NONE',  ( 0.0000000000000000000, 0.0000000000000000000, 2.244094000000000033 ) ) ;
#111 = ORIENTED_EDGE ( 'NONE', *, *, #5, .F. ) ;
#112 = DIRECTION ( 'NONE',  ( 0.0000000000000000000, 0.0000000000000000000, 1.000000000000000000 ) ) ;
#113 =( GEOMETRIC_REPRESENTATION_CONTEXT ( 3 ) GLOBAL_UNCERTAINTY_ASSIGNED_CONTEXT ( ( #125 ) ) GLOBAL_UNIT_ASSIGNED_CONTEXT ( ( #98, #7, #217 ) ) REPRESENTATION_CONTEXT ( 'NONE', 'WORKASPACE' ) );
#114 = VERTEX_POINT ( 'NONE', #247 ) ;
#115 = ORIENTED_EDGE ( 'NONE', *, *, #10, .F. ) ;
#116 = DIRECTION ( 'NONE',  ( -0.0000000000000000000, -0.0000000000000000000, -1.000000000000000000 ) ) ;
#117 = ORIENTED_EDGE ( 'NONE', *, *, #58, .T. ) ;
#118 = EDGE_LOOP ( 'NONE', ( #167, #16 ) ) ;
#119 = ADVANCED_BREP_SHAPE_REPRESENTATION ( 'Micro_DMM-050-4120', ( #260, #12 ), #113 ) ;
#120 = CARTESIAN_POINT ( 'NONE',  ( 0.0000000000000000000, 0.0000000000000000000, 0.05246670571260693416 ) ) ;
#121 = DIRECTION ( 'NONE',  ( -0.7071067811865358044, 0.0000000000000000000, -0.7071067811865590080 ) ) ;
#122 = DIRECTION ( 'NONE',  ( -0.0000000000000000000, -0.0000000000000000000, -1.000000000000000000 ) ) ;
#123 = STYLED_ITEM ( 'NONE', ( #311 ), #260 ) ;
#124 = DIRECTION ( 'NONE',  ( 0.0000000000000000000, 0.0000000000000000000, 1.000000000000000000 ) ) ;
#125 = UNCERTAINTY_MEASURE_WITH_UNIT (LENGTH_MEASURE( 1.000000000000000082E-05 ), #98, 'distance_accuracy_value', 'NONE');
#126 = CYLINDRICAL_SURFACE ( 'NONE', #99, 0.1181100000000000066 ) ;
#127 =( NAMED_UNIT ( * ) SI_UNIT ( $, .STERADIAN. ) SOLID_ANGLE_UNIT ( ) );
#128 = CYLINDRICAL_SURFACE ( 'NONE', #250, 0.09837500000000003186 ) ;
#129 = CIRCLE ( 'NONE', #164, 0.1031100000000002570 ) ;
#130 = AXIS2_PLACEMENT_3D ( 'NONE', #42, #230, #189 ) ;
#131 = CARTESIAN_POINT ( 'NONE',  ( 0.007499999999999999722, 0.0000000000000000000, 1.707404996040164512E-17 ) ) ;
#132 = DIRECTION ( 'NONE',  ( -1.000000000000000000, 0.0000000000000000000, 0.0000000000000000000 ) ) ;
#133 = DIMENSIONAL_EXPONENTS ( 1.000000000000000000, 0.0000000000000000000, 0.0000000000000000000, 0.0000000000000000000, 0.0000000000000000000, 0.0000000000000000000, 0.0000000000000000000 ) ;
#134 = AXIS2_PLACEMENT_3D ( 'NONE', #219, #264, #178 ) ;
#135 = ORIENTED_EDGE ( 'NONE', *, *, #83, .F. ) ;
#136 = AXIS2_PLACEMENT_3D ( 'NONE', #305, #200, #299 ) ;
#137 = DIRECTION ( 'NONE',  ( -1.000000000000000000, 0.0000000000000000000, 0.0000000000000000000 ) ) ;
#138 = EDGE_LOOP ( 'NONE', ( #111, #256, #320, #115 ) ) ;
#139 = PRODUCT ( 'Micro_DMM-050-4120', 'Micro_DMM-050-4120', '', ( #283 ) ) ;
#140 = CARTESIAN_POINT ( 'NONE',  ( 0.0000000000000000000, 0.0000000000000000000, 2.244094000000000033 ) ) ;
#141 = EDGE_LOOP ( 'NONE', ( #222, #88, #294, #221 ) ) ;
#142 = ORIENTED_EDGE ( 'NONE', *, *, #329, .F. ) ;
#143 = CIRCLE ( 'NONE', #134, 0.09837500000000001799 ) ;
#144 = VERTEX_POINT ( 'NONE', #147 ) ;
#145 = DIRECTION ( 'NONE',  ( 1.000000000000000000, 0.0000000000000000000, 0.0000000000000000000 ) ) ;
#146 = DIRECTION ( 'NONE',  ( 0.0000000000000000000, 0.0000000000000000000, 1.000000000000000000 ) ) ;
#147 = CARTESIAN_POINT ( 'NONE',  ( 0.007499999999999999722, 0.0000000000000000000, 1.707404996040164512E-17 ) ) ;
#148 = DIRECTION ( 'NONE',  ( 0.0000000000000000000, 0.0000000000000000000, -1.000000000000000000 ) ) ;
#149 = AXIS2_PLACEMENT_3D ( 'NONE', #280, #21, #137 ) ;
#150 = AXIS2_PLACEMENT_3D ( 'NONE', #263, #181, #132 ) ;
#151 = CARTESIAN_POINT ( 'NONE',  ( 0.0000000000000000000, 0.0000000000000000000, 1.707404996040164512E-17 ) ) ;
#152 = ADVANCED_FACE ( 'NONE', ( #18 ), #238, .T. ) ;
#153 =( CONVERSION_BASED_UNIT ( 'INCH', #53 ) LENGTH_UNIT ( ) NAMED_UNIT ( #267 ) );
#154 =( GEOMETRIC_REPRESENTATION_CONTEXT ( 3 ) GLOBAL_UNCERTAINTY_ASSIGNED_CONTEXT ( ( #304 ) ) GLOBAL_UNIT_ASSIGNED_CONTEXT ( ( #153, #59, #286 ) ) REPRESENTATION_CONTEXT ( 'NONE', 'WORKASPACE' ) );
#155 = EDGE_CURVE ( 'NONE', #202, #93, #195, .T. ) ;
#156 = AXIS2_PLACEMENT_3D ( 'NONE', #179, #124, #4 ) ;
#157 = CARTESIAN_POINT ( 'NONE',  ( 0.0000000000000000000, 0.0000000000000000000, 0.0000000000000000000 ) ) ;
#158 = EDGE_CURVE ( 'NONE', #228, #114, #182, .T. ) ;
#159 = CARTESIAN_POINT ( 'NONE',  ( -0.007499999999999999722, 9.184850993605147975E-19, 1.707404996040164512E-17 ) ) ;
#160 = EDGE_CURVE ( 'NONE', #203, #251, #87, .T. ) ;
#161 = VERTEX_POINT ( 'NONE', #254 ) ;
#162 = FILL_AREA_STYLE ('',( #312 ) ) ;
#163 = DIRECTION ( 'NONE',  ( -0.0000000000000000000, -0.0000000000000000000, -1.000000000000000000 ) ) ;
#164 = AXIS2_PLACEMENT_3D ( 'NONE', #110, #146, #24 ) ;
#165 = AXIS2_PLACEMENT_3D ( 'NONE', #318, #148, #145 ) ;
#166 = VECTOR ( 'NONE', #35, 39.37007874015748143 ) ;
#167 = ORIENTED_EDGE ( 'NONE', *, *, #236, .T. ) ;
#168 = DIRECTION ( 'NONE',  ( -1.000000000000000000, 0.0000000000000000000, 0.0000000000000000000 ) ) ;
#169 = CARTESIAN_POINT ( 'NONE',  ( -0.1181100000000000066, 0.0000000000000000000, 2.244094000000000033 ) ) ;
#170 = PRODUCT_DEFINITION_SHAPE ( 'NONE', 'NONE',  #281 ) ;
#171 = ORIENTED_EDGE ( 'NONE', *, *, #199, .T. ) ;
#172 = CARTESIAN_POINT ( 'NONE',  ( 0.0000000000000000000, 0.0000000000000000000, 0.5118110000000001270 ) ) ;
#173 = EDGE_LOOP ( 'NONE', ( #244, #253 ) ) ;
#174 = CARTESIAN_POINT ( 'NONE',  ( 0.0000000000000000000, 0.0000000000000000000, 0.5118110000000000159 ) ) ;
#175 = AXIS2_PLACEMENT_3D ( 'NONE', #279, #232, #327 ) ;
#176 = STYLED_ITEM ( 'NONE', ( #287 ), #119 ) ;
#177 = ORIENTED_EDGE ( 'NONE', *, *, #5, .T. ) ;
#178 = DIRECTION ( 'NONE',  ( -1.000000000000000000, 0.0000000000000000000, 0.0000000000000000000 ) ) ;
#179 = CARTESIAN_POINT ( 'NONE',  ( 0.0000000000000000000, 0.0000000000000000000, 0.0000000000000000000 ) ) ;
#180 = DIRECTION ( 'NONE',  ( -0.0000000000000000000, -0.0000000000000000000, -1.000000000000000000 ) ) ;
#181 = DIRECTION ( 'NONE',  ( -0.0000000000000000000, -0.0000000000000000000, -1.000000000000000000 ) ) ;
#182 = CIRCLE ( 'NONE', #165, 0.1181100000000000066 ) ;
#183 =( CONVERSION_BASED_UNIT ( 'INCH', #289 ) LENGTH_UNIT ( ) NAMED_UNIT ( #11 ) );
#184 = FACE_OUTER_BOUND ( 'NONE', #271, .T. ) ;
#185 = AXIS2_PLACEMENT_3D ( 'NONE', #174, #23, #284 ) ;
#186 = ADVANCED_FACE ( 'NONE', ( #207 ), #321, .T. ) ;
#187 = CONICAL_SURFACE ( 'NONE', #9, 0.1031100000000002570, 0.7853981633974318477 ) ;
#188 = LINE ( 'NONE', #159, #166 ) ;
#189 = DIRECTION ( 'NONE',  ( 1.000000000000000000, 0.0000000000000000000, -0.0000000000000000000 ) ) ;
#190 = ORIENTED_EDGE ( 'NONE', *, *, #79, .F. ) ;
#191 = VECTOR ( 'NONE', #121, 39.37007874015748854 ) ;
#192 = DIRECTION ( 'NONE',  ( -0.0000000000000000000, -0.0000000000000000000, -1.000000000000000000 ) ) ;
#193 = EDGE_CURVE ( 'NONE', #224, #202, #218, .T. ) ;
#194 = ORIENTED_EDGE ( 'NONE', *, *, #101, .T. ) ;
#195 = LINE ( 'NONE', #324, #29 ) ;
#196 = APPLICATION_CONTEXT ( 'automotive_design' ) ;
#197 = LINE ( 'NONE', #169, #241 ) ;
#198 = ORIENTED_EDGE ( 'NONE', *, *, #158, .F. ) ;
#199 = EDGE_CURVE ( 'NONE', #298, #93, #288, .T. ) ;
#200 = DIRECTION ( 'NONE',  ( -0.0000000000000000000, -0.0000000000000000000, -1.000000000000000000 ) ) ;
#201 =( NAMED_UNIT ( * ) PLANE_ANGLE_UNIT ( ) SI_UNIT ( $, .RADIAN. ) );
#202 = VERTEX_POINT ( 'NONE', #240 ) ;
#203 = VERTEX_POINT ( 'NONE', #77 ) ;
#204 = CIRCLE ( 'NONE', #175, 0.1181100000000000066 ) ;
#205 = CARTESIAN_POINT ( 'NONE',  ( 0.0000000000000000000, 0.0000000000000000000, 0.5118110000000000159 ) ) ;
#206 = MECHANICAL_DESIGN_GEOMETRIC_PRESENTATION_REPRESENTATION (  '', ( #176 ), #257 ) ;
#207 = FACE_OUTER_BOUND ( 'NONE', #138, .T. ) ;
#208 = DIRECTION ( 'NONE',  ( -0.0000000000000000000, -0.0000000000000000000, -1.000000000000000000 ) ) ;
#209 = FACE_OUTER_BOUND ( 'NONE', #173, .T. ) ;
#210 = AXIS2_PLACEMENT_3D ( 'NONE', #220, #112, #275 ) ;
#211 = DIRECTION ( 'NONE',  ( 0.8660254037844400399, 0.0000000000000000000, 0.4999999999999976685 ) ) ;
#212 = DIRECTION ( 'NONE',  ( -0.0000000000000000000, 0.0000000000000000000, -1.000000000000000000 ) ) ;
#213 = SURFACE_STYLE_USAGE ( .BOTH. , #8 ) ;
#214 = CIRCLE ( 'NONE', #149, 0.1181100000000000066 ) ;
#215 = AXIS2_PLACEMENT_3D ( 'NONE', #19, #95, #90 ) ;
#216 = ADVANCED_FACE ( 'NONE', ( #85 ), #277, .T. ) ;
#217 =( NAMED_UNIT ( * ) SI_UNIT ( $, .STERADIAN. ) SOLID_ANGLE_UNIT ( ) );
#218 = CIRCLE ( 'NONE', #185, 0.09837500000000004574 ) ;
#219 = CARTESIAN_POINT ( 'NONE',  ( 0.0000000000000000000, 0.0000000000000000000, 0.05246670571260693416 ) ) ;
#220 = CARTESIAN_POINT ( 'NONE',  ( 0.0000000000000000000, 0.0000000000000000000, 1.707404996040164512E-17 ) ) ;
#221 = ORIENTED_EDGE ( 'NONE', *, *, #58, .F. ) ;
#222 = ORIENTED_EDGE ( 'NONE', *, *, #193, .T. ) ;
#223 = DIRECTION ( 'NONE',  ( -0.0000000000000000000, -0.0000000000000000000, -1.000000000000000000 ) ) ;
#224 = VERTEX_POINT ( 'NONE', #234 ) ;
#225 = DIRECTION ( 'NONE',  ( -1.000000000000000000, 0.0000000000000000000, 0.0000000000000000000 ) ) ;
#226 = DIRECTION ( 'NONE',  ( 0.0000000000000000000, 0.0000000000000000000, 1.000000000000000000 ) ) ;
#227 = FACE_OUTER_BOUND ( 'NONE', #295, .T. ) ;
#228 = VERTEX_POINT ( 'NONE', #54 ) ;
#229 = SHAPE_DEFINITION_REPRESENTATION ( #170, #119 ) ;
#230 = DIRECTION ( 'NONE',  ( 0.0000000000000000000, 0.0000000000000000000, 1.000000000000000000 ) ) ;
#231 = AXIS2_PLACEMENT_3D ( 'NONE', #47, #49, #296 ) ;
#232 = DIRECTION ( 'NONE',  ( 0.0000000000000000000, 0.0000000000000000000, -1.000000000000000000 ) ) ;
#233 = ADVANCED_FACE ( 'NONE', ( #30, #209 ), #235, .T. ) ;
#234 = CARTESIAN_POINT ( 'NONE',  ( -0.09837500000000004574, 0.0000000000000000000, 0.5118110000000000159 ) ) ;
#235 = PLANE ( 'NONE',  #292 ) ;
#236 = EDGE_CURVE ( 'NONE', #144, #161, #261, .T. ) ;
#237 = LINE ( 'NONE', #131, #301 ) ;
#238 = CONICAL_SURFACE ( 'NONE', #210, 0.007499999999999999722, 1.047197551196600518 ) ;
#239 = CARTESIAN_POINT ( 'NONE',  ( -0.09837500000000001799, 1.204746288661208977E-17, 0.05246670571260693416 ) ) ;
#240 = CARTESIAN_POINT ( 'NONE',  ( 0.09837500000000004574, 1.204746288661209285E-17, 0.5118110000000000159 ) ) ;
#241 = VECTOR ( 'NONE', #192, 39.37007874015748143 ) ;
#242 = AXIS2_PLACEMENT_3D ( 'NONE', #205, #272, #72 ) ;
#243 = SURFACE_STYLE_FILL_AREA ( #162 ) ;
#244 = ORIENTED_EDGE ( 'NONE', *, *, #160, .T. ) ;
#245 = ORIENTED_EDGE ( 'NONE', *, *, #236, .F. ) ;
#246 = EDGE_LOOP ( 'NONE', ( #190, #319, #171, #15 ) ) ;
#247 = CARTESIAN_POINT ( 'NONE',  ( -0.1181100000000000066, 0.0000000000000000000, 2.229093999999999465 ) ) ;
#248 = DIRECTION ( 'NONE',  ( -0.0000000000000000000, -0.0000000000000000000, -1.000000000000000000 ) ) ;
#249 = VECTOR ( 'NONE', #163, 39.37007874015748143 ) ;
#250 = AXIS2_PLACEMENT_3D ( 'NONE', #157, #259, #26 ) ;
#251 = VERTEX_POINT ( 'NONE', #1 ) ;
#252 = CARTESIAN_POINT ( 'NONE',  ( -0.1031100000000002570, 0.0000000000000000000, 2.244094000000000033 ) ) ;
#253 = ORIENTED_EDGE ( 'NONE', *, *, #10, .T. ) ;
#254 = CARTESIAN_POINT ( 'NONE',  ( -0.007499999999999999722, 6.482973992986302093E-18, 1.707404996040164512E-17 ) ) ;
#255 = APPLICATION_PROTOCOL_DEFINITION ( 'draft international standard', 'automotive_design', 1998, #41 ) ;
#256 = ORIENTED_EDGE ( 'NONE', *, *, #158, .T. ) ;
#257 =( GEOMETRIC_REPRESENTATION_CONTEXT ( 3 ) GLOBAL_UNCERTAINTY_ASSIGNED_CONTEXT ( ( #76 ) ) GLOBAL_UNIT_ASSIGNED_CONTEXT ( ( #183, #201, #127 ) ) REPRESENTATION_CONTEXT ( 'NONE', 'WORKASPACE' ) );
#258 =( LENGTH_UNIT ( ) NAMED_UNIT ( * ) SI_UNIT ( $, .METRE. ) );
#259 = DIRECTION ( 'NONE',  ( -0.0000000000000000000, -0.0000000000000000000, -1.000000000000000000 ) ) ;
#260 = MANIFOLD_SOLID_BREP ( 'Cut-Revolve4', #310 ) ;
#261 = CIRCLE ( 'NONE', #150, 0.007499999999999999722 ) ;
#262 = ADVANCED_FACE ( 'NONE', ( #55 ), #128, .T. ) ;
#263 = CARTESIAN_POINT ( 'NONE',  ( 0.0000000000000000000, 0.0000000000000000000, 1.707404996040164512E-17 ) ) ;
#264 = DIRECTION ( 'NONE',  ( -0.0000000000000000000, -0.0000000000000000000, -1.000000000000000000 ) ) ;
#265 = ORIENTED_EDGE ( 'NONE', *, *, #14, .T. ) ;
#266 =( LENGTH_UNIT ( ) NAMED_UNIT ( * ) SI_UNIT ( $, .METRE. ) );
#267 = DIMENSIONAL_EXPONENTS ( 1.000000000000000000, 0.0000000000000000000, 0.0000000000000000000, 0.0000000000000000000, 0.0000000000000000000, 0.0000000000000000000, 0.0000000000000000000 ) ;
#268 = LINE ( 'NONE', #63, #249 ) ;
#269 = COLOUR_RGB ( '',0.7921568627450980005, 0.8196078431372548767, 0.9333333333333333481 ) ;
#270 = ADVANCED_FACE ( 'NONE', ( #184 ), #126, .T. ) ;
#271 = EDGE_LOOP ( 'NONE', ( #22, #177, #73, #315 ) ) ;
#272 = DIRECTION ( 'NONE',  ( -0.0000000000000000000, -0.0000000000000000000, -1.000000000000000000 ) ) ;
#273 = CARTESIAN_POINT ( 'NONE',  ( 0.1031100000000002570, 1.354581824536888722E-17, 2.244094000000000033 ) ) ;
#274 = ORIENTED_EDGE ( 'NONE', *, *, #101, .F. ) ;
#275 = DIRECTION ( 'NONE',  ( 1.000000000000000000, 0.0000000000000000000, 0.0000000000000000000 ) ) ;
#276 = ORIENTED_EDGE ( 'NONE', *, *, #14, .F. ) ;
#277 = CONICAL_SURFACE ( 'NONE', #313, 0.007499999999999999722, 1.047197551196600518 ) ;
#278 = ORIENTED_EDGE ( 'NONE', *, *, #285, .T. ) ;
#279 = CARTESIAN_POINT ( 'NONE',  ( 0.0000000000000000000, 0.0000000000000000000, 2.229093999999999465 ) ) ;
#280 = CARTESIAN_POINT ( 'NONE',  ( 0.0000000000000000000, 0.0000000000000000000, 0.5118110000000001270 ) ) ;
#281 = PRODUCT_DEFINITION ( 'UNKNOWN', '', #308, #27 ) ;
#282 = FACE_OUTER_BOUND ( 'NONE', #17, .T. ) ;
#283 = PRODUCT_CONTEXT ( 'NONE', #41, 'mechanical' ) ;
#284 = DIRECTION ( 'NONE',  ( -1.000000000000000000, 0.0000000000000000000, 0.0000000000000000000 ) ) ;
#285 = EDGE_CURVE ( 'NONE', #144, #93, #237, .T. ) ;
#286 =( NAMED_UNIT ( * ) SI_UNIT ( $, .STERADIAN. ) SOLID_ANGLE_UNIT ( ) );
#287 = PRESENTATION_STYLE_ASSIGNMENT (( #86 ) ) ;
#288 = CIRCLE ( 'NONE', #78, 0.09837500000000001799 ) ;
#289 = LENGTH_MEASURE_WITH_UNIT ( LENGTH_MEASURE( 0.02539999999999999897 ), #266 );
#290 = FACE_OUTER_BOUND ( 'NONE', #68, .T. ) ;
#291 = ORIENTED_EDGE ( 'NONE', *, *, #103, .T. ) ;
#292 = AXIS2_PLACEMENT_3D ( 'NONE', #31, #212, #307 ) ;
#293 = CARTESIAN_POINT ( 'NONE',  ( 0.0000000000000000000, 0.0000000000000000000, 1.707404996040164512E-17 ) ) ;
#294 = ORIENTED_EDGE ( 'NONE', *, *, #199, .F. ) ;
#295 = EDGE_LOOP ( 'NONE', ( #109, #194 ) ) ;
#296 = DIRECTION ( 'NONE',  ( 1.000000000000000000, 0.0000000000000000000, 0.0000000000000000000 ) ) ;
#297 = LINE ( 'NONE', #70, #89 ) ;
#298 = VERTEX_POINT ( 'NONE', #239 ) ;
#299 = DIRECTION ( 'NONE',  ( -1.000000000000000000, 0.0000000000000000000, 0.0000000000000000000 ) ) ;
#300 = ORIENTED_EDGE ( 'NONE', *, *, #40, .T. ) ;
#301 = VECTOR ( 'NONE', #211, 39.37007874015748143 ) ;
#302 = ORIENTED_EDGE ( 'NONE', *, *, #155, .F. ) ;
#303 = CYLINDRICAL_SURFACE ( 'NONE', #56, 0.09837500000000003186 ) ;
#304 = UNCERTAINTY_MEASURE_WITH_UNIT (LENGTH_MEASURE( 1.000000000000000082E-05 ), #153, 'distance_accuracy_value', 'NONE');
#305 = CARTESIAN_POINT ( 'NONE',  ( 0.0000000000000000000, 0.0000000000000000000, 2.244094000000000033 ) ) ;
#306 = DIRECTION ( 'NONE',  ( -1.000000000000000000, 0.0000000000000000000, 0.0000000000000000000 ) ) ;
#307 = DIRECTION ( 'NONE',  ( -1.000000000000000000, 0.0000000000000000000, 0.0000000000000000000 ) ) ;
#308 = PRODUCT_DEFINITION_FORMATION_WITH_SPECIFIED_SOURCE ( 'ANY', '', #139, .NOT_KNOWN. ) ;
#309 = ADVANCED_FACE ( 'NONE', ( #6 ), #74, .F. ) ;
#310 = CLOSED_SHELL ( 'NONE', ( #262, #152, #32, #270, #186, #44, #107, #233, #216, #94, #309 ) ) ;
#311 = PRESENTATION_STYLE_ASSIGNMENT (( #213 ) ) ;
#312 = FILL_AREA_STYLE_COLOUR ( '', #84 ) ;
#313 = AXIS2_PLACEMENT_3D ( 'NONE', #151, #82, #81 ) ;
#314 = SURFACE_SIDE_STYLE ('',( #243 ) ) ;
#315 = ORIENTED_EDGE ( 'NONE', *, *, #34, .F. ) ;
#316 = LINE ( 'NONE', #252, #191 ) ;
#317 = EDGE_LOOP ( 'NONE', ( #142, #245, #278, #323 ) ) ;
#318 = CARTESIAN_POINT ( 'NONE',  ( 0.0000000000000000000, 0.0000000000000000000, 2.229093999999999465 ) ) ;
#319 = ORIENTED_EDGE ( 'NONE', *, *, #329, .T. ) ;
#320 = ORIENTED_EDGE ( 'NONE', *, *, #34, .T. ) ;
#321 = CYLINDRICAL_SURFACE ( 'NONE', #136, 0.1181100000000000066 ) ;
#322 = PLANE ( 'NONE',  #130 ) ;
#323 = ORIENTED_EDGE ( 'NONE', *, *, #62, .T. ) ;
#324 = CARTESIAN_POINT ( 'NONE',  ( 0.09837500000000003186, 1.204746288661209131E-17, 0.0000000000000000000 ) ) ;
#325 = APPLICATION_PROTOCOL_DEFINITION ( 'draft international standard', 'automotive_design', 1998, #196 ) ;
#326 = CARTESIAN_POINT ( 'NONE',  ( -0.1031100000000002570, 0.0000000000000000000, 2.244094000000000033 ) ) ;
#327 = DIRECTION ( 'NONE',  ( 1.000000000000000000, 0.0000000000000000000, 0.0000000000000000000 ) ) ;
#328 = CARTESIAN_POINT ( 'NONE',  ( 0.0000000000000000000, 0.0000000000000000000, 0.0000000000000000000 ) ) ;
#329 = EDGE_CURVE ( 'NONE', #161, #298, #188, .T. ) ;
ENDSEC;
END-ISO-10303-21;
