ISO-10303-21;
HEADER;
FILE_DESCRIPTION (( 'STEP AP214' ),
    '1' );
FILE_NAME ('81400.STEP',
    '2023-06-23T01:05:24',
    ( '' ),
    ( '' ),
    'SwSTEP 2.0',
    'SolidWorks 2023',
    '' );
FILE_SCHEMA (( 'AUTOMOTIVE_DESIGN' ));
ENDSEC;

DATA;
#1 =( GEOMETRIC_REPRESENTATION_CONTEXT ( 3 ) GLOBAL_UNCERTAINTY_ASSIGNED_CONTEXT ( ( #134 ) ) GLOBAL_UNIT_ASSIGNED_CONTEXT ( ( #98, #197, #305 ) ) REPRESENTATION_CONTEXT ( 'NONE', 'WORKASPACE' ) );
#2 =( NAMED_UNIT ( * ) PLANE_ANGLE_UNIT ( ) SI_UNIT ( $, .RADIAN. ) );
#3 =( LENGTH_UNIT ( ) NAMED_UNIT ( * ) SI_UNIT ( $, .METRE. ) );
#4 = FILL_AREA_STYLE_COLOUR ( '', #291 ) ;
#5 =( NAMED_UNIT ( * ) SI_UNIT ( $, .STERADIAN. ) SOLID_ANGLE_UNIT ( ) );
#6 = AXIS2_PLACEMENT_3D ( 'NONE', #59, #109, #258 ) ;
#7 = LENGTH_MEASURE_WITH_UNIT ( LENGTH_MEASURE( 0.02539999999999999897 ), #32 );
#8 = ADVANCED_FACE ( 'NONE', ( #245 ), #196, .F. ) ;
#9 = CARTESIAN_POINT ( 'NONE',  ( -0.1249999999999998612, 2.000000000000000000, 0.000000000000000000 ) ) ;
#10 = VECTOR ( 'NONE', #71, 39.37007874015748143 ) ;
#11 = COLOUR_RGB ( '',0.7921568627450980005, 0.8196078431372548767, 0.9333333333333333481 ) ;
#12 = ORIENTED_EDGE ( 'NONE', *, *, #193, .T. ) ;
#13 = CARTESIAN_POINT ( 'NONE',  ( 0.1250000000000000278, 2.000000000000000000, 1.530808498934191509E-17 ) ) ;
#14 = DIRECTION ( 'NONE',  ( -1.000000000000000000, 0.000000000000000000, 0.000000000000000000 ) ) ;
#15 = VERTEX_POINT ( 'NONE', #246 ) ;
#16 = SURFACE_STYLE_USAGE ( .BOTH. , #153 ) ;
#17 = CARTESIAN_POINT ( 'NONE',  ( 0.000000000000000000, 0.5000000000000001110, 0.000000000000000000 ) ) ;
#18 = EDGE_CURVE ( 'NONE', #170, #269, #194, .T. ) ;
#19 = CARTESIAN_POINT ( 'NONE',  ( 0.1250000000000000278, 0.5000000000000001110, 1.530808498934191509E-17 ) ) ;
#20 = PRODUCT_DEFINITION_CONTEXT ( 'detailed design', #149, 'design' ) ;
#21 = CIRCLE ( 'NONE', #190, 0.1250000000000000000 ) ;
#22 = DIMENSIONAL_EXPONENTS ( 1.000000000000000000, 0.000000000000000000, 0.000000000000000000, 0.000000000000000000, 0.000000000000000000, 0.000000000000000000, 0.000000000000000000 ) ;
#23 =( LENGTH_UNIT ( ) NAMED_UNIT ( * ) SI_UNIT ( $, .METRE. ) );
#24 = UNCERTAINTY_MEASURE_WITH_UNIT (LENGTH_MEASURE( 1.000000000000000082E-05 ), #29, 'distance_accuracy_value', 'NONE');
#25 = PRESENTATION_LAYER_ASSIGNMENT (  '', '', ( #221 ) ) ;
#26 =( NAMED_UNIT ( * ) PLANE_ANGLE_UNIT ( ) SI_UNIT ( $, .RADIAN. ) );
#27 = DIRECTION ( 'NONE',  ( 0.000000000000000000, 0.000000000000000000, -1.000000000000000000 ) ) ;
#28 =( NAMED_UNIT ( * ) SI_UNIT ( $, .STERADIAN. ) SOLID_ANGLE_UNIT ( ) );
#29 =( CONVERSION_BASED_UNIT ( 'INCH', #248 ) LENGTH_UNIT ( ) NAMED_UNIT ( #239 ) );
#30 = PLANE ( 'NONE',  #295 ) ;
#31 = CIRCLE ( 'NONE', #6, 0.1250000000000000000 ) ;
#32 =( LENGTH_UNIT ( ) NAMED_UNIT ( * ) SI_UNIT ( $, .METRE. ) );
#33 = SURFACE_STYLE_FILL_AREA ( #300 ) ;
#34 = CARTESIAN_POINT ( 'NONE',  ( 1.041499849070734806E-34, 0.5000000000000000000, 0.000000000000000000 ) ) ;
#35 = ORIENTED_EDGE ( 'NONE', *, *, #243, .T. ) ;
#36 = CARTESIAN_POINT ( 'NONE',  ( 0.000000000000000000, 0.000000000000000000, 0.000000000000000000 ) ) ;
#37 = AXIS2_PLACEMENT_3D ( 'NONE', #238, #298, #285 ) ;
#38 = DIRECTION ( 'NONE',  ( 1.000000000000000000, 0.000000000000000000, 0.000000000000000000 ) ) ;
#39 = FILL_AREA_STYLE_COLOUR ( '', #143 ) ;
#40 = CARTESIAN_POINT ( 'NONE',  ( 0.000000000000000000, 0.000000000000000000, 0.000000000000000000 ) ) ;
#41 =( LENGTH_UNIT ( ) NAMED_UNIT ( * ) SI_UNIT ( $, .METRE. ) );
#42 = CARTESIAN_POINT ( 'NONE',  ( 1.530808498934191509E-17, 0.000000000000000000, 0.1250000000000000000 ) ) ;
#43 = FACE_OUTER_BOUND ( 'NONE', #144, .T. ) ;
#44 = CIRCLE ( 'NONE', #103, 0.1250000000000000000 ) ;
#45 =( LENGTH_UNIT ( ) NAMED_UNIT ( * ) SI_UNIT ( $, .METRE. ) );
#46 = LENGTH_MEASURE_WITH_UNIT ( LENGTH_MEASURE( 0.02539999999999999897 ), #158 );
#47 = EDGE_LOOP ( 'NONE', ( #49, #287, #136, #137 ) ) ;
#48 = FACE_OUTER_BOUND ( 'NONE', #47, .T. ) ;
#49 = ORIENTED_EDGE ( 'NONE', *, *, #114, .T. ) ;
#50 = FILL_AREA_STYLE_COLOUR ( '', #297 ) ;
#51 = STYLED_ITEM ( 'NONE', ( #141 ), #65 ) ;
#52 =( GEOMETRIC_REPRESENTATION_CONTEXT ( 3 ) GLOBAL_UNCERTAINTY_ASSIGNED_CONTEXT ( ( #147 ) ) GLOBAL_UNIT_ASSIGNED_CONTEXT ( ( #163, #2, #28 ) ) REPRESENTATION_CONTEXT ( 'NONE', 'WORKASPACE' ) );
#53 = ORIENTED_EDGE ( 'NONE', *, *, #114, .F. ) ;
#54 = DIMENSIONAL_EXPONENTS ( 1.000000000000000000, 0.000000000000000000, 0.000000000000000000, 0.000000000000000000, 0.000000000000000000, 0.000000000000000000, 0.000000000000000000 ) ;
#55 = PRESENTATION_STYLE_ASSIGNMENT (( #16 ) ) ;
#56 = CYLINDRICAL_SURFACE ( 'NONE', #184, 0.1249999999999999584 ) ;
#57 = LINE ( 'NONE', #235, #62 ) ;
#58 = DIMENSIONAL_EXPONENTS ( 1.000000000000000000, 0.000000000000000000, 0.000000000000000000, 0.000000000000000000, 0.000000000000000000, 0.000000000000000000, 0.000000000000000000 ) ;
#59 = CARTESIAN_POINT ( 'NONE',  ( 0.000000000000000000, 0.5000000000000000000, 0.000000000000000000 ) ) ;
#60 = STYLED_ITEM ( 'NONE', ( #201 ), #69 ) ;
#61 = CYLINDRICAL_SURFACE ( 'NONE', #125, 0.1250000000000000000 ) ;
#62 = VECTOR ( 'NONE', #259, 39.37007874015748143 ) ;
#63 = FILL_AREA_STYLE_COLOUR ( '', #11 ) ;
#64 =( NAMED_UNIT ( * ) PLANE_ANGLE_UNIT ( ) SI_UNIT ( $, .RADIAN. ) );
#65 = ADVANCED_FACE ( 'NONE', ( #48 ), #218, .T. ) ;
#66 = AXIS2_PLACEMENT_3D ( 'NONE', #40, #154, #234 ) ;
#67 = PRESENTATION_LAYER_ASSIGNMENT (  '', '', ( #160 ) ) ;
#68 = DIRECTION ( 'NONE',  ( 1.000000000000000000, -4.082155997157844435E-17, 0.000000000000000000 ) ) ;
#69 = ADVANCED_FACE ( 'NONE', ( #275 ), #308, .T. ) ;
#70 = PRESENTATION_LAYER_ASSIGNMENT (  '', '', ( #77 ) ) ;
#71 = DIRECTION ( 'NONE',  ( -0.000000000000000000, -1.000000000000000000, -0.000000000000000000 ) ) ;
#72 = PRODUCT ( '81400', '81400', '', ( #174 ) ) ;
#73 =( NAMED_UNIT ( * ) SI_UNIT ( $, .STERADIAN. ) SOLID_ANGLE_UNIT ( ) );
#74 = MANIFOLD_SOLID_BREP ( 'Revolve - Tool Body (Straight Shanked)', #286 ) ;
#75 = EDGE_LOOP ( 'NONE', ( #290, #12, #164, #117 ) ) ;
#76 = DIRECTION ( 'NONE',  ( 0.000000000000000000, 1.000000000000000000, 0.000000000000000000 ) ) ;
#77 = STYLED_ITEM ( 'NONE', ( #156 ), #228 ) ;
#78 = CARTESIAN_POINT ( 'NONE',  ( 0.000000000000000000, 0.5000000000000000000, 0.000000000000000000 ) ) ;
#79 = APPLICATION_CONTEXT ( 'automotive_design' ) ;
#80 = FILL_AREA_STYLE ('',( #39 ) ) ;
#81 = AXIS2_PLACEMENT_3D ( 'NONE', #34, #118, #122 ) ;
#82 = SURFACE_SIDE_STYLE ('',( #83 ) ) ;
#83 = SURFACE_STYLE_FILL_AREA ( #106 ) ;
#84 = SHAPE_DEFINITION_REPRESENTATION ( #263, #126 ) ;
#85 = ADVANCED_FACE ( 'NONE', ( #179 ), #56, .T. ) ;
#86 = LENGTH_MEASURE_WITH_UNIT ( LENGTH_MEASURE( 0.02539999999999999897 ), #3 );
#87 =( NAMED_UNIT ( * ) SI_UNIT ( $, .STERADIAN. ) SOLID_ANGLE_UNIT ( ) );
#88 =( CONVERSION_BASED_UNIT ( 'INCH', #309 ) LENGTH_UNIT ( ) NAMED_UNIT ( #271 ) );
#89 = ORIENTED_EDGE ( 'NONE', *, *, #182, .T. ) ;
#90 = CARTESIAN_POINT ( 'NONE',  ( 6.123233995736766036E-17, 2.000000000000000000, 0.000000000000000000 ) ) ;
#91 = DIRECTION ( 'NONE',  ( 4.082155997157844435E-17, 1.000000000000000000, -0.000000000000000000 ) ) ;
#92 = VERTEX_POINT ( 'NONE', #13 ) ;
#93 =( CONVERSION_BASED_UNIT ( 'INCH', #46 ) LENGTH_UNIT ( ) NAMED_UNIT ( #22 ) );
#94 = DIRECTION ( 'NONE',  ( 0.000000000000000000, 0.000000000000000000, -1.000000000000000000 ) ) ;
#95 = MECHANICAL_DESIGN_GEOMETRIC_PRESENTATION_REPRESENTATION (  '', ( #77 ), #110 ) ;
#96 = CLOSED_SHELL ( 'NONE', ( #65, #69, #228, #121 ) ) ;
#97 = ORIENTED_EDGE ( 'NONE', *, *, #198, .F. ) ;
#98 =( CONVERSION_BASED_UNIT ( 'INCH', #86 ) LENGTH_UNIT ( ) NAMED_UNIT ( #99 ) );
#99 = DIMENSIONAL_EXPONENTS ( 1.000000000000000000, 0.000000000000000000, 0.000000000000000000, 0.000000000000000000, 0.000000000000000000, 0.000000000000000000, 0.000000000000000000 ) ;
#100 =( CONVERSION_BASED_UNIT ( 'INCH', #7 ) LENGTH_UNIT ( ) NAMED_UNIT ( #209 ) );
#101 = DIRECTION ( 'NONE',  ( -1.000000000000000000, 0.000000000000000000, 0.000000000000000000 ) ) ;
#102 =( NAMED_UNIT ( * ) PLANE_ANGLE_UNIT ( ) SI_UNIT ( $, .RADIAN. ) );
#103 = AXIS2_PLACEMENT_3D ( 'NONE', #185, #186, #27 ) ;
#104 = FACE_OUTER_BOUND ( 'NONE', #113, .T. ) ;
#105 = CARTESIAN_POINT ( 'NONE',  ( 0.000000000000000000, 0.000000000000000000, 0.000000000000000000 ) ) ;
#106 = FILL_AREA_STYLE ('',( #236 ) ) ;
#107 = CARTESIAN_POINT ( 'NONE',  ( 0.000000000000000000, 0.000000000000000000, 0.000000000000000000 ) ) ;
#108 = DIRECTION ( 'NONE',  ( 0.000000000000000000, 0.000000000000000000, -1.000000000000000000 ) ) ;
#109 = DIRECTION ( 'NONE',  ( -0.000000000000000000, -1.000000000000000000, -0.000000000000000000 ) ) ;
#110 =( GEOMETRIC_REPRESENTATION_CONTEXT ( 3 ) GLOBAL_UNCERTAINTY_ASSIGNED_CONTEXT ( ( #265 ) ) GLOBAL_UNIT_ASSIGNED_CONTEXT ( ( #88, #232, #87 ) ) REPRESENTATION_CONTEXT ( 'NONE', 'WORKASPACE' ) );
#111 = DIRECTION ( 'NONE',  ( -0.000000000000000000, -1.000000000000000000, -0.000000000000000000 ) ) ;
#112 = DIRECTION ( 'NONE',  ( -4.082155997157844435E-17, -1.000000000000000000, 0.000000000000000000 ) ) ;
#113 = EDGE_LOOP ( 'NONE', ( #35, #192 ) ) ;
#114 = EDGE_CURVE ( 'NONE', #166, #170, #31, .T. ) ;
#115 = AXIS2_PLACEMENT_3D ( 'NONE', #78, #76, #273 ) ;
#116 = VERTEX_POINT ( 'NONE', #9 ) ;
#117 = ORIENTED_EDGE ( 'NONE', *, *, #296, .F. ) ;
#118 = DIRECTION ( 'NONE',  ( 4.082155997157844435E-17, 1.000000000000000000, -0.000000000000000000 ) ) ;
#119 = SURFACE_SIDE_STYLE ('',( #224 ) ) ;
#120 = MECHANICAL_DESIGN_GEOMETRIC_PRESENTATION_REPRESENTATION (  '', ( #253 ), #282 ) ;
#121 = ADVANCED_FACE ( 'NONE', ( #104 ), #207, .T. ) ;
#122 = DIRECTION ( 'NONE',  ( -1.000000000000000000, 4.082155997157844435E-17, 0.000000000000000000 ) ) ;
#123 =( GEOMETRIC_REPRESENTATION_CONTEXT ( 3 ) GLOBAL_UNCERTAINTY_ASSIGNED_CONTEXT ( ( #199 ) ) GLOBAL_UNIT_ASSIGNED_CONTEXT ( ( #100, #284, #254 ) ) REPRESENTATION_CONTEXT ( 'NONE', 'WORKASPACE' ) );
#124 = CARTESIAN_POINT ( 'NONE',  ( 6.123233995736766036E-17, 2.000000000000000000, 0.000000000000000000 ) ) ;
#125 = AXIS2_PLACEMENT_3D ( 'NONE', #36, #111, #155 ) ;
#126 = ADVANCED_BREP_SHAPE_REPRESENTATION ( '81400', ( #173, #74, #276 ), #172 ) ;
#127 = MECHANICAL_DESIGN_GEOMETRIC_PRESENTATION_REPRESENTATION (  '', ( #51 ), #1 ) ;
#128 = DIRECTION ( 'NONE',  ( 0.000000000000000000, -1.000000000000000000, -0.000000000000000000 ) ) ;
#129 = DIRECTION ( 'NONE',  ( 4.082155997157844435E-17, 1.000000000000000000, -0.000000000000000000 ) ) ;
#130 = DIRECTION ( 'NONE',  ( 4.082155997157844435E-17, 1.000000000000000000, -0.000000000000000000 ) ) ;
#131 = DIRECTION ( 'NONE',  ( -0.000000000000000000, -1.000000000000000000, -0.000000000000000000 ) ) ;
#132 =( GEOMETRIC_REPRESENTATION_CONTEXT ( 3 ) GLOBAL_UNCERTAINTY_ASSIGNED_CONTEXT ( ( #202 ) ) GLOBAL_UNIT_ASSIGNED_CONTEXT ( ( #93, #26, #73 ) ) REPRESENTATION_CONTEXT ( 'NONE', 'WORKASPACE' ) );
#133 = CARTESIAN_POINT ( 'NONE',  ( 0.1250000000000000278, 2.000000000000000000, 1.530808498934191201E-17 ) ) ;
#134 = UNCERTAINTY_MEASURE_WITH_UNIT (LENGTH_MEASURE( 1.000000000000000082E-05 ), #98, 'distance_accuracy_value', 'NONE');
#135 = CYLINDRICAL_SURFACE ( 'NONE', #304, 0.1249999999999999584 ) ;
#136 = ORIENTED_EDGE ( 'NONE', *, *, #243, .F. ) ;
#137 = ORIENTED_EDGE ( 'NONE', *, *, #270, .F. ) ;
#138 = AXIS2_PLACEMENT_3D ( 'NONE', #17, #256, #14 ) ;
#139 = CIRCLE ( 'NONE', #37, 0.1250000000000000000 ) ;
#140 = ADVANCED_FACE ( 'NONE', ( #43 ), #30, .F. ) ;
#141 = PRESENTATION_STYLE_ASSIGNMENT (( #168 ) ) ;
#142 = PRESENTATION_LAYER_ASSIGNMENT (  '', '', ( #60 ) ) ;
#143 = COLOUR_RGB ( '',1.000000000000000000, 0.000000000000000000, 0.000000000000000000 ) ;
#144 = EDGE_LOOP ( 'NONE', ( #237, #89 ) ) ;
#145 = EDGE_LOOP ( 'NONE', ( #306, #252, #261, #242 ) ) ;
#146 = EDGE_CURVE ( 'NONE', #260, #92, #307, .T. ) ;
#147 = UNCERTAINTY_MEASURE_WITH_UNIT (LENGTH_MEASURE( 1.000000000000000082E-05 ), #163, 'distance_accuracy_value', 'NONE');
#148 = AXIS2_PLACEMENT_3D ( 'NONE', #227, #130, #262 ) ;
#149 = APPLICATION_CONTEXT ( 'automotive_design' ) ;
#150 = SURFACE_STYLE_FILL_AREA ( #301 ) ;
#151 = DIRECTION ( 'NONE',  ( 0.000000000000000000, 0.000000000000000000, 1.000000000000000000 ) ) ;
#152 = VECTOR ( 'NONE', #176, 39.37007874015748143 ) ;
#153 = SURFACE_SIDE_STYLE ('',( #33 ) ) ;
#154 = DIRECTION ( 'NONE',  ( -0.000000000000000000, -1.000000000000000000, -0.000000000000000000 ) ) ;
#155 = DIRECTION ( 'NONE',  ( 0.000000000000000000, 0.000000000000000000, -1.000000000000000000 ) ) ;
#156 = PRESENTATION_STYLE_ASSIGNMENT (( #210 ) ) ;
#157 = APPLICATION_PROTOCOL_DEFINITION ( 'draft international standard', 'automotive_design', 1998, #79 ) ;
#158 =( LENGTH_UNIT ( ) NAMED_UNIT ( * ) SI_UNIT ( $, .METRE. ) );
#159 = FILL_AREA_STYLE_COLOUR ( '', #277 ) ;
#160 = STYLED_ITEM ( 'NONE', ( #187 ), #173 ) ;
#161 = SURFACE_STYLE_FILL_AREA ( #80 ) ;
#162 = ORIENTED_EDGE ( 'NONE', *, *, #274, .F. ) ;
#163 =( CONVERSION_BASED_UNIT ( 'INCH', #191 ) LENGTH_UNIT ( ) NAMED_UNIT ( #54 ) );
#164 = ORIENTED_EDGE ( 'NONE', *, *, #270, .T. ) ;
#165 = AXIS2_PLACEMENT_3D ( 'NONE', #216, #91, #101 ) ;
#166 = VERTEX_POINT ( 'NONE', #267 ) ;
#167 = CARTESIAN_POINT ( 'NONE',  ( 1.530808498934191509E-17, 0.000000000000000000, 0.1250000000000000000 ) ) ;
#168 = SURFACE_STYLE_USAGE ( .BOTH. , #119 ) ;
#169 = ADVANCED_FACE ( 'NONE', ( #241 ), #135, .T. ) ;
#170 = VERTEX_POINT ( 'NONE', #268 ) ;
#171 = EDGE_LOOP ( 'NONE', ( #212, #217, #97, #189 ) ) ;
#172 =( GEOMETRIC_REPRESENTATION_CONTEXT ( 3 ) GLOBAL_UNCERTAINTY_ASSIGNED_CONTEXT ( ( #289 ) ) GLOBAL_UNIT_ASSIGNED_CONTEXT ( ( #204, #64, #280 ) ) REPRESENTATION_CONTEXT ( 'NONE', 'WORKASPACE' ) );
#173 = MANIFOLD_SOLID_BREP ( 'Revolve - Cutting Edge', #96 ) ;
#174 = PRODUCT_CONTEXT ( 'NONE', #79, 'mechanical' ) ;
#175 = SURFACE_SIDE_STYLE ('',( #161 ) ) ;
#176 = DIRECTION ( 'NONE',  ( 4.082155997157844435E-17, 1.000000000000000000, -0.000000000000000000 ) ) ;
#177 = VERTEX_POINT ( 'NONE', #250 ) ;
#178 = CIRCLE ( 'NONE', #249, 0.1249999999999999306 ) ;
#179 = FACE_OUTER_BOUND ( 'NONE', #145, .T. ) ;
#180 = CARTESIAN_POINT ( 'NONE',  ( 0.000000000000000000, 0.000000000000000000, -0.1250000000000000000 ) ) ;
#181 = ORIENTED_EDGE ( 'NONE', *, *, #293, .F. ) ;
#182 = EDGE_CURVE ( 'NONE', #92, #116, #178, .T. ) ;
#183 = MECHANICAL_DESIGN_GEOMETRIC_PRESENTATION_REPRESENTATION (  '', ( #60 ), #132 ) ;
#184 = AXIS2_PLACEMENT_3D ( 'NONE', #124, #129, #229 ) ;
#185 = CARTESIAN_POINT ( 'NONE',  ( 0.000000000000000000, 0.5000000000000000000, 0.000000000000000000 ) ) ;
#186 = DIRECTION ( 'NONE',  ( -0.000000000000000000, -1.000000000000000000, -0.000000000000000000 ) ) ;
#187 = PRESENTATION_STYLE_ASSIGNMENT (( #223 ) ) ;
#188 = SURFACE_SIDE_STYLE ('',( #213 ) ) ;
#189 = ORIENTED_EDGE ( 'NONE', *, *, #247, .F. ) ;
#190 = AXIS2_PLACEMENT_3D ( 'NONE', #107, #208, #108 ) ;
#191 = LENGTH_MEASURE_WITH_UNIT ( LENGTH_MEASURE( 0.02539999999999999897 ), #45 );
#192 = ORIENTED_EDGE ( 'NONE', *, *, #296, .T. ) ;
#193 = EDGE_CURVE ( 'NONE', #170, #166, #44, .T. ) ;
#194 = LINE ( 'NONE', #167, #10 ) ;
#195 = PRESENTATION_LAYER_ASSIGNMENT (  '', '', ( #51 ) ) ;
#196 = PLANE ( 'NONE',  #81 ) ;
#197 =( NAMED_UNIT ( * ) PLANE_ANGLE_UNIT ( ) SI_UNIT ( $, .RADIAN. ) );
#198 = EDGE_CURVE ( 'NONE', #116, #92, #288, .T. ) ;
#199 = UNCERTAINTY_MEASURE_WITH_UNIT (LENGTH_MEASURE( 1.000000000000000082E-05 ), #100, 'distance_accuracy_value', 'NONE');
#200 = MECHANICAL_DESIGN_GEOMETRIC_PRESENTATION_REPRESENTATION (  '', ( #221 ), #123 ) ;
#201 = PRESENTATION_STYLE_ASSIGNMENT (( #230 ) ) ;
#202 = UNCERTAINTY_MEASURE_WITH_UNIT (LENGTH_MEASURE( 1.000000000000000082E-05 ), #93, 'distance_accuracy_value', 'NONE');
#203 = CARTESIAN_POINT ( 'NONE',  ( 0.000000000000000000, 0.000000000000000000, 0.000000000000000000 ) ) ;
#204 =( CONVERSION_BASED_UNIT ( 'INCH', #231 ) LENGTH_UNIT ( ) NAMED_UNIT ( #58 ) );
#205 = FACE_OUTER_BOUND ( 'NONE', #75, .T. ) ;
#206 = AXIS2_PLACEMENT_3D ( 'NONE', #203, #128, #94 ) ;
#207 = PLANE ( 'NONE',  #206 ) ;
#208 = DIRECTION ( 'NONE',  ( -0.000000000000000000, -1.000000000000000000, -0.000000000000000000 ) ) ;
#209 = DIMENSIONAL_EXPONENTS ( 1.000000000000000000, 0.000000000000000000, 0.000000000000000000, 0.000000000000000000, 0.000000000000000000, 0.000000000000000000, 0.000000000000000000 ) ;
#210 = SURFACE_STYLE_USAGE ( .BOTH. , #175 ) ;
#211 = LINE ( 'NONE', #180, #244 ) ;
#212 = ORIENTED_EDGE ( 'NONE', *, *, #274, .T. ) ;
#213 = SURFACE_STYLE_FILL_AREA ( #220 ) ;
#214 = EDGE_LOOP ( 'NONE', ( #53, #226 ) ) ;
#215 = PRODUCT_RELATED_PRODUCT_CATEGORY ( 'part', '', ( #72 ) ) ;
#216 = CARTESIAN_POINT ( 'NONE',  ( 6.123233995736766036E-17, 2.000000000000000000, 0.000000000000000000 ) ) ;
#217 = ORIENTED_EDGE ( 'NONE', *, *, #146, .T. ) ;
#218 = CYLINDRICAL_SURFACE ( 'NONE', #66, 0.1250000000000000000 ) ;
#219 = PRESENTATION_STYLE_ASSIGNMENT (( #279 ) ) ;
#220 = FILL_AREA_STYLE ('',( #4 ) ) ;
#221 = STYLED_ITEM ( 'NONE', ( #55 ), #74 ) ;
#222 = DIRECTION ( 'NONE',  ( -1.000000000000000000, 0.000000000000000000, 0.000000000000000000 ) ) ;
#223 = SURFACE_STYLE_USAGE ( .BOTH. , #188 ) ;
#224 = SURFACE_STYLE_FILL_AREA ( #251 ) ;
#225 = CIRCLE ( 'NONE', #148, 0.1250000000000000000 ) ;
#226 = ORIENTED_EDGE ( 'NONE', *, *, #193, .F. ) ;
#227 = CARTESIAN_POINT ( 'NONE',  ( 0.000000000000000000, 0.5000000000000001110, 0.000000000000000000 ) ) ;
#228 = ADVANCED_FACE ( 'NONE', ( #205 ), #61, .T. ) ;
#229 = DIRECTION ( 'NONE',  ( -1.000000000000000000, 0.000000000000000000, 0.000000000000000000 ) ) ;
#230 = SURFACE_STYLE_USAGE ( .BOTH. , #255 ) ;
#231 = LENGTH_MEASURE_WITH_UNIT ( LENGTH_MEASURE( 0.02539999999999999897 ), #23 );
#232 =( NAMED_UNIT ( * ) PLANE_ANGLE_UNIT ( ) SI_UNIT ( $, .RADIAN. ) );
#233 = DIRECTION ( 'NONE',  ( 4.082155997157844435E-17, 1.000000000000000000, -0.000000000000000000 ) ) ;
#234 = DIRECTION ( 'NONE',  ( 0.000000000000000000, 0.000000000000000000, -1.000000000000000000 ) ) ;
#235 = CARTESIAN_POINT ( 'NONE',  ( -0.1249999999999999029, 2.000000000000000000, 0.000000000000000000 ) ) ;
#236 = FILL_AREA_STYLE_COLOUR ( '', #257 ) ;
#237 = ORIENTED_EDGE ( 'NONE', *, *, #198, .T. ) ;
#238 = CARTESIAN_POINT ( 'NONE',  ( 0.000000000000000000, 0.000000000000000000, 0.000000000000000000 ) ) ;
#239 = DIMENSIONAL_EXPONENTS ( 1.000000000000000000, 0.000000000000000000, 0.000000000000000000, 0.000000000000000000, 0.000000000000000000, 0.000000000000000000, 0.000000000000000000 ) ;
#240 = PRODUCT_DEFINITION ( 'UNKNOWN', '', #292, #20 ) ;
#241 = FACE_OUTER_BOUND ( 'NONE', #171, .T. ) ;
#242 = ORIENTED_EDGE ( 'NONE', *, *, #182, .F. ) ;
#243 = EDGE_CURVE ( 'NONE', #177, #269, #139, .T. ) ;
#244 = VECTOR ( 'NONE', #131, 39.37007874015748143 ) ;
#245 = FACE_OUTER_BOUND ( 'NONE', #299, .T. ) ;
#246 = CARTESIAN_POINT ( 'NONE',  ( -0.1250000000000000000, 0.5000000000000001110, 0.000000000000000000 ) ) ;
#247 = EDGE_CURVE ( 'NONE', #15, #116, #57, .T. ) ;
#248 = LENGTH_MEASURE_WITH_UNIT ( LENGTH_MEASURE( 0.02539999999999999897 ), #41 );
#249 = AXIS2_PLACEMENT_3D ( 'NONE', #90, #303, #222 ) ;
#250 = CARTESIAN_POINT ( 'NONE',  ( 0.000000000000000000, 0.000000000000000000, -0.1250000000000000000 ) ) ;
#251 = FILL_AREA_STYLE ('',( #50 ) ) ;
#252 = ORIENTED_EDGE ( 'NONE', *, *, #293, .T. ) ;
#253 = STYLED_ITEM ( 'NONE', ( #219 ), #121 ) ;
#254 =( NAMED_UNIT ( * ) SI_UNIT ( $, .STERADIAN. ) SOLID_ANGLE_UNIT ( ) );
#255 = SURFACE_SIDE_STYLE ('',( #150 ) ) ;
#256 = DIRECTION ( 'NONE',  ( 4.082155997157844435E-17, 1.000000000000000000, -0.000000000000000000 ) ) ;
#257 = COLOUR_RGB ( '',1.000000000000000000, 0.000000000000000000, 0.000000000000000000 ) ;
#258 = DIRECTION ( 'NONE',  ( 0.000000000000000000, 0.000000000000000000, -1.000000000000000000 ) ) ;
#259 = DIRECTION ( 'NONE',  ( 4.082155997157844435E-17, 1.000000000000000000, -0.000000000000000000 ) ) ;
#260 = VERTEX_POINT ( 'NONE', #19 ) ;
#261 = ORIENTED_EDGE ( 'NONE', *, *, #247, .T. ) ;
#262 = DIRECTION ( 'NONE',  ( -1.000000000000000000, 0.000000000000000000, 0.000000000000000000 ) ) ;
#263 = PRODUCT_DEFINITION_SHAPE ( 'NONE', 'NONE',  #240 ) ;
#264 = PRESENTATION_LAYER_ASSIGNMENT (  '', '', ( #253 ) ) ;
#265 = UNCERTAINTY_MEASURE_WITH_UNIT (LENGTH_MEASURE( 1.000000000000000082E-05 ), #88, 'distance_accuracy_value', 'NONE');
#266 =( LENGTH_UNIT ( ) NAMED_UNIT ( * ) SI_UNIT ( $, .METRE. ) );
#267 = CARTESIAN_POINT ( 'NONE',  ( 0.000000000000000000, 0.5000000000000000000, -0.1250000000000000000 ) ) ;
#268 = CARTESIAN_POINT ( 'NONE',  ( 1.530808498934191509E-17, 0.5000000000000000000, 0.1250000000000000000 ) ) ;
#269 = VERTEX_POINT ( 'NONE', #42 ) ;
#270 = EDGE_CURVE ( 'NONE', #166, #177, #211, .T. ) ;
#271 = DIMENSIONAL_EXPONENTS ( 1.000000000000000000, 0.000000000000000000, 0.000000000000000000, 0.000000000000000000, 0.000000000000000000, 0.000000000000000000, 0.000000000000000000 ) ;
#272 = MECHANICAL_DESIGN_GEOMETRIC_PRESENTATION_REPRESENTATION (  '', ( #160 ), #52 ) ;
#273 = DIRECTION ( 'NONE',  ( 0.000000000000000000, -0.000000000000000000, 1.000000000000000000 ) ) ;
#274 = EDGE_CURVE ( 'NONE', #15, #260, #281, .T. ) ;
#275 = FACE_OUTER_BOUND ( 'NONE', #214, .T. ) ;
#276 = AXIS2_PLACEMENT_3D ( 'NONE', #105, #151, #38 ) ;
#277 = COLOUR_RGB ( '',1.000000000000000000, 0.000000000000000000, 0.000000000000000000 ) ;
#278 = CARTESIAN_POINT ( 'NONE',  ( 6.123233995736766036E-17, 2.000000000000000000, 0.000000000000000000 ) ) ;
#279 = SURFACE_STYLE_USAGE ( .BOTH. , #82 ) ;
#280 =( NAMED_UNIT ( * ) SI_UNIT ( $, .STERADIAN. ) SOLID_ANGLE_UNIT ( ) );
#281 = CIRCLE ( 'NONE', #138, 0.1250000000000000000 ) ;
#282 =( GEOMETRIC_REPRESENTATION_CONTEXT ( 3 ) GLOBAL_UNCERTAINTY_ASSIGNED_CONTEXT ( ( #24 ) ) GLOBAL_UNIT_ASSIGNED_CONTEXT ( ( #29, #102, #5 ) ) REPRESENTATION_CONTEXT ( 'NONE', 'WORKASPACE' ) );
#283 = DIRECTION ( 'NONE',  ( -1.000000000000000000, 0.000000000000000000, 0.000000000000000000 ) ) ;
#284 =( NAMED_UNIT ( * ) PLANE_ANGLE_UNIT ( ) SI_UNIT ( $, .RADIAN. ) );
#285 = DIRECTION ( 'NONE',  ( 0.000000000000000000, 0.000000000000000000, -1.000000000000000000 ) ) ;
#286 = CLOSED_SHELL ( 'NONE', ( #169, #8, #85, #140 ) ) ;
#287 = ORIENTED_EDGE ( 'NONE', *, *, #18, .T. ) ;
#288 = CIRCLE ( 'NONE', #165, 0.1249999999999999306 ) ;
#289 = UNCERTAINTY_MEASURE_WITH_UNIT (LENGTH_MEASURE( 1.000000000000000082E-05 ), #204, 'distance_accuracy_value', 'NONE');
#290 = ORIENTED_EDGE ( 'NONE', *, *, #18, .F. ) ;
#291 = COLOUR_RGB ( '',0.7921568627450980005, 0.8196078431372548767, 0.9333333333333333481 ) ;
#292 = PRODUCT_DEFINITION_FORMATION_WITH_SPECIFIED_SOURCE ( 'ANY', '', #72, .NOT_KNOWN. ) ;
#293 = EDGE_CURVE ( 'NONE', #260, #15, #225, .T. ) ;
#294 = CARTESIAN_POINT ( 'NONE',  ( 0.1250000000000000000, 2.000000000000000000, 0.000000000000000000 ) ) ;
#295 = AXIS2_PLACEMENT_3D ( 'NONE', #294, #112, #68 ) ;
#296 = EDGE_CURVE ( 'NONE', #269, #177, #21, .T. ) ;
#297 = COLOUR_RGB ( '',1.000000000000000000, 0.000000000000000000, 0.000000000000000000 ) ;
#298 = DIRECTION ( 'NONE',  ( -0.000000000000000000, -1.000000000000000000, -0.000000000000000000 ) ) ;
#299 = EDGE_LOOP ( 'NONE', ( #162, #181 ) ) ;
#300 = FILL_AREA_STYLE ('',( #63 ) ) ;
#301 = FILL_AREA_STYLE ('',( #159 ) ) ;
#302 = APPLICATION_PROTOCOL_DEFINITION ( 'draft international standard', 'automotive_design', 1998, #149 ) ;
#303 = DIRECTION ( 'NONE',  ( 4.082155997157844435E-17, 1.000000000000000000, -0.000000000000000000 ) ) ;
#304 = AXIS2_PLACEMENT_3D ( 'NONE', #278, #233, #283 ) ;
#305 =( NAMED_UNIT ( * ) SI_UNIT ( $, .STERADIAN. ) SOLID_ANGLE_UNIT ( ) );
#306 = ORIENTED_EDGE ( 'NONE', *, *, #146, .F. ) ;
#307 = LINE ( 'NONE', #133, #152 ) ;
#308 = PLANE ( 'NONE',  #115 ) ;
#309 = LENGTH_MEASURE_WITH_UNIT ( LENGTH_MEASURE( 0.02539999999999999897 ), #266 );
ENDSEC;
END-ISO-10303-21;
