ISO-10303-21;
HEADER;
FILE_DESCRIPTION (( 'STEP AP214' ),
    '1' );
FILE_NAME ('Micro_GEM-187-2.STEP',
    '2021-09-01T19:59:44',
    ( '' ),
    ( '' ),
    'SwSTEP 2.0',
    'SolidWorks 2020',
    '' );
FILE_SCHEMA (( 'AUTOMOTIVE_DESIGN' ));
ENDSEC;

DATA;
#1 = EDGE_CURVE ( 'NONE', #177, #112, #138, .T. ) ;
#2 = CARTESIAN_POINT ( 'NONE',  ( 0.0000000000000000000, 0.0000000000000000000, 0.0000000000000000000 ) ) ;
#3 = LENGTH_MEASURE_WITH_UNIT ( LENGTH_MEASURE( 0.02539999999999999897 ), #51 );
#4 = CARTESIAN_POINT ( 'NONE',  ( 7.654042494670957853E-17, 0.0000000000000000000, 0.6250000000000000000 ) ) ;
#5 = DIRECTION ( 'NONE',  ( 0.0000000000000000000, 0.0000000000000000000, 1.000000000000000000 ) ) ;
#6 = ORIENTED_EDGE ( 'NONE', *, *, #149, .T. ) ;
#7 = CARTESIAN_POINT ( 'NONE',  ( 0.0000000000000000000, 0.0000000000000000000, 2.000000000000000000 ) ) ;
#8 =( GEOMETRIC_REPRESENTATION_CONTEXT ( 3 ) GLOBAL_UNCERTAINTY_ASSIGNED_CONTEXT ( ( #202 ) ) GLOBAL_UNIT_ASSIGNED_CONTEXT ( ( #195, #156, #160 ) ) REPRESENTATION_CONTEXT ( 'NONE', 'WORKASPACE' ) );
#9 = DIRECTION ( 'NONE',  ( 1.000000000000000000, 0.0000000000000000000, -0.0000000000000000000 ) ) ;
#10 = EDGE_CURVE ( 'NONE', #56, #46, #93, .T. ) ;
#11 = DIRECTION ( 'NONE',  ( 0.0000000000000000000, 0.0000000000000000000, -1.000000000000000000 ) ) ;
#12 =( LENGTH_UNIT ( ) NAMED_UNIT ( * ) SI_UNIT ( $, .METRE. ) );
#13 = CIRCLE ( 'NONE', #77, 0.09365624999999999645 ) ;
#14 = DIRECTION ( 'NONE',  ( 1.000000000000000000, 0.0000000000000000000, 0.0000000000000000000 ) ) ;
#15 = EDGE_LOOP ( 'NONE', ( #248, #139 ) ) ;
#16 = ORIENTED_EDGE ( 'NONE', *, *, #294, .T. ) ;
#17 = ADVANCED_FACE ( 'NONE', ( #208 ), #67, .T. ) ;
#18 = ORIENTED_EDGE ( 'NONE', *, *, #164, .T. ) ;
#19 = PRESENTATION_LAYER_ASSIGNMENT (  '', '', ( #281 ) ) ;
#20 = ORIENTED_EDGE ( 'NONE', *, *, #1, .T. ) ;
#21 = EDGE_LOOP ( 'NONE', ( #16, #183 ) ) ;
#22 = CARTESIAN_POINT ( 'NONE',  ( 0.0000000000000000000, 0.0000000000000000000, 2.000000000000000000 ) ) ;
#23 = CLOSED_SHELL ( 'NONE', ( #186, #209, #59, #113, #105, #134, #158, #17, #44, #29 ) ) ;
#24 = AXIS2_PLACEMENT_3D ( 'NONE', #7, #108, #148 ) ;
#25 = EDGE_CURVE ( 'NONE', #46, #112, #61, .T. ) ;
#26 = MANIFOLD_SOLID_BREP ( 'Cut-Revolve1', #23 ) ;
#27 = FILL_AREA_STYLE ('',( #188 ) ) ;
#28 = CARTESIAN_POINT ( 'NONE',  ( -0.07874999999999980627, 0.0000000000000000000, 2.000000000000000000 ) ) ;
#29 = ADVANCED_FACE ( 'NONE', ( #236 ), #31, .F. ) ;
#30 = AXIS2_PLACEMENT_3D ( 'NONE', #4, #103, #76 ) ;
#31 = PLANE ( 'NONE',  #255 ) ;
#32 =( LENGTH_UNIT ( ) NAMED_UNIT ( * ) SI_UNIT ( $, .METRE. ) );
#33 = CARTESIAN_POINT ( 'NONE',  ( 7.654042494670957853E-17, 0.0000000000000000000, 0.6250000000000000000 ) ) ;
#34 = AXIS2_PLACEMENT_3D ( 'NONE', #147, #107, #85 ) ;
#35 = CARTESIAN_POINT ( 'NONE',  ( -0.09374999999999994449, 0.0000000000000000000, 0.6255316826705892286 ) ) ;
#36 = FACE_OUTER_BOUND ( 'NONE', #65, .T. ) ;
#37 = LINE ( 'NONE', #241, #68 ) ;
#38 = CIRCLE ( 'NONE', #238, 0.09375000000000001388 ) ;
#39 = ORIENTED_EDGE ( 'NONE', *, *, #294, .F. ) ;
#40 =( NAMED_UNIT ( * ) PLANE_ANGLE_UNIT ( ) SI_UNIT ( $, .RADIAN. ) );
#41 = ORIENTED_EDGE ( 'NONE', *, *, #63, .F. ) ;
#42 =( NAMED_UNIT ( * ) SI_UNIT ( $, .STERADIAN. ) SOLID_ANGLE_UNIT ( ) );
#43 = EDGE_LOOP ( 'NONE', ( #136, #181, #292, #118 ) ) ;
#44 = ADVANCED_FACE ( 'NONE', ( #54 ), #165, .T. ) ;
#45 = PRODUCT_CONTEXT ( 'NONE', #78, 'mechanical' ) ;
#46 = VERTEX_POINT ( 'NONE', #215 ) ;
#47 = AXIS2_PLACEMENT_3D ( 'NONE', #90, #220, #132 ) ;
#48 = DIRECTION ( 'NONE',  ( 0.0000000000000000000, 0.0000000000000000000, -1.000000000000000000 ) ) ;
#49 = DIRECTION ( 'NONE',  ( -1.000000000000000000, 0.0000000000000000000, 0.0000000000000000000 ) ) ;
#50 = EDGE_CURVE ( 'NONE', #120, #228, #145, .T. ) ;
#51 =( LENGTH_UNIT ( ) NAMED_UNIT ( * ) SI_UNIT ( $, .METRE. ) );
#52 = AXIS2_PLACEMENT_3D ( 'NONE', #2, #141, #101 ) ;
#53 =( CONVERSION_BASED_UNIT ( 'INCH', #3 ) LENGTH_UNIT ( ) NAMED_UNIT ( #124 ) );
#54 = FACE_OUTER_BOUND ( 'NONE', #276, .T. ) ;
#55 = CONICAL_SURFACE ( 'NONE', #297, 0.07874999999999980627, 0.7853981633974466137 ) ;
#56 = VERTEX_POINT ( 'NONE', #28 ) ;
#57 = CARTESIAN_POINT ( 'NONE',  ( 0.0000000000000000000, 0.0000000000000000000, 2.000000000000000000 ) ) ;
#58 = LINE ( 'NONE', #64, #223 ) ;
#59 = ADVANCED_FACE ( 'NONE', ( #298 ), #55, .T. ) ;
#60 = CARTESIAN_POINT ( 'NONE',  ( -0.09365624999999992706, 1.147532321013543253E-17, 0.6250000000000000000 ) ) ;
#61 = CIRCLE ( 'NONE', #289, 0.09375000000000001388 ) ;
#62 = CARTESIAN_POINT ( 'NONE',  ( -0.09365624999999999645, 0.0000000000000000000, 1.146958267826442798E-17 ) ) ;
#63 = EDGE_CURVE ( 'NONE', #271, #133, #219, .T. ) ;
#64 = CARTESIAN_POINT ( 'NONE',  ( 0.09365625000000006584, 0.0000000000000000000, 0.6250000000000000000 ) ) ;
#65 = EDGE_LOOP ( 'NONE', ( #232, #244, #72, #94 ) ) ;
#66 = UNCERTAINTY_MEASURE_WITH_UNIT (LENGTH_MEASURE( 1.000000000000000082E-05 ), #53, 'distance_accuracy_value', 'NONE');
#67 = CONICAL_SURFACE ( 'NONE', #190, 0.09365624999999999645, 0.1745329251994338637 ) ;
#68 = VECTOR ( 'NONE', #284, 39.37007874015748143 ) ;
#69 = ORIENTED_EDGE ( 'NONE', *, *, #153, .T. ) ;
#70 = PRODUCT_DEFINITION_CONTEXT ( 'detailed design', #199, 'design' ) ;
#71 = ORIENTED_EDGE ( 'NONE', *, *, #25, .T. ) ;
#72 = ORIENTED_EDGE ( 'NONE', *, *, #75, .T. ) ;
#73 = CARTESIAN_POINT ( 'NONE',  ( 0.0000000000000000000, 0.0000000000000000000, 1.984999999999999654 ) ) ;
#74 = VECTOR ( 'NONE', #127, 39.37007874015747433 ) ;
#75 = EDGE_CURVE ( 'NONE', #133, #211, #38, .T. ) ;
#76 = DIRECTION ( 'NONE',  ( -1.000000000000000000, 0.0000000000000000000, 0.0000000000000000000 ) ) ;
#77 = AXIS2_PLACEMENT_3D ( 'NONE', #225, #222, #200 ) ;
#78 = APPLICATION_CONTEXT ( 'automotive_design' ) ;
#79 = SURFACE_STYLE_FILL_AREA ( #27 ) ;
#80 = CARTESIAN_POINT ( 'NONE',  ( 0.0000000000000000000, 0.0000000000000000000, 2.000000000000000000 ) ) ;
#81 = ADVANCED_BREP_SHAPE_REPRESENTATION ( 'Micro_GEM-187-2', ( #26, #137 ), #8 ) ;
#82 = ORIENTED_EDGE ( 'NONE', *, *, #75, .F. ) ;
#83 = CARTESIAN_POINT ( 'NONE',  ( 0.0000000000000000000, 0.0000000000000000000, 2.000000000000000000 ) ) ;
#84 = CIRCLE ( 'NONE', #273, 0.09365624999999999645 ) ;
#85 = DIRECTION ( 'NONE',  ( 1.000000000000000000, 0.0000000000000000000, 0.0000000000000000000 ) ) ;
#86 = PRODUCT ( 'Micro_GEM-187-2', 'Micro_GEM-187-2', '', ( #45 ) ) ;
#87 = DIRECTION ( 'NONE',  ( -1.224646799147353207E-16, -0.0000000000000000000, -1.000000000000000000 ) ) ;
#88 = CARTESIAN_POINT ( 'NONE',  ( 0.09365624999999999645, 1.146958267826442798E-17, 0.0000000000000000000 ) ) ;
#89 = VECTOR ( 'NONE', #231, 39.37007874015748143 ) ;
#90 = CARTESIAN_POINT ( 'NONE',  ( 0.0000000000000000000, 0.0000000000000000000, 0.0000000000000000000 ) ) ;
#91 = UNCERTAINTY_MEASURE_WITH_UNIT (LENGTH_MEASURE( 1.000000000000000082E-05 ), #176, 'distance_accuracy_value', 'NONE');
#92 = SHAPE_DEFINITION_REPRESENTATION ( #189, #81 ) ;
#93 = LINE ( 'NONE', #246, #89 ) ;
#94 = ORIENTED_EDGE ( 'NONE', *, *, #149, .F. ) ;
#95 = EDGE_LOOP ( 'NONE', ( #205, #39, #157, #295 ) ) ;
#96 = CARTESIAN_POINT ( 'NONE',  ( 7.654042494670957853E-17, 0.0000000000000000000, 0.6250000000000000000 ) ) ;
#97 = EDGE_CURVE ( 'NONE', #271, #152, #192, .T. ) ;
#98 = DIRECTION ( 'NONE',  ( -1.224646799147353207E-16, -0.0000000000000000000, -1.000000000000000000 ) ) ;
#99 = STYLED_ITEM ( 'NONE', ( #257 ), #26 ) ;
#100 = DIRECTION ( 'NONE',  ( -1.000000000000000000, 0.0000000000000000000, 1.224646799147352961E-16 ) ) ;
#101 = DIRECTION ( 'NONE',  ( -1.000000000000000000, 0.0000000000000000000, 1.224646799147352961E-16 ) ) ;
#102 = PRODUCT_DEFINITION ( 'UNKNOWN', '', #256, #70 ) ;
#103 = DIRECTION ( 'NONE',  ( -1.224646799147353207E-16, -0.0000000000000000000, -1.000000000000000000 ) ) ;
#104 = DIRECTION ( 'NONE',  ( 1.000000000000000000, 0.0000000000000000000, 0.0000000000000000000 ) ) ;
#105 = ADVANCED_FACE ( 'NONE', ( #283 ), #280, .T. ) ;
#106 = LENGTH_MEASURE_WITH_UNIT ( LENGTH_MEASURE( 0.02539999999999999897 ), #32 );
#107 = DIRECTION ( 'NONE',  ( -1.224646799147353207E-16, -0.0000000000000000000, -1.000000000000000000 ) ) ;
#108 = DIRECTION ( 'NONE',  ( 0.0000000000000000000, 0.0000000000000000000, 1.000000000000000000 ) ) ;
#109 = FACE_OUTER_BOUND ( 'NONE', #21, .T. ) ;
#110 = CONICAL_SURFACE ( 'NONE', #213, 0.07874999999999980627, 0.7853981633974466137 ) ;
#111 = FILL_AREA_STYLE_COLOUR ( '', #267 ) ;
#112 = VERTEX_POINT ( 'NONE', #253 ) ;
#113 = ADVANCED_FACE ( 'NONE', ( #142 ), #279, .T. ) ;
#114 = EDGE_LOOP ( 'NONE', ( #210, #20, #269, #227 ) ) ;
#115 = SURFACE_STYLE_USAGE ( .BOTH. , #182 ) ;
#116 = CONICAL_SURFACE ( 'NONE', #245, 0.09365624999999999645, 0.1745329251994338637 ) ;
#117 = DIMENSIONAL_EXPONENTS ( 1.000000000000000000, 0.0000000000000000000, 0.0000000000000000000, 0.0000000000000000000, 0.0000000000000000000, 0.0000000000000000000, 0.0000000000000000000 ) ;
#118 = ORIENTED_EDGE ( 'NONE', *, *, #153, .F. ) ;
#119 = ORIENTED_EDGE ( 'NONE', *, *, #50, .F. ) ;
#120 = VERTEX_POINT ( 'NONE', #163 ) ;
#121 = VECTOR ( 'NONE', #150, 39.37007874015748143 ) ;
#122 = SURFACE_SIDE_STYLE ('',( #79 ) ) ;
#123 =( NAMED_UNIT ( * ) SI_UNIT ( $, .STERADIAN. ) SOLID_ANGLE_UNIT ( ) );
#124 = DIMENSIONAL_EXPONENTS ( 1.000000000000000000, 0.0000000000000000000, 0.0000000000000000000, 0.0000000000000000000, 0.0000000000000000000, 0.0000000000000000000, 0.0000000000000000000 ) ;
#125 = CARTESIAN_POINT ( 'NONE',  ( -0.09365624999999992706, 1.146958267826442798E-17, 0.6250000000000000000 ) ) ;
#126 = AXIS2_PLACEMENT_3D ( 'NONE', #80, #144, #49 ) ;
#127 = DIRECTION ( 'NONE',  ( -0.1736481776669311639, 2.126576849575783008E-17, 0.9848077530122080203 ) ) ;
#128 = EDGE_CURVE ( 'NONE', #152, #228, #254, .T. ) ;
#129 = DIRECTION ( 'NONE',  ( -1.000000000000000000, 0.0000000000000000000, 0.0000000000000000000 ) ) ;
#130 = CARTESIAN_POINT ( 'NONE',  ( 0.09365625000000006584, 0.0000000000000000000, 0.6250000000000000000 ) ) ;
#131 = DIRECTION ( 'NONE',  ( 1.224646799147353207E-16, 0.0000000000000000000, 1.000000000000000000 ) ) ;
#132 = DIRECTION ( 'NONE',  ( -1.000000000000000000, 0.0000000000000000000, 1.224646799147352961E-16 ) ) ;
#133 = VERTEX_POINT ( 'NONE', #35 ) ;
#134 = ADVANCED_FACE ( 'NONE', ( #109 ), #268, .T. ) ;
#135 = DIRECTION ( 'NONE',  ( 1.000000000000000000, 0.0000000000000000000, 0.0000000000000000000 ) ) ;
#136 = ORIENTED_EDGE ( 'NONE', *, *, #272, .F. ) ;
#137 = AXIS2_PLACEMENT_3D ( 'NONE', #179, #207, #14 ) ;
#138 = LINE ( 'NONE', #293, #194 ) ;
#139 = ORIENTED_EDGE ( 'NONE', *, *, #212, .T. ) ;
#140 = DIRECTION ( 'NONE',  ( 0.0000000000000000000, 0.0000000000000000000, -1.000000000000000000 ) ) ;
#141 = DIRECTION ( 'NONE',  ( -1.224646799147353207E-16, -0.0000000000000000000, -1.000000000000000000 ) ) ;
#142 = FACE_OUTER_BOUND ( 'NONE', #291, .T. ) ;
#143 = CARTESIAN_POINT ( 'NONE',  ( 1.404618771449245766E-33, 0.0000000000000000000, 1.146958267826442798E-17 ) ) ;
#144 = DIRECTION ( 'NONE',  ( -0.0000000000000000000, -0.0000000000000000000, -1.000000000000000000 ) ) ;
#145 = CIRCLE ( 'NONE', #262, 0.09365624999999999645 ) ;
#146 = DIRECTION ( 'NONE',  ( -0.0000000000000000000, -0.0000000000000000000, -1.000000000000000000 ) ) ;
#147 = CARTESIAN_POINT ( 'NONE',  ( 7.660553729477949085E-17, 0.0000000000000000000, 0.6255316826705892286 ) ) ;
#148 = DIRECTION ( 'NONE',  ( 1.000000000000000000, 0.0000000000000000000, 0.0000000000000000000 ) ) ;
#149 = EDGE_CURVE ( 'NONE', #152, #211, #58, .T. ) ;
#150 = DIRECTION ( 'NONE',  ( -1.224646799147353207E-16, -0.0000000000000000000, -1.000000000000000000 ) ) ;
#151 = DIRECTION ( 'NONE',  ( 0.1736481776669313581, 0.0000000000000000000, 0.9848077530122077983 ) ) ;
#152 = VERTEX_POINT ( 'NONE', #130 ) ;
#153 = EDGE_CURVE ( 'NONE', #211, #133, #154, .T. ) ;
#154 = CIRCLE ( 'NONE', #34, 0.09375000000000001388 ) ;
#155 = DIRECTION ( 'NONE',  ( 0.7071067811865463515, 8.659560562354916834E-17, -0.7071067811865486830 ) ) ;
#156 =( NAMED_UNIT ( * ) PLANE_ANGLE_UNIT ( ) SI_UNIT ( $, .RADIAN. ) );
#157 = ORIENTED_EDGE ( 'NONE', *, *, #10, .T. ) ;
#158 = ADVANCED_FACE ( 'NONE', ( #286 ), #110, .T. ) ;
#159 = ORIENTED_EDGE ( 'NONE', *, *, #174, .F. ) ;
#160 =( NAMED_UNIT ( * ) SI_UNIT ( $, .STERADIAN. ) SOLID_ANGLE_UNIT ( ) );
#161 = ORIENTED_EDGE ( 'NONE', *, *, #128, .T. ) ;
#162 = CARTESIAN_POINT ( 'NONE',  ( 7.660553729477949085E-17, 0.0000000000000000000, 0.6255316826705892286 ) ) ;
#163 = CARTESIAN_POINT ( 'NONE',  ( -0.09365624999999999645, 0.0000000000000000000, 2.293916535652885596E-17 ) ) ;
#164 = EDGE_CURVE ( 'NONE', #271, #120, #242, .T. ) ;
#165 = CYLINDRICAL_SURFACE ( 'NONE', #52, 0.09365624999999999645 ) ;
#166 = AXIS2_PLACEMENT_3D ( 'NONE', #22, #237, #214 ) ;
#167 = MECHANICAL_DESIGN_GEOMETRIC_PRESENTATION_REPRESENTATION (  '', ( #281 ), #172 ) ;
#168 = CARTESIAN_POINT ( 'NONE',  ( 0.0000000000000000000, 0.0000000000000000000, 0.0000000000000000000 ) ) ;
#169 = CARTESIAN_POINT ( 'NONE',  ( 0.0000000000000000000, 0.0000000000000000000, 1.984999999999999654 ) ) ;
#170 = FACE_OUTER_BOUND ( 'NONE', #249, .T. ) ;
#171 = DIRECTION ( 'NONE',  ( 0.0000000000000000000, 0.0000000000000000000, -1.000000000000000000 ) ) ;
#172 =( GEOMETRIC_REPRESENTATION_CONTEXT ( 3 ) GLOBAL_UNCERTAINTY_ASSIGNED_CONTEXT ( ( #91 ) ) GLOBAL_UNIT_ASSIGNED_CONTEXT ( ( #176, #40, #42 ) ) REPRESENTATION_CONTEXT ( 'NONE', 'WORKASPACE' ) );
#173 = CARTESIAN_POINT ( 'NONE',  ( 0.09375000000000006939, 1.148106374200644633E-17, 0.6255316826705892286 ) ) ;
#174 = EDGE_CURVE ( 'NONE', #46, #133, #198, .T. ) ;
#175 = ORIENTED_EDGE ( 'NONE', *, *, #212, .F. ) ;
#176 =( CONVERSION_BASED_UNIT ( 'INCH', #274 ) LENGTH_UNIT ( ) NAMED_UNIT ( #299 ) );
#177 = VERTEX_POINT ( 'NONE', #193 ) ;
#178 = AXIS2_PLACEMENT_3D ( 'NONE', #169, #171, #288 ) ;
#179 = CARTESIAN_POINT ( 'NONE',  ( 0.0000000000000000000, 0.0000000000000000000, 0.0000000000000000000 ) ) ;
#180 = ORIENTED_EDGE ( 'NONE', *, *, #272, .T. ) ;
#181 = ORIENTED_EDGE ( 'NONE', *, *, #239, .T. ) ;
#182 = SURFACE_SIDE_STYLE ('',( #226 ) ) ;
#183 = ORIENTED_EDGE ( 'NONE', *, *, #216, .T. ) ;
#184 = CIRCLE ( 'NONE', #24, 0.07874999999999980627 ) ;
#185 = DIRECTION ( 'NONE',  ( -1.224646799147353207E-16, -0.0000000000000000000, -1.000000000000000000 ) ) ;
#186 = ADVANCED_FACE ( 'NONE', ( #170 ), #287, .T. ) ;
#187 = SURFACE_STYLE_USAGE ( .BOTH. , #122 ) ;
#188 = FILL_AREA_STYLE_COLOUR ( '', #201 ) ;
#189 = PRODUCT_DEFINITION_SHAPE ( 'NONE', 'NONE',  #102 ) ;
#190 = AXIS2_PLACEMENT_3D ( 'NONE', #96, #277, #135 ) ;
#191 = DIRECTION ( 'NONE',  ( 1.000000000000000000, 0.0000000000000000000, -0.0000000000000000000 ) ) ;
#192 = CIRCLE ( 'NONE', #30, 0.09365624999999999645 ) ;
#193 = CARTESIAN_POINT ( 'NONE',  ( 0.07874999999999980627, 1.056257864264590573E-17, 2.000000000000000000 ) ) ;
#194 = VECTOR ( 'NONE', #155, 39.37007874015748143 ) ;
#195 =( CONVERSION_BASED_UNIT ( 'INCH', #106 ) LENGTH_UNIT ( ) NAMED_UNIT ( #117 ) );
#196 = CIRCLE ( 'NONE', #178, 0.09375000000000001388 ) ;
#197 = DIRECTION ( 'NONE',  ( 0.0000000000000000000, 0.0000000000000000000, 1.000000000000000000 ) ) ;
#198 = LINE ( 'NONE', #261, #278 ) ;
#199 = APPLICATION_CONTEXT ( 'automotive_design' ) ;
#200 = DIRECTION ( 'NONE',  ( -1.000000000000000000, 0.0000000000000000000, 1.224646799147352961E-16 ) ) ;
#201 = COLOUR_RGB ( '',0.7921568627450980005, 0.8196078431372548767, 0.9333333333333333481 ) ;
#202 = UNCERTAINTY_MEASURE_WITH_UNIT (LENGTH_MEASURE( 1.000000000000000082E-05 ), #195, 'distance_accuracy_value', 'NONE');
#203 = ORIENTED_EDGE ( 'NONE', *, *, #221, .T. ) ;
#204 = APPLICATION_PROTOCOL_DEFINITION ( 'draft international standard', 'automotive_design', 1998, #199 ) ;
#205 = ORIENTED_EDGE ( 'NONE', *, *, #1, .F. ) ;
#206 = CIRCLE ( 'NONE', #234, 0.07874999999999980627 ) ;
#207 = DIRECTION ( 'NONE',  ( 0.0000000000000000000, 0.0000000000000000000, 1.000000000000000000 ) ) ;
#208 = FACE_OUTER_BOUND ( 'NONE', #252, .T. ) ;
#209 = ADVANCED_FACE ( 'NONE', ( #36 ), #116, .T. ) ;
#210 = ORIENTED_EDGE ( 'NONE', *, *, #216, .F. ) ;
#211 = VERTEX_POINT ( 'NONE', #173 ) ;
#212 = EDGE_CURVE ( 'NONE', #228, #120, #13, .T. ) ;
#213 = AXIS2_PLACEMENT_3D ( 'NONE', #240, #11, #129 ) ;
#214 = DIRECTION ( 'NONE',  ( -1.000000000000000000, 0.0000000000000000000, 0.0000000000000000000 ) ) ;
#215 = CARTESIAN_POINT ( 'NONE',  ( -0.09375000000000001388, 0.0000000000000000000, 1.984999999999999654 ) ) ;
#216 = EDGE_CURVE ( 'NONE', #177, #56, #184, .T. ) ;
#217 = DIRECTION ( 'NONE',  ( 1.000000000000000000, 0.0000000000000000000, 0.0000000000000000000 ) ) ;
#218 = MECHANICAL_DESIGN_GEOMETRIC_PRESENTATION_REPRESENTATION (  '', ( #99 ), #230 ) ;
#219 = LINE ( 'NONE', #125, #74 ) ;
#220 = DIRECTION ( 'NONE',  ( -1.224646799147353207E-16, -0.0000000000000000000, -1.000000000000000000 ) ) ;
#221 = EDGE_CURVE ( 'NONE', #152, #271, #84, .T. ) ;
#222 = DIRECTION ( 'NONE',  ( -1.224646799147353207E-16, -0.0000000000000000000, -1.000000000000000000 ) ) ;
#223 = VECTOR ( 'NONE', #151, 39.37007874015748143 ) ;
#224 = DIRECTION ( 'NONE',  ( -1.224646799147353207E-16, -0.0000000000000000000, -1.000000000000000000 ) ) ;
#225 = CARTESIAN_POINT ( 'NONE',  ( 1.404618771449245766E-33, 0.0000000000000000000, 1.146958267826442798E-17 ) ) ;
#226 = SURFACE_STYLE_FILL_AREA ( #270 ) ;
#227 = ORIENTED_EDGE ( 'NONE', *, *, #10, .F. ) ;
#228 = VERTEX_POINT ( 'NONE', #88 ) ;
#229 = ORIENTED_EDGE ( 'NONE', *, *, #221, .F. ) ;
#230 =( GEOMETRIC_REPRESENTATION_CONTEXT ( 3 ) GLOBAL_UNCERTAINTY_ASSIGNED_CONTEXT ( ( #66 ) ) GLOBAL_UNIT_ASSIGNED_CONTEXT ( ( #53, #233, #123 ) ) REPRESENTATION_CONTEXT ( 'NONE', 'WORKASPACE' ) );
#231 = DIRECTION ( 'NONE',  ( -0.7071067811865463515, 0.0000000000000000000, -0.7071067811865486830 ) ) ;
#232 = ORIENTED_EDGE ( 'NONE', *, *, #97, .F. ) ;
#233 =( NAMED_UNIT ( * ) PLANE_ANGLE_UNIT ( ) SI_UNIT ( $, .RADIAN. ) );
#234 = AXIS2_PLACEMENT_3D ( 'NONE', #57, #5, #104 ) ;
#235 = DIRECTION ( 'NONE',  ( 0.0000000000000000000, 0.0000000000000000000, 1.000000000000000000 ) ) ;
#236 = FACE_OUTER_BOUND ( 'NONE', #15, .T. ) ;
#237 = DIRECTION ( 'NONE',  ( -0.0000000000000000000, -0.0000000000000000000, -1.000000000000000000 ) ) ;
#238 = AXIS2_PLACEMENT_3D ( 'NONE', #162, #185, #217 ) ;
#239 = EDGE_CURVE ( 'NONE', #112, #46, #196, .T. ) ;
#240 = CARTESIAN_POINT ( 'NONE',  ( 0.0000000000000000000, 0.0000000000000000000, 2.000000000000000000 ) ) ;
#241 = CARTESIAN_POINT ( 'NONE',  ( 0.09375000000000001388, 1.148106374200643863E-17, 2.000000000000000000 ) ) ;
#242 = LINE ( 'NONE', #62, #290 ) ;
#243 = DIRECTION ( 'NONE',  ( -1.000000000000000000, 0.0000000000000000000, 0.0000000000000000000 ) ) ;
#244 = ORIENTED_EDGE ( 'NONE', *, *, #63, .T. ) ;
#245 = AXIS2_PLACEMENT_3D ( 'NONE', #33, #131, #266 ) ;
#246 = CARTESIAN_POINT ( 'NONE',  ( -0.07874999999999980627, 0.0000000000000000000, 2.000000000000000000 ) ) ;
#247 = APPLICATION_PROTOCOL_DEFINITION ( 'draft international standard', 'automotive_design', 1998, #78 ) ;
#248 = ORIENTED_EDGE ( 'NONE', *, *, #50, .T. ) ;
#249 = EDGE_LOOP ( 'NONE', ( #296, #161, #119, #275 ) ) ;
#250 = AXIS2_PLACEMENT_3D ( 'NONE', #83, #197, #9 ) ;
#251 = PRESENTATION_STYLE_ASSIGNMENT (( #115 ) ) ;
#252 = EDGE_LOOP ( 'NONE', ( #41, #229, #6, #69 ) ) ;
#253 = CARTESIAN_POINT ( 'NONE',  ( 0.09375000000000001388, 1.148106374200643863E-17, 1.984999999999999654 ) ) ;
#254 = LINE ( 'NONE', #263, #121 ) ;
#255 = AXIS2_PLACEMENT_3D ( 'NONE', #168, #235, #191 ) ;
#256 = PRODUCT_DEFINITION_FORMATION_WITH_SPECIFIED_SOURCE ( 'ANY', '', #86, .NOT_KNOWN. ) ;
#257 = PRESENTATION_STYLE_ASSIGNMENT (( #187 ) ) ;
#258 = DIRECTION ( 'NONE',  ( 1.000000000000000000, 0.0000000000000000000, 0.0000000000000000000 ) ) ;
#259 = DIRECTION ( 'NONE',  ( -1.000000000000000000, 0.0000000000000000000, 0.0000000000000000000 ) ) ;
#260 = ORIENTED_EDGE ( 'NONE', *, *, #128, .F. ) ;
#261 = CARTESIAN_POINT ( 'NONE',  ( -0.09375000000000001388, 0.0000000000000000000, 2.000000000000000000 ) ) ;
#262 = AXIS2_PLACEMENT_3D ( 'NONE', #143, #98, #100 ) ;
#263 = CARTESIAN_POINT ( 'NONE',  ( 0.09365624999999999645, 1.146958267826442798E-17, -1.146958267826442798E-17 ) ) ;
#264 = CARTESIAN_POINT ( 'NONE',  ( 7.654042494670957853E-17, 0.0000000000000000000, 0.6250000000000000000 ) ) ;
#265 = PRODUCT_RELATED_PRODUCT_CATEGORY ( 'part', '', ( #86 ) ) ;
#266 = DIRECTION ( 'NONE',  ( 1.000000000000000000, 0.0000000000000000000, 0.0000000000000000000 ) ) ;
#267 = COLOUR_RGB ( '',0.7921568627450980005, 0.8196078431372548767, 0.9333333333333333481 ) ;
#268 = PLANE ( 'NONE',  #250 ) ;
#269 = ORIENTED_EDGE ( 'NONE', *, *, #25, .F. ) ;
#270 = FILL_AREA_STYLE ('',( #111 ) ) ;
#271 = VERTEX_POINT ( 'NONE', #60 ) ;
#272 = EDGE_CURVE ( 'NONE', #112, #211, #37, .T. ) ;
#273 = AXIS2_PLACEMENT_3D ( 'NONE', #264, #224, #243 ) ;
#274 = LENGTH_MEASURE_WITH_UNIT ( LENGTH_MEASURE( 0.02539999999999999897 ), #12 );
#275 = ORIENTED_EDGE ( 'NONE', *, *, #164, .F. ) ;
#276 = EDGE_LOOP ( 'NONE', ( #260, #203, #18, #175 ) ) ;
#277 = DIRECTION ( 'NONE',  ( 1.224646799147353207E-16, 0.0000000000000000000, 1.000000000000000000 ) ) ;
#278 = VECTOR ( 'NONE', #146, 39.37007874015748143 ) ;
#279 = CYLINDRICAL_SURFACE ( 'NONE', #166, 0.09375000000000001388 ) ;
#280 = CYLINDRICAL_SURFACE ( 'NONE', #126, 0.09375000000000001388 ) ;
#281 = STYLED_ITEM ( 'NONE', ( #251 ), #81 ) ;
#282 = CARTESIAN_POINT ( 'NONE',  ( 0.0000000000000000000, 0.0000000000000000000, 2.000000000000000000 ) ) ;
#283 = FACE_OUTER_BOUND ( 'NONE', #43, .T. ) ;
#284 = DIRECTION ( 'NONE',  ( -0.0000000000000000000, -0.0000000000000000000, -1.000000000000000000 ) ) ;
#285 = PRESENTATION_LAYER_ASSIGNMENT (  '', '', ( #99 ) ) ;
#286 = FACE_OUTER_BOUND ( 'NONE', #95, .T. ) ;
#287 = CYLINDRICAL_SURFACE ( 'NONE', #47, 0.09365624999999999645 ) ;
#288 = DIRECTION ( 'NONE',  ( 1.000000000000000000, 0.0000000000000000000, 0.0000000000000000000 ) ) ;
#289 = AXIS2_PLACEMENT_3D ( 'NONE', #73, #48, #258 ) ;
#290 = VECTOR ( 'NONE', #87, 39.37007874015748143 ) ;
#291 = EDGE_LOOP ( 'NONE', ( #71, #180, #82, #159 ) ) ;
#292 = ORIENTED_EDGE ( 'NONE', *, *, #174, .T. ) ;
#293 = CARTESIAN_POINT ( 'NONE',  ( 0.07874999999999980627, 9.644093543285380530E-18, 2.000000000000000000 ) ) ;
#294 = EDGE_CURVE ( 'NONE', #56, #177, #206, .T. ) ;
#295 = ORIENTED_EDGE ( 'NONE', *, *, #239, .F. ) ;
#296 = ORIENTED_EDGE ( 'NONE', *, *, #97, .T. ) ;
#297 = AXIS2_PLACEMENT_3D ( 'NONE', #282, #140, #259 ) ;
#298 = FACE_OUTER_BOUND ( 'NONE', #114, .T. ) ;
#299 = DIMENSIONAL_EXPONENTS ( 1.000000000000000000, 0.0000000000000000000, 0.0000000000000000000, 0.0000000000000000000, 0.0000000000000000000, 0.0000000000000000000, 0.0000000000000000000 ) ;
ENDSEC;
END-ISO-10303-21;
