ISO-10303-21;
HEADER;
FILE_DESCRIPTION (( 'STEP AP214' ),
    '1' );
FILE_NAME ('Micro_SBMM-060-248X.STEP',
    '2021-09-02T17:12:58',
    ( '' ),
    ( '' ),
    'SwSTEP 2.0',
    'SolidWorks 2020',
    '' );
FILE_SCHEMA (( 'AUTOMOTIVE_DESIGN' ));
ENDSEC;

DATA;
#1 = CARTESIAN_POINT ( 'NONE',  ( 0.0000000000000000000, 0.0000000000000000000, 3.937007999999999619 ) ) ;
#2 = CARTESIAN_POINT ( 'NONE',  ( 0.0000000000000000000, 0.0000000000000000000, 1.732283000000000017 ) ) ;
#3 = AXIS2_PLACEMENT_3D ( 'NONE', #211, #62, #8 ) ;
#4 = DIRECTION ( 'NONE',  ( 1.000000000000000000, 0.0000000000000000000, 0.0000000000000000000 ) ) ;
#5 = COLOUR_RGB ( '',0.7921568627450980005, 0.8196078431372548767, 0.9333333333333333481 ) ;
#6 = SPHERICAL_SURFACE ( 'NONE', #98, 0.1181099999999999928 ) ;
#7 = ADVANCED_FACE ( 'NONE', ( #50 ), #151, .T. ) ;
#8 = DIRECTION ( 'NONE',  ( 1.000000000000000000, 0.0000000000000000000, 0.0000000000000000000 ) ) ;
#9 = UNCERTAINTY_MEASURE_WITH_UNIT (LENGTH_MEASURE( 1.000000000000000082E-05 ), #64, 'distance_accuracy_value', 'NONE');
#10 = AXIS2_PLACEMENT_3D ( 'NONE', #220, #121, #42 ) ;
#11 = DIRECTION ( 'NONE',  ( -0.0000000000000000000, -0.0000000000000000000, -1.000000000000000000 ) ) ;
#12 =( GEOMETRIC_REPRESENTATION_CONTEXT ( 3 ) GLOBAL_UNCERTAINTY_ASSIGNED_CONTEXT ( ( #9 ) ) GLOBAL_UNIT_ASSIGNED_CONTEXT ( ( #64, #307, #127 ) ) REPRESENTATION_CONTEXT ( 'NONE', 'WORKASPACE' ) );
#13 = EDGE_CURVE ( 'NONE', #326, #200, #28, .T. ) ;
#14 = FILL_AREA_STYLE ('',( #222 ) ) ;
#15 = ORIENTED_EDGE ( 'NONE', *, *, #313, .T. ) ;
#16 = CARTESIAN_POINT ( 'NONE',  ( -0.1031100000000005484, 0.0000000000000000000, 3.937007999999999619 ) ) ;
#17 = EDGE_LOOP ( 'NONE', ( #278, #310, #15, #25 ) ) ;
#18 = FACE_OUTER_BOUND ( 'NONE', #133, .T. ) ;
#19 = EDGE_CURVE ( 'NONE', #282, #128, #229, .T. ) ;
#20 = VERTEX_POINT ( 'NONE', #232 ) ;
#21 = PRODUCT_DEFINITION_SHAPE ( 'NONE', 'NONE',  #44 ) ;
#22 = ORIENTED_EDGE ( 'NONE', *, *, #342, .F. ) ;
#23 = VECTOR ( 'NONE', #80, 39.37007874015748143 ) ;
#24 = EDGE_CURVE ( 'NONE', #260, #100, #233, .T. ) ;
#25 = ORIENTED_EDGE ( 'NONE', *, *, #160, .F. ) ;
#26 = ORIENTED_EDGE ( 'NONE', *, *, #181, .T. ) ;
#27 =( LENGTH_UNIT ( ) NAMED_UNIT ( * ) SI_UNIT ( $, .METRE. ) );
#28 = LINE ( 'NONE', #53, #23 ) ;
#29 = AXIS2_PLACEMENT_3D ( 'NONE', #159, #264, #188 ) ;
#30 = CIRCLE ( 'NONE', #193, 0.07873999999999985178 ) ;
#31 = DIRECTION ( 'NONE',  ( -1.000000000000000000, 0.0000000000000000000, 0.0000000000000000000 ) ) ;
#32 = DIRECTION ( 'NONE',  ( -1.000000000000000000, 0.0000000000000000000, 0.0000000000000000000 ) ) ;
#33 = CARTESIAN_POINT ( 'NONE',  ( 0.0000000000000000000, 0.0000000000000000000, 3.937007999999999619 ) ) ;
#34 = CARTESIAN_POINT ( 'NONE',  ( 9.642868896486255427E-18, -0.07873999999999996280, 0.2061439962741667686 ) ) ;
#35 = PRESENTATION_LAYER_ASSIGNMENT (  '', '', ( #324 ) ) ;
#36 = DIRECTION ( 'NONE',  ( -0.0000000000000000000, -0.0000000000000000000, -1.000000000000000000 ) ) ;
#37 = LINE ( 'NONE', #66, #338 ) ;
#38 = AXIS2_PLACEMENT_3D ( 'NONE', #33, #136, #135 ) ;
#39 = ORIENTED_EDGE ( 'NONE', *, *, #131, .T. ) ;
#40 = CARTESIAN_POINT ( 'NONE',  ( 0.0000000000000000000, 0.0000000000000000000, 0.1181100000000000066 ) ) ;
#41 = EDGE_LOOP ( 'NONE', ( #171, #218, #328, #272 ) ) ;
#42 = DIRECTION ( 'NONE',  ( -1.000000000000000000, 0.0000000000000000000, 0.0000000000000000000 ) ) ;
#43 =( LENGTH_UNIT ( ) NAMED_UNIT ( * ) SI_UNIT ( $, .METRE. ) );
#44 = PRODUCT_DEFINITION ( 'UNKNOWN', '', #63, #89 ) ;
#45 = AXIS2_PLACEMENT_3D ( 'NONE', #124, #315, #129 ) ;
#46 = VERTEX_POINT ( 'NONE', #74 ) ;
#47 = ORIENTED_EDGE ( 'NONE', *, *, #114, .F. ) ;
#48 = ORIENTED_EDGE ( 'NONE', *, *, #24, .T. ) ;
#49 = EDGE_CURVE ( 'NONE', #155, #128, #102, .T. ) ;
#50 = FACE_OUTER_BOUND ( 'NONE', #259, .T. ) ;
#51 = AXIS2_PLACEMENT_3D ( 'NONE', #1, #36, #31 ) ;
#52 = EDGE_LOOP ( 'NONE', ( #90, #304 ) ) ;
#53 = CARTESIAN_POINT ( 'NONE',  ( 0.07873999999999992117, 9.642868896486249264E-18, 0.0000000000000000000 ) ) ;
#54 = CARTESIAN_POINT ( 'NONE',  ( 0.0000000000000000000, 0.07873999999999996280, 0.2061439962741667686 ) ) ;
#55 = ADVANCED_FACE ( 'NONE', ( #236 ), #312, .T. ) ;
#56 = AXIS2_PLACEMENT_3D ( 'NONE', #303, #199, #271 ) ;
#57 = CARTESIAN_POINT ( 'NONE',  ( 0.0000000000000000000, 0.0000000000000000000, 1.874014999999996212 ) ) ;
#58 = DIRECTION ( 'NONE',  ( -0.0000000000000000000, -0.0000000000000000000, -1.000000000000000000 ) ) ;
#59 = ADVANCED_FACE ( 'NONE', ( #345 ), #257, .T. ) ;
#60 = DIRECTION ( 'NONE',  ( -1.000000000000000000, 0.0000000000000000000, 0.0000000000000000000 ) ) ;
#61 = CIRCLE ( 'NONE', #79, 0.07873999999999996280 ) ;
#62 = DIRECTION ( 'NONE',  ( 0.0000000000000000000, 0.0000000000000000000, -1.000000000000000000 ) ) ;
#63 = PRODUCT_DEFINITION_FORMATION_WITH_SPECIFIED_SOURCE ( 'ANY', '', #292, .NOT_KNOWN. ) ;
#64 =( CONVERSION_BASED_UNIT ( 'INCH', #300 ) LENGTH_UNIT ( ) NAMED_UNIT ( #279 ) );
#65 = ORIENTED_EDGE ( 'NONE', *, *, #152, .T. ) ;
#66 = CARTESIAN_POINT ( 'NONE',  ( 0.1181100000000000344, 1.446430334472939084E-17, 3.937007999999999619 ) ) ;
#67 = ORIENTED_EDGE ( 'NONE', *, *, #19, .F. ) ;
#68 = EDGE_CURVE ( 'NONE', #195, #123, #336, .T. ) ;
#69 = DIRECTION ( 'NONE',  ( -0.0000000000000000000, -0.0000000000000000000, -1.000000000000000000 ) ) ;
#70 = CIRCLE ( 'NONE', #196, 0.1181100000000000344 ) ;
#71 = DIRECTION ( 'NONE',  ( 0.0000000000000000000, 0.0000000000000000000, 1.000000000000000000 ) ) ;
#72 = ORIENTED_EDGE ( 'NONE', *, *, #252, .F. ) ;
#73 =( CONVERSION_BASED_UNIT ( 'INCH', #99 ) LENGTH_UNIT ( ) NAMED_UNIT ( #186 ) );
#74 = CARTESIAN_POINT ( 'NONE',  ( 0.1181100000000000344, 0.0000000000000000000, 1.732283000000000017 ) ) ;
#75 = EDGE_CURVE ( 'NONE', #200, #195, #104, .T. ) ;
#76 = FILL_AREA_STYLE ('',( #258 ) ) ;
#77 = VERTEX_POINT ( 'NONE', #320 ) ;
#78 = ORIENTED_EDGE ( 'NONE', *, *, #238, .T. ) ;
#79 = AXIS2_PLACEMENT_3D ( 'NONE', #86, #84, #185 ) ;
#80 = DIRECTION ( 'NONE',  ( -0.0000000000000000000, -0.0000000000000000000, -1.000000000000000000 ) ) ;
#81 = ORIENTED_EDGE ( 'NONE', *, *, #49, .T. ) ;
#82 = DIRECTION ( 'NONE',  ( -1.000000000000000000, 0.0000000000000000000, 0.0000000000000000000 ) ) ;
#83 = CIRCLE ( 'NONE', #322, 0.1181100000000000344 ) ;
#84 = DIRECTION ( 'NONE',  ( -0.0000000000000000000, -0.0000000000000000000, -1.000000000000000000 ) ) ;
#85 = CARTESIAN_POINT ( 'NONE',  ( -0.07873999999999985178, 1.205358612060781697E-17, 1.259842999999999824 ) ) ;
#86 = CARTESIAN_POINT ( 'NONE',  ( 0.0000000000000000000, 0.0000000000000000000, 0.2061439962741667686 ) ) ;
#87 = VECTOR ( 'NONE', #235, 39.37007874015748143 ) ;
#88 =( NAMED_UNIT ( * ) SI_UNIT ( $, .STERADIAN. ) SOLID_ANGLE_UNIT ( ) );
#89 = PRODUCT_DEFINITION_CONTEXT ( 'detailed design', #228, 'design' ) ;
#90 = ORIENTED_EDGE ( 'NONE', *, *, #165, .T. ) ;
#91 = PRESENTATION_STYLE_ASSIGNMENT (( #95 ) ) ;
#92 = CIRCLE ( 'NONE', #283, 0.1181099999999999789 ) ;
#93 =( CONVERSION_BASED_UNIT ( 'INCH', #253 ) LENGTH_UNIT ( ) NAMED_UNIT ( #105 ) );
#94 =( GEOMETRIC_REPRESENTATION_CONTEXT ( 3 ) GLOBAL_UNCERTAINTY_ASSIGNED_CONTEXT ( ( #299 ) ) GLOBAL_UNIT_ASSIGNED_CONTEXT ( ( #73, #309, #203 ) ) REPRESENTATION_CONTEXT ( 'NONE', 'WORKASPACE' ) );
#95 = SURFACE_STYLE_USAGE ( .BOTH. , #327 ) ;
#96 = ORIENTED_EDGE ( 'NONE', *, *, #342, .T. ) ;
#97 = EDGE_LOOP ( 'NONE', ( #198, #65, #184, #78 ) ) ;
#98 = AXIS2_PLACEMENT_3D ( 'NONE', #162, #138, #242 ) ;
#99 = LENGTH_MEASURE_WITH_UNIT ( LENGTH_MEASURE( 0.02539999999999999897 ), #27 );
#100 = VERTEX_POINT ( 'NONE', #263 ) ;
#101 = CARTESIAN_POINT ( 'NONE',  ( -0.1181100000000000344, 0.0000000000000000000, 3.937007999999999619 ) ) ;
#102 = LINE ( 'NONE', #335, #230 ) ;
#103 = CARTESIAN_POINT ( 'NONE',  ( 0.0000000000000000000, 0.0000000000000000000, 3.937007999999999619 ) ) ;
#104 = CIRCLE ( 'NONE', #187, 0.07873999999999996280 ) ;
#105 = DIMENSIONAL_EXPONENTS ( 1.000000000000000000, 0.0000000000000000000, 0.0000000000000000000, 0.0000000000000000000, 0.0000000000000000000, 0.0000000000000000000, 0.0000000000000000000 ) ;
#106 = EDGE_CURVE ( 'NONE', #46, #128, #344, .T. ) ;
#107 = DIRECTION ( 'NONE',  ( -1.000000000000000000, 0.0000000000000000000, 0.0000000000000000000 ) ) ;
#108 = DIRECTION ( 'NONE',  ( -1.000000000000000000, 0.0000000000000000000, 0.0000000000000000000 ) ) ;
#109 = DIRECTION ( 'NONE',  ( 0.0000000000000000000, 0.0000000000000000000, 1.000000000000000000 ) ) ;
#110 = AXIS2_PLACEMENT_3D ( 'NONE', #287, #202, #107 ) ;
#111 = DIRECTION ( 'NONE',  ( -0.0000000000000000000, -0.0000000000000000000, -1.000000000000000000 ) ) ;
#112 = CARTESIAN_POINT ( 'NONE',  ( 0.07873999999999996280, 9.642868896486255427E-18, 0.2061439962741667686 ) ) ;
#113 = CARTESIAN_POINT ( 'NONE',  ( 0.0000000000000000000, 0.0000000000000000000, 0.2061439962741667686 ) ) ;
#114 = EDGE_CURVE ( 'NONE', #155, #77, #216, .T. ) ;
#115 = AXIS2_PLACEMENT_3D ( 'NONE', #179, #71, #281 ) ;
#116 = DIRECTION ( 'NONE',  ( 0.0000000000000000000, 0.0000000000000000000, 1.000000000000000000 ) ) ;
#117 = ORIENTED_EDGE ( 'NONE', *, *, #302, .T. ) ;
#118 = CARTESIAN_POINT ( 'NONE',  ( 0.1031100000000005484, 1.354581824536890879E-17, 3.937007999999999619 ) ) ;
#119 = ADVANCED_FACE ( 'NONE', ( #189 ), #132, .T. ) ;
#120 = ORIENTED_EDGE ( 'NONE', *, *, #297, .F. ) ;
#121 = DIRECTION ( 'NONE',  ( 0.0000000000000000000, 0.0000000000000000000, -1.000000000000000000 ) ) ;
#122 =( NAMED_UNIT ( * ) PLANE_ANGLE_UNIT ( ) SI_UNIT ( $, .RADIAN. ) );
#123 = VERTEX_POINT ( 'NONE', #294 ) ;
#124 = CARTESIAN_POINT ( 'NONE',  ( 0.0000000000000000000, 0.0000000000000000000, 0.0000000000000000000 ) ) ;
#125 = EDGE_CURVE ( 'NONE', #180, #200, #61, .T. ) ;
#126 = AXIS2_PLACEMENT_3D ( 'NONE', #319, #111, #323 ) ;
#127 =( NAMED_UNIT ( * ) SI_UNIT ( $, .STERADIAN. ) SOLID_ANGLE_UNIT ( ) );
#128 = VERTEX_POINT ( 'NONE', #266 ) ;
#129 = DIRECTION ( 'NONE',  ( -1.000000000000000000, 0.0000000000000000000, 0.0000000000000000000 ) ) ;
#130 = ORIENTED_EDGE ( 'NONE', *, *, #238, .F. ) ;
#131 = EDGE_CURVE ( 'NONE', #100, #282, #150, .T. ) ;
#132 = CONICAL_SURFACE ( 'NONE', #269, 0.1299209999999997589, 0.08314123188844159407 ) ;
#133 = EDGE_LOOP ( 'NONE', ( #26, #96, #276, #67 ) ) ;
#134 = DIRECTION ( 'NONE',  ( -1.000000000000000000, 0.0000000000000000000, 0.0000000000000000000 ) ) ;
#135 = DIRECTION ( 'NONE',  ( 1.000000000000000000, 0.0000000000000000000, 0.0000000000000000000 ) ) ;
#136 = DIRECTION ( 'NONE',  ( 0.0000000000000000000, 0.0000000000000000000, 1.000000000000000000 ) ) ;
#137 = CIRCLE ( 'NONE', #192, 0.07873999999999985178 ) ;
#138 = DIRECTION ( 'NONE',  ( 1.000000000000000000, 0.0000000000000000000, 0.0000000000000000000 ) ) ;
#139 = CARTESIAN_POINT ( 'NONE',  ( -0.07873999999999992117, 0.0000000000000000000, 0.0000000000000000000 ) ) ;
#140 = LINE ( 'NONE', #16, #289 ) ;
#141 = ORIENTED_EDGE ( 'NONE', *, *, #114, .T. ) ;
#142 = VECTOR ( 'NONE', #341, 39.37007874015748854 ) ;
#143 = DIRECTION ( 'NONE',  ( 0.0000000000000000000, 0.0000000000000000000, 1.000000000000000000 ) ) ;
#144 = DIRECTION ( 'NONE',  ( 1.000000000000000000, 0.0000000000000000000, 0.0000000000000000000 ) ) ;
#145 = SPHERICAL_SURFACE ( 'NONE', #201, 0.1181099999999999928 ) ;
#146 = AXIS2_PLACEMENT_3D ( 'NONE', #293, #58, #60 ) ;
#147 = ORIENTED_EDGE ( 'NONE', *, *, #152, .F. ) ;
#148 = SURFACE_STYLE_USAGE ( .BOTH. , #286 ) ;
#149 = ORIENTED_EDGE ( 'NONE', *, *, #19, .T. ) ;
#150 = CIRCLE ( 'NONE', #3, 0.1181100000000000344 ) ;
#151 = CYLINDRICAL_SURFACE ( 'NONE', #45, 0.07873999999999992117 ) ;
#152 = EDGE_CURVE ( 'NONE', #195, #77, #217, .T. ) ;
#153 = CARTESIAN_POINT ( 'NONE',  ( 0.0000000000000000000, 0.0000000000000000000, 0.1181100000000000066 ) ) ;
#154 = SHAPE_DEFINITION_REPRESENTATION ( #21, #331 ) ;
#155 = VERTEX_POINT ( 'NONE', #85 ) ;
#156 = CONICAL_SURFACE ( 'NONE', #10, 0.1031100000000005484, 0.7853981633974410625 ) ;
#157 = CARTESIAN_POINT ( 'NONE',  ( 0.0000000000000000000, 0.0000000000000000000, 3.922007999999999939 ) ) ;
#158 = MECHANICAL_DESIGN_GEOMETRIC_PRESENTATION_REPRESENTATION (  '', ( #177 ), #164 ) ;
#159 = CARTESIAN_POINT ( 'NONE',  ( 0.0000000000000000000, 0.0000000000000000000, 1.732283000000000017 ) ) ;
#160 = EDGE_CURVE ( 'NONE', #128, #46, #70, .T. ) ;
#161 = DIRECTION ( 'NONE',  ( 0.0000000000000000000, 0.0000000000000000000, 1.000000000000000000 ) ) ;
#162 = CARTESIAN_POINT ( 'NONE',  ( 0.0000000000000000000, 0.0000000000000000000, 0.1181100000000000066 ) ) ;
#163 = AXIS2_PLACEMENT_3D ( 'NONE', #305, #143, #167 ) ;
#164 =( GEOMETRIC_REPRESENTATION_CONTEXT ( 3 ) GLOBAL_UNCERTAINTY_ASSIGNED_CONTEXT ( ( #247 ) ) GLOBAL_UNIT_ASSIGNED_CONTEXT ( ( #93, #122, #88 ) ) REPRESENTATION_CONTEXT ( 'NONE', 'WORKASPACE' ) );
#165 = EDGE_CURVE ( 'NONE', #20, #260, #295, .T. ) ;
#166 = DIRECTION ( 'NONE',  ( 1.000000000000000000, 0.0000000000000000000, 0.0000000000000000000 ) ) ;
#167 = DIRECTION ( 'NONE',  ( 1.000000000000000000, 0.0000000000000000000, 0.0000000000000000000 ) ) ;
#168 = ORIENTED_EDGE ( 'NONE', *, *, #313, .F. ) ;
#169 = CLOSED_SHELL ( 'NONE', ( #273, #285, #7, #119, #291, #194, #255, #175, #226, #55, #59 ) ) ;
#170 = CARTESIAN_POINT ( 'NONE',  ( -0.1181100000000000344, 0.0000000000000000000, 3.922007999999999939 ) ) ;
#171 = ORIENTED_EDGE ( 'NONE', *, *, #24, .F. ) ;
#172 = FACE_OUTER_BOUND ( 'NONE', #333, .T. ) ;
#173 = CARTESIAN_POINT ( 'NONE',  ( 0.0000000000000000000, 0.0000000000000000000, 1.259842999999999824 ) ) ;
#174 = AXIS2_PLACEMENT_3D ( 'NONE', #57, #116, #274 ) ;
#175 = ADVANCED_FACE ( 'NONE', ( #241 ), #321, .T. ) ;
#176 = ORIENTED_EDGE ( 'NONE', *, *, #13, .F. ) ;
#177 = STYLED_ITEM ( 'NONE', ( #91 ), #318 ) ;
#178 = DIRECTION ( 'NONE',  ( 1.000000000000000000, 1.224646799147353207E-16, -0.0000000000000000000 ) ) ;
#179 = CARTESIAN_POINT ( 'NONE',  ( 0.0000000000000000000, 0.0000000000000000000, 0.0000000000000000000 ) ) ;
#180 = VERTEX_POINT ( 'NONE', #54 ) ;
#181 = EDGE_CURVE ( 'NONE', #282, #100, #83, .T. ) ;
#182 = AXIS2_PLACEMENT_3D ( 'NONE', #113, #317, #82 ) ;
#183 = DIRECTION ( 'NONE',  ( 0.0000000000000000000, 0.0000000000000000000, 1.000000000000000000 ) ) ;
#184 = ORIENTED_EDGE ( 'NONE', *, *, #252, .T. ) ;
#185 = DIRECTION ( 'NONE',  ( -1.000000000000000000, 0.0000000000000000000, 0.0000000000000000000 ) ) ;
#186 = DIMENSIONAL_EXPONENTS ( 1.000000000000000000, 0.0000000000000000000, 0.0000000000000000000, 0.0000000000000000000, 0.0000000000000000000, 0.0000000000000000000, 0.0000000000000000000 ) ;
#187 = AXIS2_PLACEMENT_3D ( 'NONE', #207, #209, #32 ) ;
#188 = DIRECTION ( 'NONE',  ( 1.000000000000000000, 0.0000000000000000000, 0.0000000000000000000 ) ) ;
#189 = FACE_OUTER_BOUND ( 'NONE', #256, .T. ) ;
#190 = FACE_OUTER_BOUND ( 'NONE', #97, .T. ) ;
#191 = DIRECTION ( 'NONE',  ( -0.0000000000000000000, -0.0000000000000000000, -1.000000000000000000 ) ) ;
#192 = AXIS2_PLACEMENT_3D ( 'NONE', #215, #191, #108 ) ;
#193 = AXIS2_PLACEMENT_3D ( 'NONE', #173, #69, #224 ) ;
#194 = ADVANCED_FACE ( 'NONE', ( #190 ), #6, .T. ) ;
#195 = VERTEX_POINT ( 'NONE', #34 ) ;
#196 = AXIS2_PLACEMENT_3D ( 'NONE', #2, #109, #213 ) ;
#197 = CYLINDRICAL_SURFACE ( 'NONE', #56, 0.1181100000000000344 ) ;
#198 = ORIENTED_EDGE ( 'NONE', *, *, #68, .F. ) ;
#199 = DIRECTION ( 'NONE',  ( -0.0000000000000000000, -0.0000000000000000000, -1.000000000000000000 ) ) ;
#200 = VERTEX_POINT ( 'NONE', #112 ) ;
#201 = AXIS2_PLACEMENT_3D ( 'NONE', #40, #144, #249 ) ;
#202 = DIRECTION ( 'NONE',  ( 0.0000000000000000000, 0.0000000000000000000, -1.000000000000000000 ) ) ;
#203 =( NAMED_UNIT ( * ) SI_UNIT ( $, .STERADIAN. ) SOLID_ANGLE_UNIT ( ) );
#204 = EDGE_LOOP ( 'NONE', ( #176, #246, #141, #147, #308 ) ) ;
#205 = PRODUCT_CONTEXT ( 'NONE', #262, 'mechanical' ) ;
#206 = DIRECTION ( 'NONE',  ( -0.08304547985374033381, 1.017013810865391032E-17, 0.9965457582448795648 ) ) ;
#207 = CARTESIAN_POINT ( 'NONE',  ( 0.0000000000000000000, 0.0000000000000000000, 0.2061439962741667686 ) ) ;
#208 = MECHANICAL_DESIGN_GEOMETRIC_PRESENTATION_REPRESENTATION (  '', ( #324 ), #94 ) ;
#209 = DIRECTION ( 'NONE',  ( -0.0000000000000000000, -0.0000000000000000000, -1.000000000000000000 ) ) ;
#210 = PRODUCT_RELATED_PRODUCT_CATEGORY ( 'part', '', ( #292 ) ) ;
#211 = CARTESIAN_POINT ( 'NONE',  ( 0.0000000000000000000, 0.0000000000000000000, 3.922007999999999939 ) ) ;
#212 = AXIS2_PLACEMENT_3D ( 'NONE', #153, #178, #343 ) ;
#213 = DIRECTION ( 'NONE',  ( 1.000000000000000000, 0.0000000000000000000, 0.0000000000000000000 ) ) ;
#214 = DIRECTION ( 'NONE',  ( 0.0000000000000000000, 0.0000000000000000000, -1.000000000000000000 ) ) ;
#215 = CARTESIAN_POINT ( 'NONE',  ( 0.0000000000000000000, 0.0000000000000000000, 1.259842999999999824 ) ) ;
#216 = LINE ( 'NONE', #139, #245 ) ;
#217 = CIRCLE ( 'NONE', #146, 0.07873999999999996280 ) ;
#218 = ORIENTED_EDGE ( 'NONE', *, *, #165, .F. ) ;
#219 = EDGE_CURVE ( 'NONE', #326, #155, #137, .T. ) ;
#220 = CARTESIAN_POINT ( 'NONE',  ( 0.0000000000000000000, 0.0000000000000000000, 3.937007999999999619 ) ) ;
#221 = ORIENTED_EDGE ( 'NONE', *, *, #68, .T. ) ;
#222 = FILL_AREA_STYLE_COLOUR ( '', #5 ) ;
#223 = ORIENTED_EDGE ( 'NONE', *, *, #13, .T. ) ;
#224 = DIRECTION ( 'NONE',  ( -1.000000000000000000, 0.0000000000000000000, 0.0000000000000000000 ) ) ;
#225 = EDGE_LOOP ( 'NONE', ( #280, #330, #221, #130 ) ) ;
#226 = ADVANCED_FACE ( 'NONE', ( #296 ), #267, .T. ) ;
#227 = ORIENTED_EDGE ( 'NONE', *, *, #125, .F. ) ;
#228 = APPLICATION_CONTEXT ( 'automotive_design' ) ;
#229 = LINE ( 'NONE', #101, #87 ) ;
#230 = VECTOR ( 'NONE', #206, 39.37007874015748854 ) ;
#231 = SURFACE_STYLE_FILL_AREA ( #76 ) ;
#232 = CARTESIAN_POINT ( 'NONE',  ( -0.1031100000000005484, 0.0000000000000000000, 3.937007999999999619 ) ) ;
#233 = LINE ( 'NONE', #261, #142 ) ;
#234 = APPLICATION_PROTOCOL_DEFINITION ( 'draft international standard', 'automotive_design', 1998, #262 ) ;
#235 = DIRECTION ( 'NONE',  ( -0.0000000000000000000, -0.0000000000000000000, -1.000000000000000000 ) ) ;
#236 = FACE_OUTER_BOUND ( 'NONE', #52, .T. ) ;
#237 = PRESENTATION_LAYER_ASSIGNMENT (  '', '', ( #177 ) ) ;
#238 = EDGE_CURVE ( 'NONE', #180, #123, #92, .T. ) ;
#239 = DIRECTION ( 'NONE',  ( 0.0000000000000000000, 0.0000000000000000000, 1.000000000000000000 ) ) ;
#240 = CARTESIAN_POINT ( 'NONE',  ( 0.0000000000000000000, 0.0000000000000000000, 1.874014999999996212 ) ) ;
#241 = FACE_OUTER_BOUND ( 'NONE', #204, .T. ) ;
#242 = DIRECTION ( 'NONE',  ( 0.0000000000000000000, 1.000000000000000000, 0.0000000000000000000 ) ) ;
#243 = CARTESIAN_POINT ( 'NONE',  ( 0.0000000000000000000, 0.0000000000000000000, 0.1181100000000000066 ) ) ;
#244 = CARTESIAN_POINT ( 'NONE',  ( 0.07873999999999985178, 0.0000000000000000000, 1.259842999999999824 ) ) ;
#245 = VECTOR ( 'NONE', #288, 39.37007874015748143 ) ;
#246 = ORIENTED_EDGE ( 'NONE', *, *, #219, .T. ) ;
#247 = UNCERTAINTY_MEASURE_WITH_UNIT (LENGTH_MEASURE( 1.000000000000000082E-05 ), #93, 'distance_accuracy_value', 'NONE');
#248 = DIRECTION ( 'NONE',  ( -0.7071067811865422437, 0.0000000000000000000, -0.7071067811865526798 ) ) ;
#249 = DIRECTION ( 'NONE',  ( 0.0000000000000000000, 1.000000000000000000, 0.0000000000000000000 ) ) ;
#250 = ORIENTED_EDGE ( 'NONE', *, *, #302, .F. ) ;
#251 = CARTESIAN_POINT ( 'NONE',  ( 0.1299209999999997589, 0.0000000000000000000, 1.874014999999996212 ) ) ;
#252 = EDGE_CURVE ( 'NONE', #77, #180, #329, .T. ) ;
#253 = LENGTH_MEASURE_WITH_UNIT ( LENGTH_MEASURE( 0.02539999999999999897 ), #43 );
#254 = ORIENTED_EDGE ( 'NONE', *, *, #181, .F. ) ;
#255 = ADVANCED_FACE ( 'NONE', ( #290 ), #277, .T. ) ;
#256 = EDGE_LOOP ( 'NONE', ( #250, #81, #334, #168 ) ) ;
#257 = CONICAL_SURFACE ( 'NONE', #110, 0.1031100000000005484, 0.7853981633974410625 ) ;
#258 = FILL_AREA_STYLE_COLOUR ( '', #337 ) ;
#259 = EDGE_LOOP ( 'NONE', ( #117, #223, #227, #72, #47 ) ) ;
#260 = VERTEX_POINT ( 'NONE', #118 ) ;
#261 = CARTESIAN_POINT ( 'NONE',  ( 0.1031100000000005484, 1.262733314600842673E-17, 3.937007999999999619 ) ) ;
#262 = APPLICATION_CONTEXT ( 'automotive_design' ) ;
#263 = CARTESIAN_POINT ( 'NONE',  ( 0.1181100000000000344, 1.446430334472939084E-17, 3.922007999999999939 ) ) ;
#264 = DIRECTION ( 'NONE',  ( 0.0000000000000000000, 0.0000000000000000000, 1.000000000000000000 ) ) ;
#265 = CIRCLE ( 'NONE', #163, 0.1031100000000005484 ) ;
#266 = CARTESIAN_POINT ( 'NONE',  ( -0.1181100000000000344, 1.446430334472939084E-17, 1.732283000000000017 ) ) ;
#267 = CYLINDRICAL_SURFACE ( 'NONE', #51, 0.1181100000000000344 ) ;
#268 = EDGE_CURVE ( 'NONE', #260, #20, #265, .T. ) ;
#269 = AXIS2_PLACEMENT_3D ( 'NONE', #240, #161, #4 ) ;
#270 = ORIENTED_EDGE ( 'NONE', *, *, #268, .F. ) ;
#271 = DIRECTION ( 'NONE',  ( -1.000000000000000000, 0.0000000000000000000, 0.0000000000000000000 ) ) ;
#272 = ORIENTED_EDGE ( 'NONE', *, *, #131, .F. ) ;
#273 = ADVANCED_FACE ( 'NONE', ( #172 ), #156, .T. ) ;
#274 = DIRECTION ( 'NONE',  ( 1.000000000000000000, 0.0000000000000000000, 0.0000000000000000000 ) ) ;
#275 = SURFACE_STYLE_FILL_AREA ( #14 ) ;
#276 = ORIENTED_EDGE ( 'NONE', *, *, #106, .T. ) ;
#277 = CONICAL_SURFACE ( 'NONE', #174, 0.1299209999999997589, 0.08314123188844159407 ) ;
#278 = ORIENTED_EDGE ( 'NONE', *, *, #49, .F. ) ;
#279 = DIMENSIONAL_EXPONENTS ( 1.000000000000000000, 0.0000000000000000000, 0.0000000000000000000, 0.0000000000000000000, 0.0000000000000000000, 0.0000000000000000000, 0.0000000000000000000 ) ;
#280 = ORIENTED_EDGE ( 'NONE', *, *, #125, .T. ) ;
#281 = DIRECTION ( 'NONE',  ( 1.000000000000000000, 0.0000000000000000000, 0.0000000000000000000 ) ) ;
#282 = VERTEX_POINT ( 'NONE', #170 ) ;
#283 = AXIS2_PLACEMENT_3D ( 'NONE', #243, #134, #239 ) ;
#284 = DIRECTION ( 'NONE',  ( 1.000000000000000000, 0.0000000000000000000, -0.0000000000000000000 ) ) ;
#285 = ADVANCED_FACE ( 'NONE', ( #18 ), #197, .T. ) ;
#286 = SURFACE_SIDE_STYLE ('',( #231 ) ) ;
#287 = CARTESIAN_POINT ( 'NONE',  ( 0.0000000000000000000, 0.0000000000000000000, 3.937007999999999619 ) ) ;
#288 = DIRECTION ( 'NONE',  ( -0.0000000000000000000, -0.0000000000000000000, -1.000000000000000000 ) ) ;
#289 = VECTOR ( 'NONE', #248, 39.37007874015748854 ) ;
#290 = FACE_OUTER_BOUND ( 'NONE', #17, .T. ) ;
#291 = ADVANCED_FACE ( 'NONE', ( #301 ), #145, .T. ) ;
#292 = PRODUCT ( 'Micro_SBMM-060-248X', 'Micro_SBMM-060-248X', '', ( #205 ) ) ;
#293 = CARTESIAN_POINT ( 'NONE',  ( 0.0000000000000000000, 0.0000000000000000000, 0.2061439962741667686 ) ) ;
#294 = CARTESIAN_POINT ( 'NONE',  ( 0.0000000000000000000, 7.232151672364693882E-18, 1.707404996040164512E-17 ) ) ;
#295 = CIRCLE ( 'NONE', #38, 0.1031100000000005484 ) ;
#296 = FACE_OUTER_BOUND ( 'NONE', #316, .T. ) ;
#297 = EDGE_CURVE ( 'NONE', #20, #282, #140, .T. ) ;
#298 = LINE ( 'NONE', #251, #314 ) ;
#299 = UNCERTAINTY_MEASURE_WITH_UNIT (LENGTH_MEASURE( 1.000000000000000082E-05 ), #73, 'distance_accuracy_value', 'NONE');
#300 = LENGTH_MEASURE_WITH_UNIT ( LENGTH_MEASURE( 0.02539999999999999897 ), #325 );
#301 = FACE_OUTER_BOUND ( 'NONE', #225, .T. ) ;
#302 = EDGE_CURVE ( 'NONE', #155, #326, #30, .T. ) ;
#303 = CARTESIAN_POINT ( 'NONE',  ( 0.0000000000000000000, 0.0000000000000000000, 3.937007999999999619 ) ) ;
#304 = ORIENTED_EDGE ( 'NONE', *, *, #268, .T. ) ;
#305 = CARTESIAN_POINT ( 'NONE',  ( 0.0000000000000000000, 0.0000000000000000000, 3.937007999999999619 ) ) ;
#306 = AXIS2_PLACEMENT_3D ( 'NONE', #103, #183, #284 ) ;
#307 =( NAMED_UNIT ( * ) PLANE_ANGLE_UNIT ( ) SI_UNIT ( $, .RADIAN. ) );
#308 = ORIENTED_EDGE ( 'NONE', *, *, #75, .F. ) ;
#309 =( NAMED_UNIT ( * ) PLANE_ANGLE_UNIT ( ) SI_UNIT ( $, .RADIAN. ) );
#310 = ORIENTED_EDGE ( 'NONE', *, *, #219, .F. ) ;
#311 = APPLICATION_PROTOCOL_DEFINITION ( 'draft international standard', 'automotive_design', 1998, #228 ) ;
#312 = PLANE ( 'NONE',  #306 ) ;
#313 = EDGE_CURVE ( 'NONE', #326, #46, #298, .T. ) ;
#314 = VECTOR ( 'NONE', #332, 39.37007874015748854 ) ;
#315 = DIRECTION ( 'NONE',  ( -0.0000000000000000000, -0.0000000000000000000, -1.000000000000000000 ) ) ;
#316 = EDGE_LOOP ( 'NONE', ( #22, #39, #149, #340 ) ) ;
#317 = DIRECTION ( 'NONE',  ( -0.0000000000000000000, -0.0000000000000000000, -1.000000000000000000 ) ) ;
#318 = MANIFOLD_SOLID_BREP ( 'Cut-Revolve3', #169 ) ;
#319 = CARTESIAN_POINT ( 'NONE',  ( 0.0000000000000000000, 0.0000000000000000000, 0.0000000000000000000 ) ) ;
#320 = CARTESIAN_POINT ( 'NONE',  ( -0.07873999999999996280, 0.0000000000000000000, 0.2061439962741667686 ) ) ;
#321 = CYLINDRICAL_SURFACE ( 'NONE', #126, 0.07873999999999992117 ) ;
#322 = AXIS2_PLACEMENT_3D ( 'NONE', #157, #214, #166 ) ;
#323 = DIRECTION ( 'NONE',  ( -1.000000000000000000, 0.0000000000000000000, 0.0000000000000000000 ) ) ;
#324 = STYLED_ITEM ( 'NONE', ( #339 ), #331 ) ;
#325 =( LENGTH_UNIT ( ) NAMED_UNIT ( * ) SI_UNIT ( $, .METRE. ) );
#326 = VERTEX_POINT ( 'NONE', #244 ) ;
#327 = SURFACE_SIDE_STYLE ('',( #275 ) ) ;
#328 = ORIENTED_EDGE ( 'NONE', *, *, #297, .T. ) ;
#329 = CIRCLE ( 'NONE', #182, 0.07873999999999996280 ) ;
#330 = ORIENTED_EDGE ( 'NONE', *, *, #75, .T. ) ;
#331 = ADVANCED_BREP_SHAPE_REPRESENTATION ( 'Micro_SBMM-060-248X', ( #318, #115 ), #12 ) ;
#332 = DIRECTION ( 'NONE',  ( 0.08304547985374033381, 0.0000000000000000000, 0.9965457582448795648 ) ) ;
#333 = EDGE_LOOP ( 'NONE', ( #270, #48, #254, #120 ) ) ;
#334 = ORIENTED_EDGE ( 'NONE', *, *, #106, .F. ) ;
#335 = CARTESIAN_POINT ( 'NONE',  ( -0.1299209999999997589, 1.591073367920229727E-17, 1.874014999999996212 ) ) ;
#336 = CIRCLE ( 'NONE', #212, 0.1181099999999999928 ) ;
#337 = COLOUR_RGB ( '',0.7921568627450980005, 0.8196078431372548767, 0.9333333333333333481 ) ;
#338 = VECTOR ( 'NONE', #11, 39.37007874015748143 ) ;
#339 = PRESENTATION_STYLE_ASSIGNMENT (( #148 ) ) ;
#340 = ORIENTED_EDGE ( 'NONE', *, *, #160, .T. ) ;
#341 = DIRECTION ( 'NONE',  ( 0.7071067811865422437, 8.659560562354868763E-17, -0.7071067811865526798 ) ) ;
#342 = EDGE_CURVE ( 'NONE', #100, #46, #37, .T. ) ;
#343 = DIRECTION ( 'NONE',  ( -1.224646799147353207E-16, 1.000000000000000000, 0.0000000000000000000 ) ) ;
#344 = CIRCLE ( 'NONE', #29, 0.1181100000000000344 ) ;
#345 = FACE_OUTER_BOUND ( 'NONE', #41, .T. ) ;
ENDSEC;
END-ISO-10303-21;
