ISO-10303-21;
HEADER;
FILE_DESCRIPTION (( 'STEP AP214' ),
    '1' );
FILE_NAME ('83300.STEP',
    '2023-06-30T23:02:51',
    ( '' ),
    ( '' ),
    'SwSTEP 2.0',
    'SolidWorks 2023',
    '' );
FILE_SCHEMA (( 'AUTOMOTIVE_DESIGN' ));
ENDSEC;

DATA;
#1 = STYLED_ITEM ( 'NONE', ( #153 ), #122 ) ;
#2 = COLOUR_RGB ( '',0.7921568627450980005, 0.8196078431372548767, 0.9333333333333333481 ) ;
#3 = EDGE_LOOP ( 'NONE', ( #85, #326 ) ) ;
#4 = LENGTH_MEASURE_WITH_UNIT ( LENGTH_MEASURE( 0.02539999999999999897 ), #165 );
#5 =( GEOMETRIC_REPRESENTATION_CONTEXT ( 3 ) GLOBAL_UNCERTAINTY_ASSIGNED_CONTEXT ( ( #167 ) ) GLOBAL_UNIT_ASSIGNED_CONTEXT ( ( #201, #372, #373 ) ) REPRESENTATION_CONTEXT ( 'NONE', 'WORKASPACE' ) );
#6 = VERTEX_POINT ( 'NONE', #95 ) ;
#7 = LINE ( 'NONE', #114, #284 ) ;
#8 = ORIENTED_EDGE ( 'NONE', *, *, #41, .F. ) ;
#9 = CARTESIAN_POINT ( 'NONE',  ( 0.3749999999999998335, 3.000000000000000444, 4.592425496802570521E-17 ) ) ;
#10 = MECHANICAL_DESIGN_GEOMETRIC_PRESENTATION_REPRESENTATION (  '', ( #58 ), #227 ) ;
#11 =( NAMED_UNIT ( * ) SI_UNIT ( $, .STERADIAN. ) SOLID_ANGLE_UNIT ( ) );
#12 = DIRECTION ( 'NONE',  ( -1.000000000000000000, 0.000000000000000000, 0.000000000000000000 ) ) ;
#13 = ADVANCED_BREP_SHAPE_REPRESENTATION ( '83300', ( #76, #199, #322 ), #26 ) ;
#14 = FACE_OUTER_BOUND ( 'NONE', #255, .T. ) ;
#15 = PRODUCT_DEFINITION_SHAPE ( 'NONE', 'NONE',  #62 ) ;
#16 = AXIS2_PLACEMENT_3D ( 'NONE', #31, #99, #155 ) ;
#17 =( GEOMETRIC_REPRESENTATION_CONTEXT ( 3 ) GLOBAL_UNCERTAINTY_ASSIGNED_CONTEXT ( ( #142 ) ) GLOBAL_UNIT_ASSIGNED_CONTEXT ( ( #166, #292, #320 ) ) REPRESENTATION_CONTEXT ( 'NONE', 'WORKASPACE' ) );
#18 =( CONVERSION_BASED_UNIT ( 'INCH', #50 ) LENGTH_UNIT ( ) NAMED_UNIT ( #217 ) );
#19 = DIMENSIONAL_EXPONENTS ( 1.000000000000000000, 0.000000000000000000, 0.000000000000000000, 0.000000000000000000, 0.000000000000000000, 0.000000000000000000, 0.000000000000000000 ) ;
#20 = DIRECTION ( 'NONE',  ( 0.000000000000000000, 0.000000000000000000, -1.000000000000000000 ) ) ;
#21 = AXIS2_PLACEMENT_3D ( 'NONE', #360, #94, #329 ) ;
#22 = COLOUR_RGB ( '',1.000000000000000000, 0.000000000000000000, 0.000000000000000000 ) ;
#23 =( NAMED_UNIT ( * ) SI_UNIT ( $, .STERADIAN. ) SOLID_ANGLE_UNIT ( ) );
#24 = PRESENTATION_STYLE_ASSIGNMENT (( #158 ) ) ;
#25 = AXIS2_PLACEMENT_3D ( 'NONE', #70, #190, #250 ) ;
#26 =( GEOMETRIC_REPRESENTATION_CONTEXT ( 3 ) GLOBAL_UNCERTAINTY_ASSIGNED_CONTEXT ( ( #82 ) ) GLOBAL_UNIT_ASSIGNED_CONTEXT ( ( #38, #126, #278 ) ) REPRESENTATION_CONTEXT ( 'NONE', 'WORKASPACE' ) );
#27 = ORIENTED_EDGE ( 'NONE', *, *, #337, .T. ) ;
#28 = VERTEX_POINT ( 'NONE', #210 ) ;
#29 = PRODUCT_DEFINITION_CONTEXT ( 'detailed design', #371, 'design' ) ;
#30 = MECHANICAL_DESIGN_GEOMETRIC_PRESENTATION_REPRESENTATION (  '', ( #194 ), #168 ) ;
#31 = CARTESIAN_POINT ( 'NONE',  ( 0.3749999999999999445, 3.000000000000000444, 0.000000000000000000 ) ) ;
#32 = UNCERTAINTY_MEASURE_WITH_UNIT (LENGTH_MEASURE( 1.000000000000000082E-05 ), #331, 'distance_accuracy_value', 'NONE');
#33 = ADVANCED_FACE ( 'NONE', ( #229 ), #240, .T. ) ;
#34 = ORIENTED_EDGE ( 'NONE', *, *, #220, .F. ) ;
#35 = DIRECTION ( 'NONE',  ( 0.000000000000000000, 0.000000000000000000, 1.000000000000000000 ) ) ;
#36 =( LENGTH_UNIT ( ) NAMED_UNIT ( * ) SI_UNIT ( $, .METRE. ) );
#37 = EDGE_LOOP ( 'NONE', ( #267, #260, #198, #81 ) ) ;
#38 =( CONVERSION_BASED_UNIT ( 'INCH', #177 ) LENGTH_UNIT ( ) NAMED_UNIT ( #47 ) );
#39 = MECHANICAL_DESIGN_GEOMETRIC_PRESENTATION_REPRESENTATION (  '', ( #45 ), #79 ) ;
#40 = CARTESIAN_POINT ( 'NONE',  ( 0.000000000000000000, 0.3750000000000001110, 0.000000000000000000 ) ) ;
#41 = EDGE_CURVE ( 'NONE', #223, #145, #171, .T. ) ;
#42 = LENGTH_MEASURE_WITH_UNIT ( LENGTH_MEASURE( 0.02539999999999999897 ), #246 );
#43 =( CONVERSION_BASED_UNIT ( 'INCH', #42 ) LENGTH_UNIT ( ) NAMED_UNIT ( #342 ) );
#44 = CARTESIAN_POINT ( 'NONE',  ( 0.000000000000000000, 0.8750000000000000000, 0.000000000000000000 ) ) ;
#45 = STYLED_ITEM ( 'NONE', ( #24 ), #182 ) ;
#46 = DIRECTION ( 'NONE',  ( 0.000000000000000000, 0.000000000000000000, 1.000000000000000000 ) ) ;
#47 = DIMENSIONAL_EXPONENTS ( 1.000000000000000000, 0.000000000000000000, 0.000000000000000000, 0.000000000000000000, 0.000000000000000000, 0.000000000000000000, 0.000000000000000000 ) ;
#48 = AXIS2_PLACEMENT_3D ( 'NONE', #334, #185, #116 ) ;
#49 =( LENGTH_UNIT ( ) NAMED_UNIT ( * ) SI_UNIT ( $, .METRE. ) );
#50 = LENGTH_MEASURE_WITH_UNIT ( LENGTH_MEASURE( 0.02539999999999999897 ), #299 );
#51 = FILL_AREA_STYLE_COLOUR ( '', #98 ) ;
#52 = ADVANCED_FACE ( 'NONE', ( #64 ), #59, .F. ) ;
#53 = ORIENTED_EDGE ( 'NONE', *, *, #160, .F. ) ;
#54 = SURFACE_STYLE_FILL_AREA ( #173 ) ;
#55 = VERTEX_POINT ( 'NONE', #333 ) ;
#56 = SURFACE_SIDE_STYLE ('',( #54 ) ) ;
#57 = ORIENTED_EDGE ( 'NONE', *, *, #41, .T. ) ;
#58 = STYLED_ITEM ( 'NONE', ( #169 ), #289 ) ;
#59 = PLANE ( 'NONE',  #118 ) ;
#60 = FILL_AREA_STYLE_COLOUR ( '', #22 ) ;
#61 = PRODUCT_DEFINITION_FORMATION_WITH_SPECIFIED_SOURCE ( 'ANY', '', #310, .NOT_KNOWN. ) ;
#62 = PRODUCT_DEFINITION ( 'UNKNOWN', '', #61, #29 ) ;
#63 = SURFACE_SIDE_STYLE ('',( #279 ) ) ;
#64 = FACE_OUTER_BOUND ( 'NONE', #105, .T. ) ;
#65 = PRESENTATION_STYLE_ASSIGNMENT (( #124 ) ) ;
#66 = DIRECTION ( 'NONE',  ( -1.219092139284463632E-16, 1.000000000000000000, -0.000000000000000000 ) ) ;
#67 = CYLINDRICAL_SURFACE ( 'NONE', #48, 0.3749999999999999445 ) ;
#68 = FACE_OUTER_BOUND ( 'NONE', #3, .T. ) ;
#69 = CIRCLE ( 'NONE', #277, 0.3749999999999999445 ) ;
#70 = CARTESIAN_POINT ( 'NONE',  ( -4.592425496802576068E-17, 0.3750000000000001110, 0.000000000000000000 ) ) ;
#71 = FILL_AREA_STYLE_COLOUR ( '', #2 ) ;
#72 = AXIS2_PLACEMENT_3D ( 'NONE', #353, #316, #318 ) ;
#73 = EDGE_CURVE ( 'NONE', #293, #6, #286, .T. ) ;
#74 = ADVANCED_FACE ( 'NONE', ( #68 ), #172, .F. ) ;
#75 = PLANE ( 'NONE',  #109 ) ;
#76 = MANIFOLD_SOLID_BREP ( 'Revolve - Cutting Edge', #312 ) ;
#77 = DIRECTION ( 'NONE',  ( -0.000000000000000000, -1.000000000000000000, -0.000000000000000000 ) ) ;
#78 = AXIS2_PLACEMENT_3D ( 'NONE', #208, #66, #176 ) ;
#79 =( GEOMETRIC_REPRESENTATION_CONTEXT ( 3 ) GLOBAL_UNCERTAINTY_ASSIGNED_CONTEXT ( ( #196 ) ) GLOBAL_UNIT_ASSIGNED_CONTEXT ( ( #272, #159, #11 ) ) REPRESENTATION_CONTEXT ( 'NONE', 'WORKASPACE' ) );
#80 = VECTOR ( 'NONE', #121, 39.37007874015748143 ) ;
#81 = ORIENTED_EDGE ( 'NONE', *, *, #348, .T. ) ;
#82 = UNCERTAINTY_MEASURE_WITH_UNIT (LENGTH_MEASURE( 1.000000000000000082E-05 ), #38, 'distance_accuracy_value', 'NONE');
#83 = AXIS2_PLACEMENT_3D ( 'NONE', #40, #265, #125 ) ;
#84 =( NAMED_UNIT ( * ) PLANE_ANGLE_UNIT ( ) SI_UNIT ( $, .RADIAN. ) );
#85 = ORIENTED_EDGE ( 'NONE', *, *, #175, .T. ) ;
#86 = CARTESIAN_POINT ( 'NONE',  ( 3.815217595126838024E-16, 0.8750000000000000000, 0.000000000000000000 ) ) ;
#87 = EDGE_CURVE ( 'NONE', #234, #291, #97, .T. ) ;
#88 = CIRCLE ( 'NONE', #25, 0.3750000000000001110 ) ;
#89 = ORIENTED_EDGE ( 'NONE', *, *, #87, .F. ) ;
#90 = DIRECTION ( 'NONE',  ( -1.000000000000000000, 0.000000000000000000, 0.000000000000000000 ) ) ;
#91 = DIRECTION ( 'NONE',  ( -1.000000000000000000, 0.000000000000000000, 0.000000000000000000 ) ) ;
#92 = DIRECTION ( 'NONE',  ( 0.000000000000000000, 0.000000000000000000, -1.000000000000000000 ) ) ;
#93 = DIRECTION ( 'NONE',  ( -1.000000000000000000, 0.000000000000000000, 0.000000000000000000 ) ) ;
#94 = DIRECTION ( 'NONE',  ( -0.000000000000000000, -1.000000000000000000, -0.000000000000000000 ) ) ;
#95 = CARTESIAN_POINT ( 'NONE',  ( -0.3749999999999996669, 3.000000000000000444, 0.000000000000000000 ) ) ;
#96 = DIRECTION ( 'NONE',  ( 0.000000000000000000, 0.000000000000000000, -1.000000000000000000 ) ) ;
#97 = CIRCLE ( 'NONE', #215, 0.3749999999999999445 ) ;
#98 = COLOUR_RGB ( '',1.000000000000000000, 0.000000000000000000, 0.000000000000000000 ) ;
#99 = DIRECTION ( 'NONE',  ( 1.219092139284463632E-16, -1.000000000000000000, 0.000000000000000000 ) ) ;
#100 = CARTESIAN_POINT ( 'NONE',  ( -0.3749999999999995559, 3.000000000000000444, 0.000000000000000000 ) ) ;
#101 = FILL_AREA_STYLE ('',( #308 ) ) ;
#102 = SURFACE_STYLE_USAGE ( .BOTH. , #106 ) ;
#103 = AXIS2_PLACEMENT_3D ( 'NONE', #209, #362, #96 ) ;
#104 = FILL_AREA_STYLE ('',( #108 ) ) ;
#105 = EDGE_LOOP ( 'NONE', ( #8, #354 ) ) ;
#106 = SURFACE_SIDE_STYLE ('',( #140 ) ) ;
#107 = ORIENTED_EDGE ( 'NONE', *, *, #175, .F. ) ;
#108 = FILL_AREA_STYLE_COLOUR ( '', #257 ) ;
#109 = AXIS2_PLACEMENT_3D ( 'NONE', #123, #338, #131 ) ;
#110 = EDGE_LOOP ( 'NONE', ( #129, #285, #219, #197, #222 ) ) ;
#111 = EDGE_CURVE ( 'NONE', #314, #28, #187, .T. ) ;
#112 = CIRCLE ( 'NONE', #163, 0.3750000000000001110 ) ;
#113 = ORIENTED_EDGE ( 'NONE', *, *, #247, .F. ) ;
#114 = CARTESIAN_POINT ( 'NONE',  ( 4.592425496802573602E-17, 0.000000000000000000, 0.3749999999999999445 ) ) ;
#115 = ORIENTED_EDGE ( 'NONE', *, *, #87, .T. ) ;
#116 = DIRECTION ( 'NONE',  ( 0.000000000000000000, 0.000000000000000000, -1.000000000000000000 ) ) ;
#117 = SURFACE_STYLE_USAGE ( .BOTH. , #63 ) ;
#118 = AXIS2_PLACEMENT_3D ( 'NONE', #86, #212, #204 ) ;
#119 = PRESENTATION_LAYER_ASSIGNMENT (  '', '', ( #58 ) ) ;
#120 = ORIENTED_EDGE ( 'NONE', *, *, #359, .T. ) ;
#121 = DIRECTION ( 'NONE',  ( -1.219092139284463632E-16, 1.000000000000000000, -0.000000000000000000 ) ) ;
#122 = ADVANCED_FACE ( 'NONE', ( #151 ), #67, .T. ) ;
#123 = CARTESIAN_POINT ( 'NONE',  ( 0.000000000000000000, 0.8750000000000000000, 0.000000000000000000 ) ) ;
#124 = SURFACE_STYLE_USAGE ( .BOTH. , #295 ) ;
#125 = DIRECTION ( 'NONE',  ( 0.000000000000000000, 0.000000000000000000, -1.000000000000000000 ) ) ;
#126 =( NAMED_UNIT ( * ) PLANE_ANGLE_UNIT ( ) SI_UNIT ( $, .RADIAN. ) );
#127 = CARTESIAN_POINT ( 'NONE',  ( 1.224646799147352714E-16, 3.000000000000000444, 0.000000000000000000 ) ) ;
#128 = FILL_AREA_STYLE ('',( #266 ) ) ;
#129 = ORIENTED_EDGE ( 'NONE', *, *, #261, .F. ) ;
#130 = DIRECTION ( 'NONE',  ( 0.000000000000000000, 0.000000000000000000, -1.000000000000000000 ) ) ;
#131 = DIRECTION ( 'NONE',  ( 0.000000000000000000, -0.000000000000000000, 1.000000000000000000 ) ) ;
#132 = AXIS2_PLACEMENT_3D ( 'NONE', #202, #174, #264 ) ;
#133 = ADVANCED_FACE ( 'NONE', ( #183 ), #221, .T. ) ;
#134 =( NAMED_UNIT ( * ) SI_UNIT ( $, .STERADIAN. ) SOLID_ANGLE_UNIT ( ) );
#135 = DIMENSIONAL_EXPONENTS ( 1.000000000000000000, 0.000000000000000000, 0.000000000000000000, 0.000000000000000000, 0.000000000000000000, 0.000000000000000000, 0.000000000000000000 ) ;
#136 = DIRECTION ( 'NONE',  ( -1.219092139284463632E-16, 1.000000000000000000, -0.000000000000000000 ) ) ;
#137 = CIRCLE ( 'NONE', #83, 0.3749999999999999445 ) ;
#138 = PRODUCT_CONTEXT ( 'NONE', #245, 'mechanical' ) ;
#139 = DIRECTION ( 'NONE',  ( -1.000000000000000000, 0.000000000000000000, 0.000000000000000000 ) ) ;
#140 = SURFACE_STYLE_FILL_AREA ( #162 ) ;
#141 = ORIENTED_EDGE ( 'NONE', *, *, #73, .F. ) ;
#142 = UNCERTAINTY_MEASURE_WITH_UNIT (LENGTH_MEASURE( 1.000000000000000082E-05 ), #166, 'distance_accuracy_value', 'NONE');
#143 = AXIS2_PLACEMENT_3D ( 'NONE', #193, #136, #139 ) ;
#144 = AXIS2_PLACEMENT_3D ( 'NONE', #127, #237, #93 ) ;
#145 = VERTEX_POINT ( 'NONE', #303 ) ;
#146 = CARTESIAN_POINT ( 'NONE',  ( 0.000000000000000000, 0.8750000000000000000, -0.3749999999999999445 ) ) ;
#147 = AXIS2_PLACEMENT_3D ( 'NONE', #214, #35, #236 ) ;
#148 = ORIENTED_EDGE ( 'NONE', *, *, #337, .F. ) ;
#149 = LINE ( 'NONE', #9, #80 ) ;
#150 = CARTESIAN_POINT ( 'NONE',  ( 0.3749999999999999445, 0.3750000000000001110, 0.000000000000000000 ) ) ;
#151 = FACE_OUTER_BOUND ( 'NONE', #319, .T. ) ;
#152 = LINE ( 'NONE', #100, #252 ) ;
#153 = PRESENTATION_STYLE_ASSIGNMENT (( #363 ) ) ;
#154 = FILL_AREA_STYLE_COLOUR ( '', #340 ) ;
#155 = DIRECTION ( 'NONE',  ( 1.000000000000000000, 1.219092139284463632E-16, 0.000000000000000000 ) ) ;
#156 = COLOUR_RGB ( '',1.000000000000000000, 0.000000000000000000, 0.000000000000000000 ) ;
#157 = CIRCLE ( 'NONE', #232, 0.3749999999999999445 ) ;
#158 = SURFACE_STYLE_USAGE ( .BOTH. , #339 ) ;
#159 =( NAMED_UNIT ( * ) PLANE_ANGLE_UNIT ( ) SI_UNIT ( $, .RADIAN. ) );
#160 = EDGE_CURVE ( 'NONE', #55, #352, #157, .T. ) ;
#161 = CARTESIAN_POINT ( 'NONE',  ( -4.592425496802576068E-17, 0.3750000000000001110, 0.000000000000000000 ) ) ;
#162 = FILL_AREA_STYLE ('',( #51 ) ) ;
#163 = AXIS2_PLACEMENT_3D ( 'NONE', #213, #92, #90 ) ;
#164 =( NAMED_UNIT ( * ) PLANE_ANGLE_UNIT ( ) SI_UNIT ( $, .RADIAN. ) );
#165 =( LENGTH_UNIT ( ) NAMED_UNIT ( * ) SI_UNIT ( $, .METRE. ) );
#166 =( CONVERSION_BASED_UNIT ( 'INCH', #4 ) LENGTH_UNIT ( ) NAMED_UNIT ( #368 ) );
#167 = UNCERTAINTY_MEASURE_WITH_UNIT (LENGTH_MEASURE( 1.000000000000000082E-05 ), #201, 'distance_accuracy_value', 'NONE');
#168 =( GEOMETRIC_REPRESENTATION_CONTEXT ( 3 ) GLOBAL_UNCERTAINTY_ASSIGNED_CONTEXT ( ( #287 ) ) GLOBAL_UNIT_ASSIGNED_CONTEXT ( ( #18, #164, #23 ) ) REPRESENTATION_CONTEXT ( 'NONE', 'WORKASPACE' ) );
#169 = PRESENTATION_STYLE_ASSIGNMENT (( #283 ) ) ;
#170 = ORIENTED_EDGE ( 'NONE', *, *, #351, .T. ) ;
#171 = CIRCLE ( 'NONE', #78, 0.3749999999999995559 ) ;
#172 = PLANE ( 'NONE',  #16 ) ;
#173 = FILL_AREA_STYLE ('',( #60 ) ) ;
#174 = DIRECTION ( 'NONE',  ( -1.219092139284463632E-16, 1.000000000000000000, -0.000000000000000000 ) ) ;
#175 = EDGE_CURVE ( 'NONE', #6, #293, #241, .T. ) ;
#176 = DIRECTION ( 'NONE',  ( -1.000000000000000000, 0.000000000000000000, 0.000000000000000000 ) ) ;
#177 = LENGTH_MEASURE_WITH_UNIT ( LENGTH_MEASURE( 0.02539999999999999897 ), #327 );
#178 =( GEOMETRIC_REPRESENTATION_CONTEXT ( 3 ) GLOBAL_UNCERTAINTY_ASSIGNED_CONTEXT ( ( #317 ) ) GLOBAL_UNIT_ASSIGNED_CONTEXT ( ( #233, #84, #297 ) ) REPRESENTATION_CONTEXT ( 'NONE', 'WORKASPACE' ) );
#179 = DIRECTION ( 'NONE',  ( 0.000000000000000000, 0.000000000000000000, -1.000000000000000000 ) ) ;
#180 = DIRECTION ( 'NONE',  ( -0.000000000000000000, -1.000000000000000000, -0.000000000000000000 ) ) ;
#181 =( NAMED_UNIT ( * ) SI_UNIT ( $, .STERADIAN. ) SOLID_ANGLE_UNIT ( ) );
#182 = ADVANCED_FACE ( 'NONE', ( #370 ), #75, .T. ) ;
#183 = FACE_OUTER_BOUND ( 'NONE', #200, .T. ) ;
#184 = DIRECTION ( 'NONE',  ( -0.000000000000000000, -1.000000000000000000, -0.000000000000000000 ) ) ;
#185 = DIRECTION ( 'NONE',  ( -0.000000000000000000, -1.000000000000000000, -0.000000000000000000 ) ) ;
#186 = SURFACE_STYLE_FILL_AREA ( #335 ) ;
#187 = CIRCLE ( 'NONE', #21, 0.3749999999999999445 ) ;
#188 = PRESENTATION_LAYER_ASSIGNMENT (  '', '', ( #356 ) ) ;
#189 = DIMENSIONAL_EXPONENTS ( 1.000000000000000000, 0.000000000000000000, 0.000000000000000000, 0.000000000000000000, 0.000000000000000000, 0.000000000000000000, 0.000000000000000000 ) ;
#190 = DIRECTION ( 'NONE',  ( 1.224646799147353207E-16, -0.000000000000000000, 1.000000000000000000 ) ) ;
#191 = SURFACE_STYLE_FILL_AREA ( #104 ) ;
#192 = AXIS2_PLACEMENT_3D ( 'NONE', #330, #357, #91 ) ;
#193 = CARTESIAN_POINT ( 'NONE',  ( 1.224646799147352714E-16, 3.000000000000000444, 0.000000000000000000 ) ) ;
#194 = STYLED_ITEM ( 'NONE', ( #65 ), #133 ) ;
#195 =( LENGTH_UNIT ( ) NAMED_UNIT ( * ) SI_UNIT ( $, .METRE. ) );
#196 = UNCERTAINTY_MEASURE_WITH_UNIT (LENGTH_MEASURE( 1.000000000000000082E-05 ), #272, 'distance_accuracy_value', 'NONE');
#197 = ORIENTED_EDGE ( 'NONE', *, *, #111, .F. ) ;
#198 = ORIENTED_EDGE ( 'NONE', *, *, #247, .T. ) ;
#199 = MANIFOLD_SOLID_BREP ( 'Revolve - Tool Body (Straight Shanked)', #301 ) ;
#200 = EDGE_LOOP ( 'NONE', ( #253, #235, #315, #115 ) ) ;
#201 =( CONVERSION_BASED_UNIT ( 'INCH', #218 ) LENGTH_UNIT ( ) NAMED_UNIT ( #189 ) );
#202 = CARTESIAN_POINT ( 'NONE',  ( 1.224646799147352714E-16, 3.000000000000000444, 0.000000000000000000 ) ) ;
#203 = CIRCLE ( 'NONE', #103, 0.3749999999999999445 ) ;
#204 = DIRECTION ( 'NONE',  ( -1.000000000000000000, -1.219092139284463632E-16, 0.000000000000000000 ) ) ;
#205 = CARTESIAN_POINT ( 'NONE',  ( 3.815217595126838024E-16, 0.8749999999999997780, 0.000000000000000000 ) ) ;
#206 = FILL_AREA_STYLE ('',( #154 ) ) ;
#207 = LENGTH_MEASURE_WITH_UNIT ( LENGTH_MEASURE( 0.02539999999999999897 ), #36 );
#208 = CARTESIAN_POINT ( 'NONE',  ( 3.815217595126838024E-16, 0.8749999999999997780, 0.000000000000000000 ) ) ;
#209 = CARTESIAN_POINT ( 'NONE',  ( 0.000000000000000000, 0.3750000000000001110, 0.000000000000000000 ) ) ;
#210 = CARTESIAN_POINT ( 'NONE',  ( 0.000000000000000000, 0.3750000000000001110, -0.3749999999999999445 ) ) ;
#211 = CIRCLE ( 'NONE', #242, 0.3749999999999995559 ) ;
#212 = DIRECTION ( 'NONE',  ( -1.219092139284463632E-16, 1.000000000000000000, 0.000000000000000000 ) ) ;
#213 = CARTESIAN_POINT ( 'NONE',  ( -4.592425496802576068E-17, 0.3750000000000001110, 0.000000000000000000 ) ) ;
#214 = CARTESIAN_POINT ( 'NONE',  ( -4.592425496802576068E-17, 0.3750000000000001110, 0.000000000000000000 ) ) ;
#215 = AXIS2_PLACEMENT_3D ( 'NONE', #271, #263, #179 ) ;
#216 = APPLICATION_PROTOCOL_DEFINITION ( 'draft international standard', 'automotive_design', 1998, #371 ) ;
#217 = DIMENSIONAL_EXPONENTS ( 1.000000000000000000, 0.000000000000000000, 0.000000000000000000, 0.000000000000000000, 0.000000000000000000, 0.000000000000000000, 0.000000000000000000 ) ;
#218 = LENGTH_MEASURE_WITH_UNIT ( LENGTH_MEASURE( 0.02539999999999999897 ), #49 );
#219 = ORIENTED_EDGE ( 'NONE', *, *, #328, .T. ) ;
#220 = EDGE_CURVE ( 'NONE', #223, #6, #152, .T. ) ;
#221 = SPHERICAL_SURFACE ( 'NONE', #313, 0.3750000000000001110 ) ;
#222 = ORIENTED_EDGE ( 'NONE', *, *, #225, .F. ) ;
#223 = VERTEX_POINT ( 'NONE', #296 ) ;
#224 =( LENGTH_UNIT ( ) NAMED_UNIT ( * ) SI_UNIT ( $, .METRE. ) );
#225 = EDGE_CURVE ( 'NONE', #291, #314, #137, .T. ) ;
#226 = DIRECTION ( 'NONE',  ( -0.000000000000000000, -1.000000000000000000, -0.000000000000000000 ) ) ;
#227 =( GEOMETRIC_REPRESENTATION_CONTEXT ( 3 ) GLOBAL_UNCERTAINTY_ASSIGNED_CONTEXT ( ( #32 ) ) GLOBAL_UNIT_ASSIGNED_CONTEXT ( ( #331, #365, #181 ) ) REPRESENTATION_CONTEXT ( 'NONE', 'WORKASPACE' ) );
#228 = ORIENTED_EDGE ( 'NONE', *, *, #328, .F. ) ;
#229 = FACE_OUTER_BOUND ( 'NONE', #323, .T. ) ;
#230 = FACE_OUTER_BOUND ( 'NONE', #37, .T. ) ;
#231 = CARTESIAN_POINT ( 'NONE',  ( 4.592425496802573602E-17, 0.3750000000000001110, 0.3749999999999999445 ) ) ;
#232 = AXIS2_PLACEMENT_3D ( 'NONE', #344, #77, #20 ) ;
#233 =( CONVERSION_BASED_UNIT ( 'INCH', #207 ) LENGTH_UNIT ( ) NAMED_UNIT ( #135 ) );
#234 = VERTEX_POINT ( 'NONE', #150 ) ;
#235 = ORIENTED_EDGE ( 'NONE', *, *, #254, .T. ) ;
#236 = DIRECTION ( 'NONE',  ( 1.000000000000000000, 0.000000000000000000, 0.000000000000000000 ) ) ;
#237 = DIRECTION ( 'NONE',  ( -1.219092139284463632E-16, 1.000000000000000000, -0.000000000000000000 ) ) ;
#238 = ADVANCED_FACE ( 'NONE', ( #14 ), #358, .T. ) ;
#239 = SURFACE_SIDE_STYLE ('',( #290 ) ) ;
#240 = CYLINDRICAL_SURFACE ( 'NONE', #192, 0.3749999999999996669 ) ;
#241 = CIRCLE ( 'NONE', #143, 0.3749999999999998335 ) ;
#242 = AXIS2_PLACEMENT_3D ( 'NONE', #205, #294, #12 ) ;
#243 = SPHERICAL_SURFACE ( 'NONE', #147, 0.3750000000000001110 ) ;
#244 = DIRECTION ( 'NONE',  ( 0.000000000000000000, 0.000000000000000000, 1.000000000000000000 ) ) ;
#245 = APPLICATION_CONTEXT ( 'automotive_design' ) ;
#246 =( LENGTH_UNIT ( ) NAMED_UNIT ( * ) SI_UNIT ( $, .METRE. ) );
#247 = EDGE_CURVE ( 'NONE', #28, #234, #203, .T. ) ;
#248 = PRESENTATION_LAYER_ASSIGNMENT (  '', '', ( #194 ) ) ;
#249 =( GEOMETRIC_REPRESENTATION_CONTEXT ( 3 ) GLOBAL_UNCERTAINTY_ASSIGNED_CONTEXT ( ( #281 ) ) GLOBAL_UNIT_ASSIGNED_CONTEXT ( ( #43, #269, #134 ) ) REPRESENTATION_CONTEXT ( 'NONE', 'WORKASPACE' ) );
#250 = DIRECTION ( 'NONE',  ( 1.000000000000000000, 0.000000000000000000, -1.224646799147353207E-16 ) ) ;
#251 = DIRECTION ( 'NONE',  ( 1.000000000000000000, 0.000000000000000000, 0.000000000000000000 ) ) ;
#252 = VECTOR ( 'NONE', #300, 39.37007874015748143 ) ;
#253 = ORIENTED_EDGE ( 'NONE', *, *, #225, .T. ) ;
#254 = EDGE_CURVE ( 'NONE', #314, #355, #88, .T. ) ;
#255 = EDGE_LOOP ( 'NONE', ( #57, #120, #107, #34 ) ) ;
#256 = MECHANICAL_DESIGN_GEOMETRIC_PRESENTATION_REPRESENTATION (  '', ( #1 ), #5 ) ;
#257 = COLOUR_RGB ( '',1.000000000000000000, 0.000000000000000000, 0.000000000000000000 ) ;
#258 = PRESENTATION_STYLE_ASSIGNMENT (( #117 ) ) ;
#259 = ADVANCED_FACE ( 'NONE', ( #366 ), #311, .T. ) ;
#260 = ORIENTED_EDGE ( 'NONE', *, *, #111, .T. ) ;
#261 = EDGE_CURVE ( 'NONE', #55, #291, #7, .T. ) ;
#262 = CARTESIAN_POINT ( 'NONE',  ( -2.296212748401288034E-17, 0.000000000000000000, 0.000000000000000000 ) ) ;
#263 = DIRECTION ( 'NONE',  ( -0.000000000000000000, -1.000000000000000000, -0.000000000000000000 ) ) ;
#264 = DIRECTION ( 'NONE',  ( -1.000000000000000000, 0.000000000000000000, 0.000000000000000000 ) ) ;
#265 = DIRECTION ( 'NONE',  ( -0.000000000000000000, -1.000000000000000000, -0.000000000000000000 ) ) ;
#266 = FILL_AREA_STYLE_COLOUR ( '', #156 ) ;
#267 = ORIENTED_EDGE ( 'NONE', *, *, #254, .F. ) ;
#268 = CARTESIAN_POINT ( 'NONE',  ( -0.3750000000000001110, 0.3750000000000001110, 4.592425496802574219E-17 ) ) ;
#269 =( NAMED_UNIT ( * ) PLANE_ANGLE_UNIT ( ) SI_UNIT ( $, .RADIAN. ) );
#270 = PRESENTATION_LAYER_ASSIGNMENT (  '', '', ( #45 ) ) ;
#271 = CARTESIAN_POINT ( 'NONE',  ( 0.000000000000000000, 0.3750000000000001110, 0.000000000000000000 ) ) ;
#272 =( CONVERSION_BASED_UNIT ( 'INCH', #346 ) LENGTH_UNIT ( ) NAMED_UNIT ( #309 ) );
#273 = SURFACE_STYLE_USAGE ( .BOTH. , #306 ) ;
#274 = SHAPE_DEFINITION_REPRESENTATION ( #15, #13 ) ;
#275 = DIRECTION ( 'NONE',  ( 1.000000000000000000, 0.000000000000000000, 0.000000000000000000 ) ) ;
#276 = COLOUR_RGB ( '',0.7921568627450980005, 0.8196078431372548767, 0.9333333333333333481 ) ;
#277 = AXIS2_PLACEMENT_3D ( 'NONE', #44, #180, #130 ) ;
#278 =( NAMED_UNIT ( * ) SI_UNIT ( $, .STERADIAN. ) SOLID_ANGLE_UNIT ( ) );
#279 = SURFACE_STYLE_FILL_AREA ( #101 ) ;
#280 = PRESENTATION_STYLE_ASSIGNMENT (( #102 ) ) ;
#281 = UNCERTAINTY_MEASURE_WITH_UNIT (LENGTH_MEASURE( 1.000000000000000082E-05 ), #43, 'distance_accuracy_value', 'NONE');
#282 = PRESENTATION_LAYER_ASSIGNMENT (  '', '', ( #349 ) ) ;
#283 = SURFACE_STYLE_USAGE ( .BOTH. , #56 ) ;
#284 = VECTOR ( 'NONE', #226, 39.37007874015748143 ) ;
#285 = ORIENTED_EDGE ( 'NONE', *, *, #160, .T. ) ;
#286 = CIRCLE ( 'NONE', #132, 0.3749999999999998335 ) ;
#287 = UNCERTAINTY_MEASURE_WITH_UNIT (LENGTH_MEASURE( 1.000000000000000082E-05 ), #18, 'distance_accuracy_value', 'NONE');
#288 = STYLED_ITEM ( 'NONE', ( #280 ), #259 ) ;
#289 = ADVANCED_FACE ( 'NONE', ( #230 ), #243, .T. ) ;
#290 = SURFACE_STYLE_FILL_AREA ( #128 ) ;
#291 = VERTEX_POINT ( 'NONE', #231 ) ;
#292 =( NAMED_UNIT ( * ) PLANE_ANGLE_UNIT ( ) SI_UNIT ( $, .RADIAN. ) );
#293 = VERTEX_POINT ( 'NONE', #305 ) ;
#294 = DIRECTION ( 'NONE',  ( -1.219092139284463632E-16, 1.000000000000000000, -0.000000000000000000 ) ) ;
#295 = SURFACE_SIDE_STYLE ('',( #325 ) ) ;
#296 = CARTESIAN_POINT ( 'NONE',  ( -0.3749999999999991673, 0.8749999999999997780, 0.000000000000000000 ) ) ;
#297 =( NAMED_UNIT ( * ) SI_UNIT ( $, .STERADIAN. ) SOLID_ANGLE_UNIT ( ) );
#298 = LENGTH_MEASURE_WITH_UNIT ( LENGTH_MEASURE( 0.02539999999999999897 ), #224 );
#299 =( LENGTH_UNIT ( ) NAMED_UNIT ( * ) SI_UNIT ( $, .METRE. ) );
#300 = DIRECTION ( 'NONE',  ( -1.219092139284463632E-16, 1.000000000000000000, -0.000000000000000000 ) ) ;
#301 = CLOSED_SHELL ( 'NONE', ( #238, #52, #33, #74 ) ) ;
#302 = MECHANICAL_DESIGN_GEOMETRIC_PRESENTATION_REPRESENTATION (  '', ( #356 ), #249 ) ;
#303 = CARTESIAN_POINT ( 'NONE',  ( 0.3749999999999999445, 0.8749999999999997780, 4.592425496802571754E-17 ) ) ;
#304 = PRESENTATION_STYLE_ASSIGNMENT (( #273 ) ) ;
#305 = CARTESIAN_POINT ( 'NONE',  ( 0.3749999999999999445, 3.000000000000000444, 4.592425496802571754E-17 ) ) ;
#306 = SURFACE_SIDE_STYLE ('',( #186 ) ) ;
#307 = PRODUCT_RELATED_PRODUCT_CATEGORY ( 'part', '', ( #310 ) ) ;
#308 = FILL_AREA_STYLE_COLOUR ( '', #276 ) ;
#309 = DIMENSIONAL_EXPONENTS ( 1.000000000000000000, 0.000000000000000000, 0.000000000000000000, 0.000000000000000000, 0.000000000000000000, 0.000000000000000000, 0.000000000000000000 ) ;
#310 = PRODUCT ( '83300', '83300', '', ( #138 ) ) ;
#311 = CYLINDRICAL_SURFACE ( 'NONE', #72, 0.3749999999999999445 ) ;
#312 = CLOSED_SHELL ( 'NONE', ( #133, #122, #182, #259, #289 ) ) ;
#313 = AXIS2_PLACEMENT_3D ( 'NONE', #161, #46, #275 ) ;
#314 = VERTEX_POINT ( 'NONE', #268 ) ;
#315 = ORIENTED_EDGE ( 'NONE', *, *, #348, .F. ) ;
#316 = DIRECTION ( 'NONE',  ( -0.000000000000000000, -1.000000000000000000, -0.000000000000000000 ) ) ;
#317 = UNCERTAINTY_MEASURE_WITH_UNIT (LENGTH_MEASURE( 1.000000000000000082E-05 ), #233, 'distance_accuracy_value', 'NONE');
#318 = DIRECTION ( 'NONE',  ( 0.000000000000000000, 0.000000000000000000, -1.000000000000000000 ) ) ;
#319 = EDGE_LOOP ( 'NONE', ( #27, #361, #89, #113, #228 ) ) ;
#320 =( NAMED_UNIT ( * ) SI_UNIT ( $, .STERADIAN. ) SOLID_ANGLE_UNIT ( ) );
#321 = MECHANICAL_DESIGN_GEOMETRIC_PRESENTATION_REPRESENTATION (  '', ( #349 ), #178 ) ;
#322 = AXIS2_PLACEMENT_3D ( 'NONE', #369, #244, #251 ) ;
#323 = EDGE_LOOP ( 'NONE', ( #350, #170, #347, #141 ) ) ;
#324 = CARTESIAN_POINT ( 'NONE',  ( 0.000000000000000000, 0.000000000000000000, -0.3749999999999999445 ) ) ;
#325 = SURFACE_STYLE_FILL_AREA ( #206 ) ;
#326 = ORIENTED_EDGE ( 'NONE', *, *, #73, .T. ) ;
#327 =( LENGTH_UNIT ( ) NAMED_UNIT ( * ) SI_UNIT ( $, .METRE. ) );
#328 = EDGE_CURVE ( 'NONE', #352, #28, #336, .T. ) ;
#329 = DIRECTION ( 'NONE',  ( 0.000000000000000000, 0.000000000000000000, -1.000000000000000000 ) ) ;
#330 = CARTESIAN_POINT ( 'NONE',  ( 1.224646799147352714E-16, 3.000000000000000444, 0.000000000000000000 ) ) ;
#331 =( CONVERSION_BASED_UNIT ( 'INCH', #298 ) LENGTH_UNIT ( ) NAMED_UNIT ( #19 ) );
#332 = PRESENTATION_LAYER_ASSIGNMENT (  '', '', ( #1 ) ) ;
#333 = CARTESIAN_POINT ( 'NONE',  ( 4.592425496802573602E-17, 0.8750000000000000000, 0.3749999999999999445 ) ) ;
#334 = CARTESIAN_POINT ( 'NONE',  ( 0.000000000000000000, 0.000000000000000000, 0.000000000000000000 ) ) ;
#335 = FILL_AREA_STYLE ('',( #71 ) ) ;
#336 = LINE ( 'NONE', #324, #367 ) ;
#337 = EDGE_CURVE ( 'NONE', #352, #55, #69, .T. ) ;
#338 = DIRECTION ( 'NONE',  ( 0.000000000000000000, 1.000000000000000000, 0.000000000000000000 ) ) ;
#339 = SURFACE_SIDE_STYLE ('',( #191 ) ) ;
#340 = COLOUR_RGB ( '',1.000000000000000000, 0.000000000000000000, 0.000000000000000000 ) ;
#341 = MECHANICAL_DESIGN_GEOMETRIC_PRESENTATION_REPRESENTATION (  '', ( #288 ), #17 ) ;
#342 = DIMENSIONAL_EXPONENTS ( 1.000000000000000000, 0.000000000000000000, 0.000000000000000000, 0.000000000000000000, 0.000000000000000000, 0.000000000000000000, 0.000000000000000000 ) ;
#343 = APPLICATION_PROTOCOL_DEFINITION ( 'draft international standard', 'automotive_design', 1998, #245 ) ;
#344 = CARTESIAN_POINT ( 'NONE',  ( 0.000000000000000000, 0.8750000000000000000, 0.000000000000000000 ) ) ;
#345 = EDGE_LOOP ( 'NONE', ( #148, #53 ) ) ;
#346 = LENGTH_MEASURE_WITH_UNIT ( LENGTH_MEASURE( 0.02539999999999999897 ), #195 );
#347 = ORIENTED_EDGE ( 'NONE', *, *, #220, .T. ) ;
#348 = EDGE_CURVE ( 'NONE', #234, #355, #112, .T. ) ;
#349 = STYLED_ITEM ( 'NONE', ( #258 ), #76 ) ;
#350 = ORIENTED_EDGE ( 'NONE', *, *, #359, .F. ) ;
#351 = EDGE_CURVE ( 'NONE', #145, #223, #211, .T. ) ;
#352 = VERTEX_POINT ( 'NONE', #146 ) ;
#353 = CARTESIAN_POINT ( 'NONE',  ( 0.000000000000000000, 0.000000000000000000, 0.000000000000000000 ) ) ;
#354 = ORIENTED_EDGE ( 'NONE', *, *, #351, .F. ) ;
#355 = VERTEX_POINT ( 'NONE', #262 ) ;
#356 = STYLED_ITEM ( 'NONE', ( #304 ), #199 ) ;
#357 = DIRECTION ( 'NONE',  ( -1.219092139284463632E-16, 1.000000000000000000, -0.000000000000000000 ) ) ;
#358 = CYLINDRICAL_SURFACE ( 'NONE', #144, 0.3749999999999996669 ) ;
#359 = EDGE_CURVE ( 'NONE', #145, #293, #149, .T. ) ;
#360 = CARTESIAN_POINT ( 'NONE',  ( 0.000000000000000000, 0.3750000000000001110, 0.000000000000000000 ) ) ;
#361 = ORIENTED_EDGE ( 'NONE', *, *, #261, .T. ) ;
#362 = DIRECTION ( 'NONE',  ( -0.000000000000000000, -1.000000000000000000, -0.000000000000000000 ) ) ;
#363 = SURFACE_STYLE_USAGE ( .BOTH. , #239 ) ;
#364 = PRESENTATION_LAYER_ASSIGNMENT (  '', '', ( #288 ) ) ;
#365 =( NAMED_UNIT ( * ) PLANE_ANGLE_UNIT ( ) SI_UNIT ( $, .RADIAN. ) );
#366 = FACE_OUTER_BOUND ( 'NONE', #110, .T. ) ;
#367 = VECTOR ( 'NONE', #184, 39.37007874015748143 ) ;
#368 = DIMENSIONAL_EXPONENTS ( 1.000000000000000000, 0.000000000000000000, 0.000000000000000000, 0.000000000000000000, 0.000000000000000000, 0.000000000000000000, 0.000000000000000000 ) ;
#369 = CARTESIAN_POINT ( 'NONE',  ( 0.000000000000000000, 0.000000000000000000, 0.000000000000000000 ) ) ;
#370 = FACE_OUTER_BOUND ( 'NONE', #345, .T. ) ;
#371 = APPLICATION_CONTEXT ( 'automotive_design' ) ;
#372 =( NAMED_UNIT ( * ) PLANE_ANGLE_UNIT ( ) SI_UNIT ( $, .RADIAN. ) );
#373 =( NAMED_UNIT ( * ) SI_UNIT ( $, .STERADIAN. ) SOLID_ANGLE_UNIT ( ) );
ENDSEC;
END-ISO-10303-21;
