ISO-10303-21;
HEADER;
FILE_DESCRIPTION (( 'STEP AP214' ),
    '1' );
FILE_NAME ('81940.STEP',
    '2023-06-23T03:59:43',
    ( '' ),
    ( '' ),
    'SwSTEP 2.0',
    'SolidWorks 2023',
    '' );
FILE_SCHEMA (( 'AUTOMOTIVE_DESIGN' ));
ENDSEC;

DATA;
#1 = VERTEX_POINT ( 'NONE', #99 ) ;
#2 = EDGE_LOOP ( 'NONE', ( #287, #251 ) ) ;
#3 = LENGTH_MEASURE_WITH_UNIT ( LENGTH_MEASURE( 0.02539999999999999897 ), #291 );
#4 = VERTEX_POINT ( 'NONE', #125 ) ;
#5 =( CONVERSION_BASED_UNIT ( 'INCH', #3 ) LENGTH_UNIT ( ) NAMED_UNIT ( #46 ) );
#6 = STYLED_ITEM ( 'NONE', ( #155 ), #29 ) ;
#7 = AXIS2_PLACEMENT_3D ( 'NONE', #116, #222, #167 ) ;
#8 = ORIENTED_EDGE ( 'NONE', *, *, #284, .T. ) ;
#9 = CARTESIAN_POINT ( 'NONE',  ( 0.000000000000000000, 0.000000000000000000, 0.000000000000000000 ) ) ;
#10 =( LENGTH_UNIT ( ) NAMED_UNIT ( * ) SI_UNIT ( $, .METRE. ) );
#11 = PRODUCT_DEFINITION_SHAPE ( 'NONE', 'NONE',  #178 ) ;
#12 = CARTESIAN_POINT ( 'NONE',  ( -0.2500000000000000000, 2.000000000000000000, 0.000000000000000000 ) ) ;
#13 = CARTESIAN_POINT ( 'NONE',  ( -6.123233995736766036E-17, 4.000000000000000000, 0.000000000000000000 ) ) ;
#14 = DIRECTION ( 'NONE',  ( 0.000000000000000000, 0.000000000000000000, -1.000000000000000000 ) ) ;
#15 = CYLINDRICAL_SURFACE ( 'NONE', #286, 0.2500000000000000555 ) ;
#16 = DIRECTION ( 'NONE',  ( 1.000000000000000000, 0.000000000000000000, 0.000000000000000000 ) ) ;
#17 = PRODUCT_CONTEXT ( 'NONE', #49, 'mechanical' ) ;
#18 = MECHANICAL_DESIGN_GEOMETRIC_PRESENTATION_REPRESENTATION (  '', ( #70 ), #212 ) ;
#19 = CIRCLE ( 'NONE', #233, 0.2500000000000000555 ) ;
#20 = CARTESIAN_POINT ( 'NONE',  ( -0.2500000000000001110, 4.000000000000000000, 0.000000000000000000 ) ) ;
#21 = CARTESIAN_POINT ( 'NONE',  ( 0.000000000000000000, 0.000000000000000000, 0.000000000000000000 ) ) ;
#22 = DIRECTION ( 'NONE',  ( 0.000000000000000000, 1.000000000000000000, 0.000000000000000000 ) ) ;
#23 = STYLED_ITEM ( 'NONE', ( #258 ), #74 ) ;
#24 = SURFACE_STYLE_USAGE ( .BOTH. , #94 ) ;
#25 = FACE_OUTER_BOUND ( 'NONE', #234, .T. ) ;
#26 = ORIENTED_EDGE ( 'NONE', *, *, #58, .T. ) ;
#27 = COLOUR_RGB ( '',0.7921568627450980005, 0.8196078431372548767, 0.9333333333333333481 ) ;
#28 = ORIENTED_EDGE ( 'NONE', *, *, #106, .T. ) ;
#29 = MANIFOLD_SOLID_BREP ( 'Revolve - Tool Body (Straight Shanked)', #238 ) ;
#30 = ADVANCED_FACE ( 'NONE', ( #159 ), #204, .F. ) ;
#31 =( NAMED_UNIT ( * ) PLANE_ANGLE_UNIT ( ) SI_UNIT ( $, .RADIAN. ) );
#32 = SURFACE_STYLE_FILL_AREA ( #290 ) ;
#33 = CARTESIAN_POINT ( 'NONE',  ( 0.000000000000000000, 2.000000000000000000, 0.000000000000000000 ) ) ;
#34 = ORIENTED_EDGE ( 'NONE', *, *, #294, .T. ) ;
#35 = ADVANCED_FACE ( 'NONE', ( #189 ), #15, .T. ) ;
#36 =( LENGTH_UNIT ( ) NAMED_UNIT ( * ) SI_UNIT ( $, .METRE. ) );
#37 =( NAMED_UNIT ( * ) PLANE_ANGLE_UNIT ( ) SI_UNIT ( $, .RADIAN. ) );
#38 = AXIS2_PLACEMENT_3D ( 'NONE', #81, #276, #14 ) ;
#39 = DIRECTION ( 'NONE',  ( -0.000000000000000000, -1.000000000000000000, -0.000000000000000000 ) ) ;
#40 = DIRECTION ( 'NONE',  ( 0.000000000000000000, 0.000000000000000000, 1.000000000000000000 ) ) ;
#41 = UNCERTAINTY_MEASURE_WITH_UNIT (LENGTH_MEASURE( 1.000000000000000082E-05 ), #220, 'distance_accuracy_value', 'NONE');
#42 = DIRECTION ( 'NONE',  ( 0.000000000000000000, 0.000000000000000000, -1.000000000000000000 ) ) ;
#43 = COLOUR_RGB ( '',1.000000000000000000, 0.000000000000000000, 0.000000000000000000 ) ;
#44 = PRODUCT_DEFINITION_FORMATION_WITH_SPECIFIED_SOURCE ( 'ANY', '', #109, .NOT_KNOWN. ) ;
#45 = CARTESIAN_POINT ( 'NONE',  ( 0.000000000000000000, 0.000000000000000000, 0.000000000000000000 ) ) ;
#46 = DIMENSIONAL_EXPONENTS ( 1.000000000000000000, 0.000000000000000000, 0.000000000000000000, 0.000000000000000000, 0.000000000000000000, 0.000000000000000000, 0.000000000000000000 ) ;
#47 = VECTOR ( 'NONE', #218, 39.37007874015748143 ) ;
#48 = AXIS2_PLACEMENT_3D ( 'NONE', #105, #40, #16 ) ;
#49 = APPLICATION_CONTEXT ( 'automotive_design' ) ;
#50 = ADVANCED_FACE ( 'NONE', ( #166 ), #104, .T. ) ;
#51 = ORIENTED_EDGE ( 'NONE', *, *, #284, .F. ) ;
#52 = SURFACE_STYLE_USAGE ( .BOTH. , #129 ) ;
#53 =( GEOMETRIC_REPRESENTATION_CONTEXT ( 3 ) GLOBAL_UNCERTAINTY_ASSIGNED_CONTEXT ( ( #69 ) ) GLOBAL_UNIT_ASSIGNED_CONTEXT ( ( #5, #31, #179 ) ) REPRESENTATION_CONTEXT ( 'NONE', 'WORKASPACE' ) );
#54 = SURFACE_STYLE_USAGE ( .BOTH. , #76 ) ;
#55 = DIRECTION ( 'NONE',  ( -1.000000000000000000, 0.000000000000000000, 0.000000000000000000 ) ) ;
#56 = FILL_AREA_STYLE_COLOUR ( '', #27 ) ;
#57 = FACE_OUTER_BOUND ( 'NONE', #190, .T. ) ;
#58 = EDGE_CURVE ( 'NONE', #1, #120, #240, .T. ) ;
#59 = VERTEX_POINT ( 'NONE', #63 ) ;
#60 = STYLED_ITEM ( 'NONE', ( #151 ), #239 ) ;
#61 =( CONVERSION_BASED_UNIT ( 'INCH', #87 ) LENGTH_UNIT ( ) NAMED_UNIT ( #230 ) );
#62 = CYLINDRICAL_SURFACE ( 'NONE', #180, 0.2500000000000000000 ) ;
#63 = CARTESIAN_POINT ( 'NONE',  ( 0.2500000000000000000, 2.000000000000000000, 3.061616997868383634E-17 ) ) ;
#64 =( NAMED_UNIT ( * ) SI_UNIT ( $, .STERADIAN. ) SOLID_ANGLE_UNIT ( ) );
#65 = ORIENTED_EDGE ( 'NONE', *, *, #169, .F. ) ;
#66 = SURFACE_STYLE_USAGE ( .BOTH. , #211 ) ;
#67 = PRESENTATION_LAYER_ASSIGNMENT (  '', '', ( #70 ) ) ;
#68 = DIRECTION ( 'NONE',  ( 0.000000000000000000, 0.000000000000000000, -1.000000000000000000 ) ) ;
#69 = UNCERTAINTY_MEASURE_WITH_UNIT (LENGTH_MEASURE( 1.000000000000000082E-05 ), #5, 'distance_accuracy_value', 'NONE');
#70 = STYLED_ITEM ( 'NONE', ( #136 ), #50 ) ;
#71 =( LENGTH_UNIT ( ) NAMED_UNIT ( * ) SI_UNIT ( $, .METRE. ) );
#72 = COLOUR_RGB ( '',0.7921568627450980005, 0.8196078431372548767, 0.9333333333333333481 ) ;
#73 = VERTEX_POINT ( 'NONE', #214 ) ;
#74 = ADVANCED_FACE ( 'NONE', ( #235 ), #299, .T. ) ;
#75 = VERTEX_POINT ( 'NONE', #147 ) ;
#76 = SURFACE_SIDE_STYLE ('',( #32 ) ) ;
#77 = FILL_AREA_STYLE ('',( #134 ) ) ;
#78 = MECHANICAL_DESIGN_GEOMETRIC_PRESENTATION_REPRESENTATION (  '', ( #60 ), #131 ) ;
#79 = LENGTH_MEASURE_WITH_UNIT ( LENGTH_MEASURE( 0.02539999999999999897 ), #288 );
#80 = LENGTH_MEASURE_WITH_UNIT ( LENGTH_MEASURE( 0.02539999999999999897 ), #128 );
#81 = CARTESIAN_POINT ( 'NONE',  ( 0.000000000000000000, 0.000000000000000000, 0.000000000000000000 ) ) ;
#82 = DIRECTION ( 'NONE',  ( 0.000000000000000000, -0.000000000000000000, 1.000000000000000000 ) ) ;
#83 = DIRECTION ( 'NONE',  ( 0.000000000000000000, 0.000000000000000000, -1.000000000000000000 ) ) ;
#84 = ADVANCED_FACE ( 'NONE', ( #115 ), #194, .F. ) ;
#85 =( NAMED_UNIT ( * ) SI_UNIT ( $, .STERADIAN. ) SOLID_ANGLE_UNIT ( ) );
#86 = SURFACE_STYLE_FILL_AREA ( #140 ) ;
#87 = LENGTH_MEASURE_WITH_UNIT ( LENGTH_MEASURE( 0.02539999999999999897 ), #10 );
#88 = COLOUR_RGB ( '',1.000000000000000000, 0.000000000000000000, 0.000000000000000000 ) ;
#89 =( GEOMETRIC_REPRESENTATION_CONTEXT ( 3 ) GLOBAL_UNCERTAINTY_ASSIGNED_CONTEXT ( ( #183 ) ) GLOBAL_UNIT_ASSIGNED_CONTEXT ( ( #181, #297, #215 ) ) REPRESENTATION_CONTEXT ( 'NONE', 'WORKASPACE' ) );
#90 = ADVANCED_FACE ( 'NONE', ( #141 ), #264, .T. ) ;
#91 = CARTESIAN_POINT ( 'NONE',  ( 0.000000000000000000, 2.000000000000000000, 0.000000000000000000 ) ) ;
#92 = DIRECTION ( 'NONE',  ( -0.000000000000000000, -1.000000000000000000, -0.000000000000000000 ) ) ;
#93 = LENGTH_MEASURE_WITH_UNIT ( LENGTH_MEASURE( 0.02539999999999999897 ), #71 );
#94 = SURFACE_SIDE_STYLE ('',( #260 ) ) ;
#95 = DIMENSIONAL_EXPONENTS ( 1.000000000000000000, 0.000000000000000000, 0.000000000000000000, 0.000000000000000000, 0.000000000000000000, 0.000000000000000000, 0.000000000000000000 ) ;
#96 = EDGE_CURVE ( 'NONE', #1, #73, #113, .T. ) ;
#97 = ORIENTED_EDGE ( 'NONE', *, *, #96, .T. ) ;
#98 = FILL_AREA_STYLE_COLOUR ( '', #88 ) ;
#99 = CARTESIAN_POINT ( 'NONE',  ( 0.000000000000000000, 2.000000000000000000, -0.2500000000000000000 ) ) ;
#100 = LINE ( 'NONE', #202, #172 ) ;
#101 = ORIENTED_EDGE ( 'NONE', *, *, #246, .F. ) ;
#102 = AXIS2_PLACEMENT_3D ( 'NONE', #217, #243, #303 ) ;
#103 = DIRECTION ( 'NONE',  ( -3.061616997868383018E-17, 1.000000000000000000, -0.000000000000000000 ) ) ;
#104 = CYLINDRICAL_SURFACE ( 'NONE', #38, 0.2500000000000000000 ) ;
#105 = CARTESIAN_POINT ( 'NONE',  ( 0.000000000000000000, 0.000000000000000000, 0.000000000000000000 ) ) ;
#106 = EDGE_CURVE ( 'NONE', #59, #267, #216, .T. ) ;
#107 =( NAMED_UNIT ( * ) SI_UNIT ( $, .STERADIAN. ) SOLID_ANGLE_UNIT ( ) );
#108 =( GEOMETRIC_REPRESENTATION_CONTEXT ( 3 ) GLOBAL_UNCERTAINTY_ASSIGNED_CONTEXT ( ( #195 ) ) GLOBAL_UNIT_ASSIGNED_CONTEXT ( ( #182, #278, #64 ) ) REPRESENTATION_CONTEXT ( 'NONE', 'WORKASPACE' ) );
#109 = PRODUCT ( '81940', '81940', '', ( #17 ) ) ;
#110 = AXIS2_PLACEMENT_3D ( 'NONE', #285, #241, #263 ) ;
#111 =( CONVERSION_BASED_UNIT ( 'INCH', #161 ) LENGTH_UNIT ( ) NAMED_UNIT ( #225 ) );
#112 = CARTESIAN_POINT ( 'NONE',  ( 0.000000000000000000, 0.000000000000000000, -0.2500000000000000000 ) ) ;
#113 = CIRCLE ( 'NONE', #102, 0.2500000000000000000 ) ;
#114 = UNCERTAINTY_MEASURE_WITH_UNIT (LENGTH_MEASURE( 1.000000000000000082E-05 ), #111, 'distance_accuracy_value', 'NONE');
#115 = FACE_OUTER_BOUND ( 'NONE', #252, .T. ) ;
#116 = CARTESIAN_POINT ( 'NONE',  ( 0.000000000000000000, 2.000000000000000000, 0.000000000000000000 ) ) ;
#117 = CLOSED_SHELL ( 'NONE', ( #50, #239, #259, #74 ) ) ;
#118 = VECTOR ( 'NONE', #39, 39.37007874015748143 ) ;
#119 = SURFACE_STYLE_FILL_AREA ( #121 ) ;
#120 = VERTEX_POINT ( 'NONE', #265 ) ;
#121 = FILL_AREA_STYLE ('',( #98 ) ) ;
#122 = ORIENTED_EDGE ( 'NONE', *, *, #146, .F. ) ;
#123 = DIRECTION ( 'NONE',  ( -0.000000000000000000, -1.000000000000000000, -0.000000000000000000 ) ) ;
#124 = MECHANICAL_DESIGN_GEOMETRIC_PRESENTATION_REPRESENTATION (  '', ( #224 ), #53 ) ;
#125 = CARTESIAN_POINT ( 'NONE',  ( 3.061616997868383018E-17, 0.000000000000000000, 0.2500000000000000000 ) ) ;
#126 = DIRECTION ( 'NONE',  ( 0.000000000000000000, 0.000000000000000000, -1.000000000000000000 ) ) ;
#127 = EDGE_CURVE ( 'NONE', #4, #120, #213, .T. ) ;
#128 =( LENGTH_UNIT ( ) NAMED_UNIT ( * ) SI_UNIT ( $, .METRE. ) );
#129 = SURFACE_SIDE_STYLE ('',( #156 ) ) ;
#130 = ORIENTED_EDGE ( 'NONE', *, *, #169, .T. ) ;
#131 =( GEOMETRIC_REPRESENTATION_CONTEXT ( 3 ) GLOBAL_UNCERTAINTY_ASSIGNED_CONTEXT ( ( #219 ) ) GLOBAL_UNIT_ASSIGNED_CONTEXT ( ( #227, #37, #107 ) ) REPRESENTATION_CONTEXT ( 'NONE', 'WORKASPACE' ) );
#132 = DIRECTION ( 'NONE',  ( -3.061616997868383018E-17, 1.000000000000000000, -0.000000000000000000 ) ) ;
#133 = APPLICATION_CONTEXT ( 'automotive_design' ) ;
#134 = FILL_AREA_STYLE_COLOUR ( '', #43 ) ;
#135 = MANIFOLD_SOLID_BREP ( 'Revolve - Cutting Edge', #117 ) ;
#136 = PRESENTATION_STYLE_ASSIGNMENT (( #66 ) ) ;
#137 = CARTESIAN_POINT ( 'NONE',  ( 0.2500000000000000000, 4.000000000000000000, 0.000000000000000000 ) ) ;
#138 = AXIS2_PLACEMENT_3D ( 'NONE', #21, #170, #282 ) ;
#139 = UNCERTAINTY_MEASURE_WITH_UNIT (LENGTH_MEASURE( 1.000000000000000082E-05 ), #61, 'distance_accuracy_value', 'NONE');
#140 = FILL_AREA_STYLE ('',( #292 ) ) ;
#141 = FACE_OUTER_BOUND ( 'NONE', #273, .T. ) ;
#142 = LINE ( 'NONE', #20, #47 ) ;
#143 = CIRCLE ( 'NONE', #185, 0.2500000000000000000 ) ;
#144 = PRODUCT_DEFINITION_CONTEXT ( 'detailed design', #133, 'design' ) ;
#145 = FILL_AREA_STYLE ('',( #148 ) ) ;
#146 = EDGE_CURVE ( 'NONE', #73, #1, #274, .T. ) ;
#147 = CARTESIAN_POINT ( 'NONE',  ( -0.2500000000000001110, 4.000000000000000000, 0.000000000000000000 ) ) ;
#148 = FILL_AREA_STYLE_COLOUR ( '', #72 ) ;
#149 = AXIS2_PLACEMENT_3D ( 'NONE', #91, #281, #42 ) ;
#150 = SURFACE_SIDE_STYLE ('',( #119 ) ) ;
#151 = PRESENTATION_STYLE_ASSIGNMENT (( #268 ) ) ;
#152 = ORIENTED_EDGE ( 'NONE', *, *, #58, .F. ) ;
#153 = PRESENTATION_LAYER_ASSIGNMENT (  '', '', ( #305 ) ) ;
#154 = AXIS2_PLACEMENT_3D ( 'NONE', #176, #275, #226 ) ;
#155 = PRESENTATION_STYLE_ASSIGNMENT (( #54 ) ) ;
#156 = SURFACE_STYLE_FILL_AREA ( #77 ) ;
#157 = ORIENTED_EDGE ( 'NONE', *, *, #246, .T. ) ;
#158 = COLOUR_RGB ( '',1.000000000000000000, 0.000000000000000000, 0.000000000000000000 ) ;
#159 = FACE_OUTER_BOUND ( 'NONE', #2, .T. ) ;
#160 = LINE ( 'NONE', #229, #193 ) ;
#161 = LENGTH_MEASURE_WITH_UNIT ( LENGTH_MEASURE( 0.02539999999999999897 ), #184 );
#162 = FILL_AREA_STYLE_COLOUR ( '', #158 ) ;
#163 = APPLICATION_PROTOCOL_DEFINITION ( 'draft international standard', 'automotive_design', 1998, #133 ) ;
#164 = AXIS2_PLACEMENT_3D ( 'NONE', #307, #92, #68 ) ;
#165 = CIRCLE ( 'NONE', #154, 0.2500000000000000555 ) ;
#166 = FACE_OUTER_BOUND ( 'NONE', #228, .T. ) ;
#167 = DIRECTION ( 'NONE',  ( -1.000000000000000000, 0.000000000000000000, 0.000000000000000000 ) ) ;
#168 = CARTESIAN_POINT ( 'NONE',  ( 1.171687330204576256E-34, 2.000000000000000000, 0.000000000000000000 ) ) ;
#169 = EDGE_CURVE ( 'NONE', #267, #75, #142, .T. ) ;
#170 = DIRECTION ( 'NONE',  ( 0.000000000000000000, -1.000000000000000000, -0.000000000000000000 ) ) ;
#171 = AXIS2_PLACEMENT_3D ( 'NONE', #137, #236, #209 ) ;
#172 = VECTOR ( 'NONE', #293, 39.37007874015748143 ) ;
#173 = DIRECTION ( 'NONE',  ( -0.000000000000000000, -1.000000000000000000, -0.000000000000000000 ) ) ;
#174 = EDGE_LOOP ( 'NONE', ( #247, #248 ) ) ;
#175 = ORIENTED_EDGE ( 'NONE', *, *, #127, .F. ) ;
#176 = CARTESIAN_POINT ( 'NONE',  ( -6.123233995736766036E-17, 4.000000000000000000, 0.000000000000000000 ) ) ;
#177 = LENGTH_MEASURE_WITH_UNIT ( LENGTH_MEASURE( 0.02539999999999999897 ), #36 );
#178 = PRODUCT_DEFINITION ( 'UNKNOWN', '', #44, #144 ) ;
#179 =( NAMED_UNIT ( * ) SI_UNIT ( $, .STERADIAN. ) SOLID_ANGLE_UNIT ( ) );
#180 = AXIS2_PLACEMENT_3D ( 'NONE', #9, #123, #126 ) ;
#181 =( CONVERSION_BASED_UNIT ( 'INCH', #79 ) LENGTH_UNIT ( ) NAMED_UNIT ( #306 ) );
#182 =( CONVERSION_BASED_UNIT ( 'INCH', #80 ) LENGTH_UNIT ( ) NAMED_UNIT ( #266 ) );
#183 = UNCERTAINTY_MEASURE_WITH_UNIT (LENGTH_MEASURE( 1.000000000000000082E-05 ), #181, 'distance_accuracy_value', 'NONE');
#184 =( LENGTH_UNIT ( ) NAMED_UNIT ( * ) SI_UNIT ( $, .METRE. ) );
#185 = AXIS2_PLACEMENT_3D ( 'NONE', #33, #103, #232 ) ;
#186 = PLANE ( 'NONE',  #301 ) ;
#187 = DIMENSIONAL_EXPONENTS ( 1.000000000000000000, 0.000000000000000000, 0.000000000000000000, 0.000000000000000000, 0.000000000000000000, 0.000000000000000000, 0.000000000000000000 ) ;
#188 = SURFACE_STYLE_USAGE ( .BOTH. , #191 ) ;
#189 = FACE_OUTER_BOUND ( 'NONE', #289, .T. ) ;
#190 = EDGE_LOOP ( 'NONE', ( #51, #250, #26, #175 ) ) ;
#191 = SURFACE_SIDE_STYLE ('',( #86 ) ) ;
#192 =( GEOMETRIC_REPRESENTATION_CONTEXT ( 3 ) GLOBAL_UNCERTAINTY_ASSIGNED_CONTEXT ( ( #41 ) ) GLOBAL_UNIT_ASSIGNED_CONTEXT ( ( #220, #308, #199 ) ) REPRESENTATION_CONTEXT ( 'NONE', 'WORKASPACE' ) );
#193 = VECTOR ( 'NONE', #270, 39.37007874015748143 ) ;
#194 = PLANE ( 'NONE',  #253 ) ;
#195 = UNCERTAINTY_MEASURE_WITH_UNIT (LENGTH_MEASURE( 1.000000000000000082E-05 ), #182, 'distance_accuracy_value', 'NONE');
#196 =( NAMED_UNIT ( * ) PLANE_ANGLE_UNIT ( ) SI_UNIT ( $, .RADIAN. ) );
#197 = CARTESIAN_POINT ( 'NONE',  ( 0.000000000000000000, 2.000000000000000000, 0.000000000000000000 ) ) ;
#198 = PRESENTATION_STYLE_ASSIGNMENT (( #24 ) ) ;
#199 =( NAMED_UNIT ( * ) SI_UNIT ( $, .STERADIAN. ) SOLID_ANGLE_UNIT ( ) );
#200 = AXIS2_PLACEMENT_3D ( 'NONE', #45, #173, #83 ) ;
#201 = ORIENTED_EDGE ( 'NONE', *, *, #279, .F. ) ;
#202 = CARTESIAN_POINT ( 'NONE',  ( 0.2499999999999999722, 4.000000000000000000, 3.061616997868383634E-17 ) ) ;
#203 = EDGE_CURVE ( 'NONE', #120, #4, #231, .T. ) ;
#204 = PLANE ( 'NONE',  #171 ) ;
#205 = MECHANICAL_DESIGN_GEOMETRIC_PRESENTATION_REPRESENTATION (  '', ( #23 ), #257 ) ;
#206 = DIRECTION ( 'NONE',  ( -3.061616997868383018E-17, 1.000000000000000000, -0.000000000000000000 ) ) ;
#207 = PRODUCT_RELATED_PRODUCT_CATEGORY ( 'part', '', ( #109 ) ) ;
#208 = ORIENTED_EDGE ( 'NONE', *, *, #106, .F. ) ;
#209 = DIRECTION ( 'NONE',  ( 1.000000000000000000, 3.061616997868383018E-17, 0.000000000000000000 ) ) ;
#210 = CARTESIAN_POINT ( 'NONE',  ( -6.123233995736766036E-17, 4.000000000000000000, 0.000000000000000000 ) ) ;
#211 = SURFACE_SIDE_STYLE ('',( #255 ) ) ;
#212 =( GEOMETRIC_REPRESENTATION_CONTEXT ( 3 ) GLOBAL_UNCERTAINTY_ASSIGNED_CONTEXT ( ( #114 ) ) GLOBAL_UNIT_ASSIGNED_CONTEXT ( ( #111, #295, #85 ) ) REPRESENTATION_CONTEXT ( 'NONE', 'WORKASPACE' ) );
#213 = CIRCLE ( 'NONE', #164, 0.2500000000000000000 ) ;
#214 = CARTESIAN_POINT ( 'NONE',  ( 3.061616997868383018E-17, 2.000000000000000000, 0.2500000000000000000 ) ) ;
#215 =( NAMED_UNIT ( * ) SI_UNIT ( $, .STERADIAN. ) SOLID_ANGLE_UNIT ( ) );
#216 = CIRCLE ( 'NONE', #7, 0.2500000000000000000 ) ;
#217 = CARTESIAN_POINT ( 'NONE',  ( 0.000000000000000000, 2.000000000000000000, 0.000000000000000000 ) ) ;
#218 = DIRECTION ( 'NONE',  ( -3.061616997868383018E-17, 1.000000000000000000, -0.000000000000000000 ) ) ;
#219 = UNCERTAINTY_MEASURE_WITH_UNIT (LENGTH_MEASURE( 1.000000000000000082E-05 ), #227, 'distance_accuracy_value', 'NONE');
#220 =( CONVERSION_BASED_UNIT ( 'INCH', #93 ) LENGTH_UNIT ( ) NAMED_UNIT ( #95 ) );
#221 = PRESENTATION_LAYER_ASSIGNMENT (  '', '', ( #60 ) ) ;
#222 = DIRECTION ( 'NONE',  ( -3.061616997868383018E-17, 1.000000000000000000, -0.000000000000000000 ) ) ;
#223 = ORIENTED_EDGE ( 'NONE', *, *, #203, .F. ) ;
#224 = STYLED_ITEM ( 'NONE', ( #271 ), #259 ) ;
#225 = DIMENSIONAL_EXPONENTS ( 1.000000000000000000, 0.000000000000000000, 0.000000000000000000, 0.000000000000000000, 0.000000000000000000, 0.000000000000000000, 0.000000000000000000 ) ;
#226 = DIRECTION ( 'NONE',  ( -1.000000000000000000, 0.000000000000000000, 0.000000000000000000 ) ) ;
#227 =( CONVERSION_BASED_UNIT ( 'INCH', #177 ) LENGTH_UNIT ( ) NAMED_UNIT ( #187 ) );
#228 = EDGE_LOOP ( 'NONE', ( #97, #8, #223, #152 ) ) ;
#229 = CARTESIAN_POINT ( 'NONE',  ( 3.061616997868383018E-17, 0.000000000000000000, 0.2500000000000000000 ) ) ;
#230 = DIMENSIONAL_EXPONENTS ( 1.000000000000000000, 0.000000000000000000, 0.000000000000000000, 0.000000000000000000, 0.000000000000000000, 0.000000000000000000, 0.000000000000000000 ) ;
#231 = CIRCLE ( 'NONE', #200, 0.2500000000000000000 ) ;
#232 = DIRECTION ( 'NONE',  ( -1.000000000000000000, 0.000000000000000000, 0.000000000000000000 ) ) ;
#233 = AXIS2_PLACEMENT_3D ( 'NONE', #210, #206, #55 ) ;
#234 = EDGE_LOOP ( 'NONE', ( #298, #122 ) ) ;
#235 = FACE_OUTER_BOUND ( 'NONE', #174, .T. ) ;
#236 = DIRECTION ( 'NONE',  ( 3.061616997868383018E-17, -1.000000000000000000, 0.000000000000000000 ) ) ;
#237 = FILL_AREA_STYLE ('',( #162 ) ) ;
#238 = CLOSED_SHELL ( 'NONE', ( #90, #84, #35, #30 ) ) ;
#239 = ADVANCED_FACE ( 'NONE', ( #25 ), #186, .T. ) ;
#240 = LINE ( 'NONE', #112, #118 ) ;
#241 = DIRECTION ( 'NONE',  ( -3.061616997868383018E-17, 1.000000000000000000, -0.000000000000000000 ) ) ;
#242 = COLOUR_RGB ( '',1.000000000000000000, 0.000000000000000000, 0.000000000000000000 ) ;
#243 = DIRECTION ( 'NONE',  ( -0.000000000000000000, -1.000000000000000000, -0.000000000000000000 ) ) ;
#244 = PRESENTATION_LAYER_ASSIGNMENT (  '', '', ( #23 ) ) ;
#245 =( NAMED_UNIT ( * ) SI_UNIT ( $, .STERADIAN. ) SOLID_ANGLE_UNIT ( ) );
#246 = EDGE_CURVE ( 'NONE', #267, #59, #143, .T. ) ;
#247 = ORIENTED_EDGE ( 'NONE', *, *, #203, .T. ) ;
#248 = ORIENTED_EDGE ( 'NONE', *, *, #127, .T. ) ;
#249 = CARTESIAN_POINT ( 'NONE',  ( 0.2500000000000000000, 4.000000000000000000, 3.061616997868383634E-17 ) ) ;
#250 = ORIENTED_EDGE ( 'NONE', *, *, #146, .T. ) ;
#251 = ORIENTED_EDGE ( 'NONE', *, *, #279, .T. ) ;
#252 = EDGE_LOOP ( 'NONE', ( #101, #208 ) ) ;
#253 = AXIS2_PLACEMENT_3D ( 'NONE', #168, #302, #283 ) ;
#254 = DIRECTION ( 'NONE',  ( -1.000000000000000000, 0.000000000000000000, 0.000000000000000000 ) ) ;
#255 = SURFACE_STYLE_FILL_AREA ( #237 ) ;
#256 = SHAPE_DEFINITION_REPRESENTATION ( #11, #304 ) ;
#257 =( GEOMETRIC_REPRESENTATION_CONTEXT ( 3 ) GLOBAL_UNCERTAINTY_ASSIGNED_CONTEXT ( ( #139 ) ) GLOBAL_UNIT_ASSIGNED_CONTEXT ( ( #61, #196, #245 ) ) REPRESENTATION_CONTEXT ( 'NONE', 'WORKASPACE' ) );
#258 = PRESENTATION_STYLE_ASSIGNMENT (( #188 ) ) ;
#259 = ADVANCED_FACE ( 'NONE', ( #57 ), #62, .T. ) ;
#260 = SURFACE_STYLE_FILL_AREA ( #145 ) ;
#261 = PRESENTATION_LAYER_ASSIGNMENT (  '', '', ( #6 ) ) ;
#262 = PRESENTATION_LAYER_ASSIGNMENT (  '', '', ( #224 ) ) ;
#263 = DIRECTION ( 'NONE',  ( -1.000000000000000000, 0.000000000000000000, 0.000000000000000000 ) ) ;
#264 = CYLINDRICAL_SURFACE ( 'NONE', #110, 0.2500000000000000555 ) ;
#265 = CARTESIAN_POINT ( 'NONE',  ( 0.000000000000000000, 0.000000000000000000, -0.2500000000000000000 ) ) ;
#266 = DIMENSIONAL_EXPONENTS ( 1.000000000000000000, 0.000000000000000000, 0.000000000000000000, 0.000000000000000000, 0.000000000000000000, 0.000000000000000000, 0.000000000000000000 ) ;
#267 = VERTEX_POINT ( 'NONE', #12 ) ;
#268 = SURFACE_STYLE_USAGE ( .BOTH. , #150 ) ;
#269 = ORIENTED_EDGE ( 'NONE', *, *, #294, .F. ) ;
#270 = DIRECTION ( 'NONE',  ( -0.000000000000000000, -1.000000000000000000, -0.000000000000000000 ) ) ;
#271 = PRESENTATION_STYLE_ASSIGNMENT (( #52 ) ) ;
#272 = VERTEX_POINT ( 'NONE', #249 ) ;
#273 = EDGE_LOOP ( 'NONE', ( #157, #34, #277, #65 ) ) ;
#274 = CIRCLE ( 'NONE', #149, 0.2500000000000000000 ) ;
#275 = DIRECTION ( 'NONE',  ( -3.061616997868383018E-17, 1.000000000000000000, -0.000000000000000000 ) ) ;
#276 = DIRECTION ( 'NONE',  ( -0.000000000000000000, -1.000000000000000000, -0.000000000000000000 ) ) ;
#277 = ORIENTED_EDGE ( 'NONE', *, *, #309, .F. ) ;
#278 =( NAMED_UNIT ( * ) PLANE_ANGLE_UNIT ( ) SI_UNIT ( $, .RADIAN. ) );
#279 = EDGE_CURVE ( 'NONE', #272, #75, #19, .T. ) ;
#280 = MECHANICAL_DESIGN_GEOMETRIC_PRESENTATION_REPRESENTATION (  '', ( #305 ), #192 ) ;
#281 = DIRECTION ( 'NONE',  ( -0.000000000000000000, -1.000000000000000000, -0.000000000000000000 ) ) ;
#282 = DIRECTION ( 'NONE',  ( 0.000000000000000000, 0.000000000000000000, -1.000000000000000000 ) ) ;
#283 = DIRECTION ( 'NONE',  ( -1.000000000000000000, -3.061616997868383018E-17, 0.000000000000000000 ) ) ;
#284 = EDGE_CURVE ( 'NONE', #73, #4, #160, .T. ) ;
#285 = CARTESIAN_POINT ( 'NONE',  ( -6.123233995736766036E-17, 4.000000000000000000, 0.000000000000000000 ) ) ;
#286 = AXIS2_PLACEMENT_3D ( 'NONE', #13, #132, #254 ) ;
#287 = ORIENTED_EDGE ( 'NONE', *, *, #309, .T. ) ;
#288 =( LENGTH_UNIT ( ) NAMED_UNIT ( * ) SI_UNIT ( $, .METRE. ) );
#289 = EDGE_LOOP ( 'NONE', ( #269, #28, #130, #201 ) ) ;
#290 = FILL_AREA_STYLE ('',( #56 ) ) ;
#291 =( LENGTH_UNIT ( ) NAMED_UNIT ( * ) SI_UNIT ( $, .METRE. ) );
#292 = FILL_AREA_STYLE_COLOUR ( '', #242 ) ;
#293 = DIRECTION ( 'NONE',  ( -3.061616997868383018E-17, 1.000000000000000000, -0.000000000000000000 ) ) ;
#294 = EDGE_CURVE ( 'NONE', #59, #272, #100, .T. ) ;
#295 =( NAMED_UNIT ( * ) PLANE_ANGLE_UNIT ( ) SI_UNIT ( $, .RADIAN. ) );
#296 = MECHANICAL_DESIGN_GEOMETRIC_PRESENTATION_REPRESENTATION (  '', ( #6 ), #108 ) ;
#297 =( NAMED_UNIT ( * ) PLANE_ANGLE_UNIT ( ) SI_UNIT ( $, .RADIAN. ) );
#298 = ORIENTED_EDGE ( 'NONE', *, *, #96, .F. ) ;
#299 = PLANE ( 'NONE',  #138 ) ;
#300 = APPLICATION_PROTOCOL_DEFINITION ( 'draft international standard', 'automotive_design', 1998, #49 ) ;
#301 = AXIS2_PLACEMENT_3D ( 'NONE', #197, #22, #82 ) ;
#302 = DIRECTION ( 'NONE',  ( -3.061616997868383018E-17, 1.000000000000000000, 0.000000000000000000 ) ) ;
#303 = DIRECTION ( 'NONE',  ( 0.000000000000000000, 0.000000000000000000, -1.000000000000000000 ) ) ;
#304 = ADVANCED_BREP_SHAPE_REPRESENTATION ( '81940', ( #135, #29, #48 ), #89 ) ;
#305 = STYLED_ITEM ( 'NONE', ( #198 ), #135 ) ;
#306 = DIMENSIONAL_EXPONENTS ( 1.000000000000000000, 0.000000000000000000, 0.000000000000000000, 0.000000000000000000, 0.000000000000000000, 0.000000000000000000, 0.000000000000000000 ) ;
#307 = CARTESIAN_POINT ( 'NONE',  ( 0.000000000000000000, 0.000000000000000000, 0.000000000000000000 ) ) ;
#308 =( NAMED_UNIT ( * ) PLANE_ANGLE_UNIT ( ) SI_UNIT ( $, .RADIAN. ) );
#309 = EDGE_CURVE ( 'NONE', #75, #272, #165, .T. ) ;
ENDSEC;
END-ISO-10303-21;
