ISO-10303-21;
HEADER;
FILE_DESCRIPTION (( 'STEP AP214' ),
    '1' );
FILE_NAME ('84414.STEP',
    '2023-06-23T12:55:05',
    ( '' ),
    ( '' ),
    'SwSTEP 2.0',
    'SolidWorks 2023',
    '' );
FILE_SCHEMA (( 'AUTOMOTIVE_DESIGN' ));
ENDSEC;

DATA;
#1 = EDGE_CURVE ( 'NONE', #15, #40, #84, .T. ) ;
#2 = CARTESIAN_POINT ( 'NONE',  ( 0.000000000000000000, 0.000000000000000000, 0.000000000000000000 ) ) ;
#3 = DIRECTION ( 'NONE',  ( 9.797174393178823685E-17, 1.000000000000000000, -0.000000000000000000 ) ) ;
#4 = DIRECTION ( 'NONE',  ( -1.000000000000000000, 0.000000000000000000, 0.000000000000000000 ) ) ;
#5 = COLOUR_RGB ( '',0.7921568627450980005, 0.8196078431372548767, 0.9333333333333333481 ) ;
#6 = UNCERTAINTY_MEASURE_WITH_UNIT (LENGTH_MEASURE( 1.000000000000000082E-05 ), #214, 'distance_accuracy_value', 'NONE');
#7 = SURFACE_STYLE_USAGE ( .BOTH. , #123 ) ;
#8 = VECTOR ( 'NONE', #10, 39.37007874015748143 ) ;
#9 = DIRECTION ( 'NONE',  ( -1.000000000000000000, 0.000000000000000000, 0.000000000000000000 ) ) ;
#10 = DIRECTION ( 'NONE',  ( 9.797174393178823685E-17, 1.000000000000000000, -0.000000000000000000 ) ) ;
#11 = MANIFOLD_SOLID_BREP ( 'Revolve - Tool Body (Straight Shanked)', #215 ) ;
#12 = PRESENTATION_STYLE_ASSIGNMENT (( #88 ) ) ;
#13 = PRESENTATION_LAYER_ASSIGNMENT (  '', '', ( #198 ) ) ;
#14 = DIRECTION ( 'NONE',  ( -0.000000000000000000, -1.000000000000000000, -0.000000000000000000 ) ) ;
#15 = VERTEX_POINT ( 'NONE', #48 ) ;
#16 = DIRECTION ( 'NONE',  ( -0.000000000000000000, -1.000000000000000000, -0.000000000000000000 ) ) ;
#17 = EDGE_LOOP ( 'NONE', ( #193, #196, #61, #109 ) ) ;
#18 = DIRECTION ( 'NONE',  ( -9.797174393178823685E-17, -1.000000000000000000, 0.000000000000000000 ) ) ;
#19 =( GEOMETRIC_REPRESENTATION_CONTEXT ( 3 ) GLOBAL_UNCERTAINTY_ASSIGNED_CONTEXT ( ( #167 ) ) GLOBAL_UNIT_ASSIGNED_CONTEXT ( ( #74, #80, #102 ) ) REPRESENTATION_CONTEXT ( 'NONE', 'WORKASPACE' ) );
#20 = ORIENTED_EDGE ( 'NONE', *, *, #171, .F. ) ;
#21 = SURFACE_SIDE_STYLE ('',( #95 ) ) ;
#22 = DIRECTION ( 'NONE',  ( -1.000000000000000000, 9.797174393178823685E-17, 0.000000000000000000 ) ) ;
#23 = EDGE_CURVE ( 'NONE', #284, #128, #220, .T. ) ;
#24 =( GEOMETRIC_REPRESENTATION_CONTEXT ( 3 ) GLOBAL_UNCERTAINTY_ASSIGNED_CONTEXT ( ( #78 ) ) GLOBAL_UNIT_ASSIGNED_CONTEXT ( ( #137, #308, #208 ) ) REPRESENTATION_CONTEXT ( 'NONE', 'WORKASPACE' ) );
#25 = FACE_OUTER_BOUND ( 'NONE', #17, .T. ) ;
#26 = DIRECTION ( 'NONE',  ( 9.797174393178823685E-17, 1.000000000000000000, -0.000000000000000000 ) ) ;
#27 = CARTESIAN_POINT ( 'NONE',  ( 0.000000000000000000, 0.000000000000000000, -0.06250000000000000000 ) ) ;
#28 = CARTESIAN_POINT ( 'NONE',  ( -0.06249999999999975714, 1.500000000000000222, 0.000000000000000000 ) ) ;
#29 = ADVANCED_FACE ( 'NONE', ( #201 ), #309, .T. ) ;
#30 = COLOUR_RGB ( '',0.7921568627450980005, 0.8196078431372548767, 0.9333333333333333481 ) ;
#31 = PRODUCT_DEFINITION_FORMATION_WITH_SPECIFIED_SOURCE ( 'ANY', '', #273, .NOT_KNOWN. ) ;
#32 = UNCERTAINTY_MEASURE_WITH_UNIT (LENGTH_MEASURE( 1.000000000000000082E-05 ), #63, 'distance_accuracy_value', 'NONE');
#33 = DIRECTION ( 'NONE',  ( 0.000000000000000000, 0.000000000000000000, -1.000000000000000000 ) ) ;
#34 = SURFACE_SIDE_STYLE ('',( #229 ) ) ;
#35 =( LENGTH_UNIT ( ) NAMED_UNIT ( * ) SI_UNIT ( $, .METRE. ) );
#36 = CLOSED_SHELL ( 'NONE', ( #107, #64, #213, #306 ) ) ;
#37 = DIRECTION ( 'NONE',  ( -1.000000000000000000, 0.000000000000000000, 0.000000000000000000 ) ) ;
#38 = DIMENSIONAL_EXPONENTS ( 1.000000000000000000, 0.000000000000000000, 0.000000000000000000, 0.000000000000000000, 0.000000000000000000, 0.000000000000000000, 0.000000000000000000 ) ;
#39 = CYLINDRICAL_SURFACE ( 'NONE', #129, 0.06249999999999993755 ) ;
#40 = VERTEX_POINT ( 'NONE', #43 ) ;
#41 = CARTESIAN_POINT ( 'NONE',  ( 0.06250000000000000000, 1.500000000000000222, 0.000000000000000000 ) ) ;
#42 = DIRECTION ( 'NONE',  ( -0.000000000000000000, -1.000000000000000000, -0.000000000000000000 ) ) ;
#43 = CARTESIAN_POINT ( 'NONE',  ( 0.000000000000000000, 0.2500000000000000000, -0.06250000000000000000 ) ) ;
#44 =( CONVERSION_BASED_UNIT ( 'INCH', #257 ) LENGTH_UNIT ( ) NAMED_UNIT ( #218 ) );
#45 = LENGTH_MEASURE_WITH_UNIT ( LENGTH_MEASURE( 0.02539999999999999897 ), #71 );
#46 = CARTESIAN_POINT ( 'NONE',  ( 7.654042494670957545E-18, 0.000000000000000000, 0.06250000000000000000 ) ) ;
#47 = CIRCLE ( 'NONE', #239, 0.06250000000000000000 ) ;
#48 = CARTESIAN_POINT ( 'NONE',  ( 7.654042494670957545E-18, 0.2500000000000000000, 0.06250000000000000000 ) ) ;
#49 = FILL_AREA_STYLE_COLOUR ( '', #293 ) ;
#50 = AXIS2_PLACEMENT_3D ( 'NONE', #277, #42, #300 ) ;
#51 = CARTESIAN_POINT ( 'NONE',  ( -0.06249999999999981959, 1.500000000000000222, 0.000000000000000000 ) ) ;
#52 = EDGE_CURVE ( 'NONE', #40, #15, #191, .T. ) ;
#53 = DIRECTION ( 'NONE',  ( 9.797174393178823685E-17, 1.000000000000000000, -0.000000000000000000 ) ) ;
#54 =( NAMED_UNIT ( * ) SI_UNIT ( $, .STERADIAN. ) SOLID_ANGLE_UNIT ( ) );
#55 = VECTOR ( 'NONE', #3, 39.37007874015748143 ) ;
#56 = AXIS2_PLACEMENT_3D ( 'NONE', #2, #136, #138 ) ;
#57 = PLANE ( 'NONE',  #56 ) ;
#58 = DIMENSIONAL_EXPONENTS ( 1.000000000000000000, 0.000000000000000000, 0.000000000000000000, 0.000000000000000000, 0.000000000000000000, 0.000000000000000000, 0.000000000000000000 ) ;
#59 = ORIENTED_EDGE ( 'NONE', *, *, #116, .T. ) ;
#60 = DIRECTION ( 'NONE',  ( 1.000000000000000000, -9.797174393178823685E-17, 0.000000000000000000 ) ) ;
#61 = ORIENTED_EDGE ( 'NONE', *, *, #231, .F. ) ;
#62 = STYLED_ITEM ( 'NONE', ( #251 ), #11 ) ;
#63 =( CONVERSION_BASED_UNIT ( 'INCH', #92 ) LENGTH_UNIT ( ) NAMED_UNIT ( #151 ) );
#64 = ADVANCED_FACE ( 'NONE', ( #205 ), #232, .T. ) ;
#65 =( CONVERSION_BASED_UNIT ( 'INCH', #194 ) LENGTH_UNIT ( ) NAMED_UNIT ( #38 ) );
#66 = EDGE_LOOP ( 'NONE', ( #94, #305 ) ) ;
#67 = CARTESIAN_POINT ( 'NONE',  ( 0.000000000000000000, 0.2500000000000000000, 0.000000000000000000 ) ) ;
#68 = AXIS2_PLACEMENT_3D ( 'NONE', #103, #292, #9 ) ;
#69 = PRODUCT_RELATED_PRODUCT_CATEGORY ( 'part', '', ( #273 ) ) ;
#70 = DIRECTION ( 'NONE',  ( -0.000000000000000000, -1.000000000000000000, -0.000000000000000000 ) ) ;
#71 =( LENGTH_UNIT ( ) NAMED_UNIT ( * ) SI_UNIT ( $, .METRE. ) );
#72 = PLANE ( 'NONE',  #271 ) ;
#73 = MECHANICAL_DESIGN_GEOMETRIC_PRESENTATION_REPRESENTATION (  '', ( #187 ), #19 ) ;
#74 =( CONVERSION_BASED_UNIT ( 'INCH', #125 ) LENGTH_UNIT ( ) NAMED_UNIT ( #126 ) );
#75 = AXIS2_PLACEMENT_3D ( 'NONE', #67, #117, #99 ) ;
#76 = CARTESIAN_POINT ( 'NONE',  ( 0.06249999999999999306, 1.500000000000000222, 7.654042494670954463E-18 ) ) ;
#77 = AXIS2_PLACEMENT_3D ( 'NONE', #222, #304, #157 ) ;
#78 = UNCERTAINTY_MEASURE_WITH_UNIT (LENGTH_MEASURE( 1.000000000000000082E-05 ), #137, 'distance_accuracy_value', 'NONE');
#79 = ADVANCED_FACE ( 'NONE', ( #181 ), #72, .F. ) ;
#80 =( NAMED_UNIT ( * ) PLANE_ANGLE_UNIT ( ) SI_UNIT ( $, .RADIAN. ) );
#81 = EDGE_CURVE ( 'NONE', #15, #158, #113, .T. ) ;
#82 = DIRECTION ( 'NONE',  ( -0.000000000000000000, -1.000000000000000000, -0.000000000000000000 ) ) ;
#83 = COLOUR_RGB ( '',1.000000000000000000, 0.000000000000000000, 0.000000000000000000 ) ;
#84 = CIRCLE ( 'NONE', #50, 0.06250000000000000000 ) ;
#85 = ORIENTED_EDGE ( 'NONE', *, *, #298, .T. ) ;
#86 = LINE ( 'NONE', #301, #120 ) ;
#87 = SURFACE_STYLE_USAGE ( .BOTH. , #34 ) ;
#88 = SURFACE_STYLE_USAGE ( .BOTH. , #219 ) ;
#89 = ORIENTED_EDGE ( 'NONE', *, *, #23, .T. ) ;
#90 = EDGE_CURVE ( 'NONE', #284, #173, #111, .T. ) ;
#91 = AXIS2_PLACEMENT_3D ( 'NONE', #41, #18, #60 ) ;
#92 = LENGTH_MEASURE_WITH_UNIT ( LENGTH_MEASURE( 0.02539999999999999897 ), #110 );
#93 = DIMENSIONAL_EXPONENTS ( 1.000000000000000000, 0.000000000000000000, 0.000000000000000000, 0.000000000000000000, 0.000000000000000000, 0.000000000000000000, 0.000000000000000000 ) ;
#94 = ORIENTED_EDGE ( 'NONE', *, *, #231, .T. ) ;
#95 = SURFACE_STYLE_FILL_AREA ( #230 ) ;
#96 = AXIS2_PLACEMENT_3D ( 'NONE', #261, #26, #288 ) ;
#97 = APPLICATION_PROTOCOL_DEFINITION ( 'draft international standard', 'automotive_design', 1998, #264 ) ;
#98 = SURFACE_SIDE_STYLE ('',( #259 ) ) ;
#99 = DIRECTION ( 'NONE',  ( 0.000000000000000000, -0.000000000000000000, 1.000000000000000000 ) ) ;
#100 = COLOUR_RGB ( '',1.000000000000000000, 0.000000000000000000, 0.000000000000000000 ) ;
#101 = FILL_AREA_STYLE_COLOUR ( '', #83 ) ;
#102 =( NAMED_UNIT ( * ) SI_UNIT ( $, .STERADIAN. ) SOLID_ANGLE_UNIT ( ) );
#103 = CARTESIAN_POINT ( 'NONE',  ( 1.224646799147352961E-16, 1.500000000000000222, 0.000000000000000000 ) ) ;
#104 =( GEOMETRIC_REPRESENTATION_CONTEXT ( 3 ) GLOBAL_UNCERTAINTY_ASSIGNED_CONTEXT ( ( #32 ) ) GLOBAL_UNIT_ASSIGNED_CONTEXT ( ( #63, #115, #162 ) ) REPRESENTATION_CONTEXT ( 'NONE', 'WORKASPACE' ) );
#105 = MECHANICAL_DESIGN_GEOMETRIC_PRESENTATION_REPRESENTATION (  '', ( #62 ), #104 ) ;
#106 = ORIENTED_EDGE ( 'NONE', *, *, #171, .T. ) ;
#107 = ADVANCED_FACE ( 'NONE', ( #25 ), #139, .T. ) ;
#108 = CARTESIAN_POINT ( 'NONE',  ( 1.224646799147352961E-16, 1.500000000000000222, 0.000000000000000000 ) ) ;
#109 = ORIENTED_EDGE ( 'NONE', *, *, #298, .F. ) ;
#110 =( LENGTH_UNIT ( ) NAMED_UNIT ( * ) SI_UNIT ( $, .METRE. ) );
#111 = CIRCLE ( 'NONE', #267, 0.06250000000000000000 ) ;
#112 = SURFACE_STYLE_USAGE ( .BOTH. , #21 ) ;
#113 = LINE ( 'NONE', #46, #179 ) ;
#114 = CIRCLE ( 'NONE', #256, 0.06249999999999988204 ) ;
#115 =( NAMED_UNIT ( * ) PLANE_ANGLE_UNIT ( ) SI_UNIT ( $, .RADIAN. ) );
#116 = EDGE_CURVE ( 'NONE', #128, #177, #164, .T. ) ;
#117 = DIRECTION ( 'NONE',  ( 0.000000000000000000, 1.000000000000000000, 0.000000000000000000 ) ) ;
#118 = DIRECTION ( 'NONE',  ( 0.000000000000000000, 0.000000000000000000, -1.000000000000000000 ) ) ;
#119 = AXIS2_PLACEMENT_3D ( 'NONE', #166, #269, #266 ) ;
#120 = VECTOR ( 'NONE', #82, 39.37007874015748143 ) ;
#121 = FILL_AREA_STYLE ('',( #49 ) ) ;
#122 = UNCERTAINTY_MEASURE_WITH_UNIT (LENGTH_MEASURE( 1.000000000000000082E-05 ), #44, 'distance_accuracy_value', 'NONE');
#123 = SURFACE_SIDE_STYLE ('',( #147 ) ) ;
#124 = AXIS2_PLACEMENT_3D ( 'NONE', #134, #14, #131 ) ;
#125 = LENGTH_MEASURE_WITH_UNIT ( LENGTH_MEASURE( 0.02539999999999999897 ), #212 );
#126 = DIMENSIONAL_EXPONENTS ( 1.000000000000000000, 0.000000000000000000, 0.000000000000000000, 0.000000000000000000, 0.000000000000000000, 0.000000000000000000, 0.000000000000000000 ) ;
#127 = SURFACE_STYLE_FILL_AREA ( #152 ) ;
#128 = VERTEX_POINT ( 'NONE', #76 ) ;
#129 = AXIS2_PLACEMENT_3D ( 'NONE', #108, #274, #37 ) ;
#130 = ORIENTED_EDGE ( 'NONE', *, *, #1, .T. ) ;
#131 = DIRECTION ( 'NONE',  ( 0.000000000000000000, 0.000000000000000000, -1.000000000000000000 ) ) ;
#132 = CARTESIAN_POINT ( 'NONE',  ( 0.06249999999999999306, 0.2500000000000000555, 7.654042494670954463E-18 ) ) ;
#133 = ORIENTED_EDGE ( 'NONE', *, *, #81, .F. ) ;
#134 = CARTESIAN_POINT ( 'NONE',  ( 0.000000000000000000, 0.000000000000000000, 0.000000000000000000 ) ) ;
#135 = ORIENTED_EDGE ( 'NONE', *, *, #190, .T. ) ;
#136 = DIRECTION ( 'NONE',  ( 0.000000000000000000, -1.000000000000000000, -0.000000000000000000 ) ) ;
#137 =( CONVERSION_BASED_UNIT ( 'INCH', #45 ) LENGTH_UNIT ( ) NAMED_UNIT ( #93 ) );
#138 = DIRECTION ( 'NONE',  ( 0.000000000000000000, 0.000000000000000000, -1.000000000000000000 ) ) ;
#139 = CYLINDRICAL_SURFACE ( 'NONE', #119, 0.06250000000000000000 ) ;
#140 = COLOUR_RGB ( '',1.000000000000000000, 0.000000000000000000, 0.000000000000000000 ) ;
#141 = PRODUCT_CONTEXT ( 'NONE', #280, 'mechanical' ) ;
#142 = DIRECTION ( 'NONE',  ( 9.797174393178823685E-17, 1.000000000000000000, -0.000000000000000000 ) ) ;
#143 = CARTESIAN_POINT ( 'NONE',  ( 0.06250000000000005551, 1.500000000000000222, 7.654042494670949841E-18 ) ) ;
#144 = SURFACE_SIDE_STYLE ('',( #211 ) ) ;
#145 = AXIS2_PLACEMENT_3D ( 'NONE', #180, #70, #118 ) ;
#146 = FILL_AREA_STYLE_COLOUR ( '', #5 ) ;
#147 = SURFACE_STYLE_FILL_AREA ( #240 ) ;
#148 = DIMENSIONAL_EXPONENTS ( 1.000000000000000000, 0.000000000000000000, 0.000000000000000000, 0.000000000000000000, 0.000000000000000000, 0.000000000000000000, 0.000000000000000000 ) ;
#149 = FILL_AREA_STYLE_COLOUR ( '', #100 ) ;
#150 = ORIENTED_EDGE ( 'NONE', *, *, #52, .F. ) ;
#151 = DIMENSIONAL_EXPONENTS ( 1.000000000000000000, 0.000000000000000000, 0.000000000000000000, 0.000000000000000000, 0.000000000000000000, 0.000000000000000000, 0.000000000000000000 ) ;
#152 = FILL_AREA_STYLE ('',( #149 ) ) ;
#153 = ORIENTED_EDGE ( 'NONE', *, *, #286, .T. ) ;
#154 =( GEOMETRIC_REPRESENTATION_CONTEXT ( 3 ) GLOBAL_UNCERTAINTY_ASSIGNED_CONTEXT ( ( #270 ) ) GLOBAL_UNIT_ASSIGNED_CONTEXT ( ( #65, #197, #156 ) ) REPRESENTATION_CONTEXT ( 'NONE', 'WORKASPACE' ) );
#155 = EDGE_LOOP ( 'NONE', ( #106, #59 ) ) ;
#156 =( NAMED_UNIT ( * ) SI_UNIT ( $, .STERADIAN. ) SOLID_ANGLE_UNIT ( ) );
#157 = DIRECTION ( 'NONE',  ( 0.000000000000000000, 0.000000000000000000, -1.000000000000000000 ) ) ;
#158 = VERTEX_POINT ( 'NONE', #188 ) ;
#159 = MECHANICAL_DESIGN_GEOMETRIC_PRESENTATION_REPRESENTATION (  '', ( #296 ), #154 ) ;
#160 = FILL_AREA_STYLE ('',( #285 ) ) ;
#161 = AXIS2_PLACEMENT_3D ( 'NONE', #225, #16, #33 ) ;
#162 =( NAMED_UNIT ( * ) SI_UNIT ( $, .STERADIAN. ) SOLID_ANGLE_UNIT ( ) );
#163 = CARTESIAN_POINT ( 'NONE',  ( -0.06250000000000000000, 0.2500000000000000555, 0.000000000000000000 ) ) ;
#164 = CIRCLE ( 'NONE', #68, 0.06249999999999988204 ) ;
#165 = CARTESIAN_POINT ( 'NONE',  ( 1.224646799147352961E-16, 1.500000000000000222, 0.000000000000000000 ) ) ;
#166 = CARTESIAN_POINT ( 'NONE',  ( 0.000000000000000000, 0.000000000000000000, 0.000000000000000000 ) ) ;
#167 = UNCERTAINTY_MEASURE_WITH_UNIT (LENGTH_MEASURE( 1.000000000000000082E-05 ), #74, 'distance_accuracy_value', 'NONE');
#168 = ADVANCED_BREP_SHAPE_REPRESENTATION ( '84414', ( #210, #11, #250 ), #192 ) ;
#169 = PRESENTATION_LAYER_ASSIGNMENT (  '', '', ( #238 ) ) ;
#170 = FACE_OUTER_BOUND ( 'NONE', #66, .T. ) ;
#171 = EDGE_CURVE ( 'NONE', #177, #128, #114, .T. ) ;
#172 = LENGTH_MEASURE_WITH_UNIT ( LENGTH_MEASURE( 0.02539999999999999897 ), #175 );
#173 = VERTEX_POINT ( 'NONE', #163 ) ;
#174 = ORIENTED_EDGE ( 'NONE', *, *, #286, .F. ) ;
#175 =( LENGTH_UNIT ( ) NAMED_UNIT ( * ) SI_UNIT ( $, .METRE. ) );
#176 = ORIENTED_EDGE ( 'NONE', *, *, #282, .F. ) ;
#177 = VERTEX_POINT ( 'NONE', #28 ) ;
#178 = FILL_AREA_STYLE_COLOUR ( '', #30 ) ;
#179 = VECTOR ( 'NONE', #183, 39.37007874015748143 ) ;
#180 = CARTESIAN_POINT ( 'NONE',  ( 0.000000000000000000, 0.2500000000000000000, 0.000000000000000000 ) ) ;
#181 = FACE_OUTER_BOUND ( 'NONE', #307, .T. ) ;
#182 = CARTESIAN_POINT ( 'NONE',  ( 0.000000000000000000, 0.000000000000000000, 0.000000000000000000 ) ) ;
#183 = DIRECTION ( 'NONE',  ( -0.000000000000000000, -1.000000000000000000, -0.000000000000000000 ) ) ;
#184 = MECHANICAL_DESIGN_GEOMETRIC_PRESENTATION_REPRESENTATION (  '', ( #198 ), #24 ) ;
#185 = SURFACE_STYLE_USAGE ( .BOTH. , #98 ) ;
#186 = PRODUCT_DEFINITION_CONTEXT ( 'detailed design', #264, 'design' ) ;
#187 = STYLED_ITEM ( 'NONE', ( #245 ), #107 ) ;
#188 = CARTESIAN_POINT ( 'NONE',  ( 7.654042494670957545E-18, 0.000000000000000000, 0.06250000000000000000 ) ) ;
#189 = DIRECTION ( 'NONE',  ( 9.797174393178823685E-17, 1.000000000000000000, -0.000000000000000000 ) ) ;
#190 = EDGE_CURVE ( 'NONE', #173, #177, #268, .T. ) ;
#191 = CIRCLE ( 'NONE', #145, 0.06250000000000000000 ) ;
#192 =( GEOMETRIC_REPRESENTATION_CONTEXT ( 3 ) GLOBAL_UNCERTAINTY_ASSIGNED_CONTEXT ( ( #122 ) ) GLOBAL_UNIT_ASSIGNED_CONTEXT ( ( #44, #260, #206 ) ) REPRESENTATION_CONTEXT ( 'NONE', 'WORKASPACE' ) );
#193 = ORIENTED_EDGE ( 'NONE', *, *, #52, .T. ) ;
#194 = LENGTH_MEASURE_WITH_UNIT ( LENGTH_MEASURE( 0.02539999999999999897 ), #35 );
#195 =( NAMED_UNIT ( * ) SI_UNIT ( $, .STERADIAN. ) SOLID_ANGLE_UNIT ( ) );
#196 = ORIENTED_EDGE ( 'NONE', *, *, #81, .T. ) ;
#197 =( NAMED_UNIT ( * ) PLANE_ANGLE_UNIT ( ) SI_UNIT ( $, .RADIAN. ) );
#198 = STYLED_ITEM ( 'NONE', ( #207 ), #64 ) ;
#199 = ORIENTED_EDGE ( 'NONE', *, *, #23, .F. ) ;
#200 = VERTEX_POINT ( 'NONE', #27 ) ;
#201 = FACE_OUTER_BOUND ( 'NONE', #297, .T. ) ;
#202 = CARTESIAN_POINT ( 'NONE',  ( 2.999519565323714018E-34, 0.2500000000000000000, 0.000000000000000000 ) ) ;
#203 = PRESENTATION_LAYER_ASSIGNMENT (  '', '', ( #234 ) ) ;
#204 = DIRECTION ( 'NONE',  ( 0.000000000000000000, 0.000000000000000000, 1.000000000000000000 ) ) ;
#205 = FACE_OUTER_BOUND ( 'NONE', #281, .T. ) ;
#206 =( NAMED_UNIT ( * ) SI_UNIT ( $, .STERADIAN. ) SOLID_ANGLE_UNIT ( ) );
#207 = PRESENTATION_STYLE_ASSIGNMENT (( #185 ) ) ;
#208 =( NAMED_UNIT ( * ) SI_UNIT ( $, .STERADIAN. ) SOLID_ANGLE_UNIT ( ) );
#209 =( GEOMETRIC_REPRESENTATION_CONTEXT ( 3 ) GLOBAL_UNCERTAINTY_ASSIGNED_CONTEXT ( ( #6 ) ) GLOBAL_UNIT_ASSIGNED_CONTEXT ( ( #214, #291, #54 ) ) REPRESENTATION_CONTEXT ( 'NONE', 'WORKASPACE' ) );
#210 = MANIFOLD_SOLID_BREP ( 'Revolve - Cutting Edge', #36 ) ;
#211 = SURFACE_STYLE_FILL_AREA ( #121 ) ;
#212 =( LENGTH_UNIT ( ) NAMED_UNIT ( * ) SI_UNIT ( $, .METRE. ) );
#213 = ADVANCED_FACE ( 'NONE', ( #216 ), #265, .T. ) ;
#214 =( CONVERSION_BASED_UNIT ( 'INCH', #244 ) LENGTH_UNIT ( ) NAMED_UNIT ( #58 ) );
#215 = CLOSED_SHELL ( 'NONE', ( #29, #79, #242, #252 ) ) ;
#216 = FACE_OUTER_BOUND ( 'NONE', #279, .T. ) ;
#217 = DIRECTION ( 'NONE',  ( -1.000000000000000000, 0.000000000000000000, 0.000000000000000000 ) ) ;
#218 = DIMENSIONAL_EXPONENTS ( 1.000000000000000000, 0.000000000000000000, 0.000000000000000000, 0.000000000000000000, 0.000000000000000000, 0.000000000000000000, 0.000000000000000000 ) ;
#219 = SURFACE_SIDE_STYLE ('',( #127 ) ) ;
#220 = LINE ( 'NONE', #143, #55 ) ;
#221 = PRESENTATION_LAYER_ASSIGNMENT (  '', '', ( #296 ) ) ;
#222 = CARTESIAN_POINT ( 'NONE',  ( 0.000000000000000000, 0.000000000000000000, 0.000000000000000000 ) ) ;
#223 = ORIENTED_EDGE ( 'NONE', *, *, #1, .F. ) ;
#224 = PRODUCT_DEFINITION ( 'UNKNOWN', '', #31, #186 ) ;
#225 = CARTESIAN_POINT ( 'NONE',  ( 0.000000000000000000, 0.000000000000000000, 0.000000000000000000 ) ) ;
#226 = FILL_AREA_STYLE ('',( #178 ) ) ;
#227 = CARTESIAN_POINT ( 'NONE',  ( -1.516480271171051896E-32, 0.2500000000000000555, 0.000000000000000000 ) ) ;
#228 = PRESENTATION_LAYER_ASSIGNMENT (  '', '', ( #187 ) ) ;
#229 = SURFACE_STYLE_FILL_AREA ( #226 ) ;
#230 = FILL_AREA_STYLE ('',( #101 ) ) ;
#231 = EDGE_CURVE ( 'NONE', #200, #158, #302, .T. ) ;
#232 = PLANE ( 'NONE',  #75 ) ;
#233 =( LENGTH_UNIT ( ) NAMED_UNIT ( * ) SI_UNIT ( $, .METRE. ) );
#234 = STYLED_ITEM ( 'NONE', ( #12 ), #306 ) ;
#235 = SHAPE_DEFINITION_REPRESENTATION ( #247, #168 ) ;
#236 = CARTESIAN_POINT ( 'NONE',  ( -1.516480271171051896E-32, 0.2500000000000000555, 0.000000000000000000 ) ) ;
#237 = SURFACE_STYLE_USAGE ( .BOTH. , #144 ) ;
#238 = STYLED_ITEM ( 'NONE', ( #243 ), #210 ) ;
#239 = AXIS2_PLACEMENT_3D ( 'NONE', #227, #189, #295 ) ;
#240 = FILL_AREA_STYLE ('',( #146 ) ) ;
#241 = UNCERTAINTY_MEASURE_WITH_UNIT (LENGTH_MEASURE( 1.000000000000000082E-05 ), #278, 'distance_accuracy_value', 'NONE');
#242 = ADVANCED_FACE ( 'NONE', ( #272 ), #39, .T. ) ;
#243 = PRESENTATION_STYLE_ASSIGNMENT (( #7 ) ) ;
#244 = LENGTH_MEASURE_WITH_UNIT ( LENGTH_MEASURE( 0.02539999999999999897 ), #290 );
#245 = PRESENTATION_STYLE_ASSIGNMENT (( #112 ) ) ;
#246 = ORIENTED_EDGE ( 'NONE', *, *, #90, .F. ) ;
#247 = PRODUCT_DEFINITION_SHAPE ( 'NONE', 'NONE',  #224 ) ;
#248 = ORIENTED_EDGE ( 'NONE', *, *, #190, .F. ) ;
#249 = MECHANICAL_DESIGN_GEOMETRIC_PRESENTATION_REPRESENTATION (  '', ( #238 ), #209 ) ;
#250 = AXIS2_PLACEMENT_3D ( 'NONE', #182, #204, #287 ) ;
#251 = PRESENTATION_STYLE_ASSIGNMENT (( #87 ) ) ;
#252 = ADVANCED_FACE ( 'NONE', ( #254 ), #299, .F. ) ;
#253 = ORIENTED_EDGE ( 'NONE', *, *, #116, .F. ) ;
#254 = FACE_OUTER_BOUND ( 'NONE', #155, .T. ) ;
#255 = ORIENTED_EDGE ( 'NONE', *, *, #90, .T. ) ;
#256 = AXIS2_PLACEMENT_3D ( 'NONE', #165, #53, #217 ) ;
#257 = LENGTH_MEASURE_WITH_UNIT ( LENGTH_MEASURE( 0.02539999999999999897 ), #233 );
#258 = DIRECTION ( 'NONE',  ( 9.797174393178823685E-17, 1.000000000000000000, -0.000000000000000000 ) ) ;
#259 = SURFACE_STYLE_FILL_AREA ( #160 ) ;
#260 =( NAMED_UNIT ( * ) PLANE_ANGLE_UNIT ( ) SI_UNIT ( $, .RADIAN. ) );
#261 = CARTESIAN_POINT ( 'NONE',  ( 1.224646799147352961E-16, 1.500000000000000222, 0.000000000000000000 ) ) ;
#262 = PRESENTATION_LAYER_ASSIGNMENT (  '', '', ( #62 ) ) ;
#263 = MECHANICAL_DESIGN_GEOMETRIC_PRESENTATION_REPRESENTATION (  '', ( #234 ), #303 ) ;
#264 = APPLICATION_CONTEXT ( 'automotive_design' ) ;
#265 = CYLINDRICAL_SURFACE ( 'NONE', #161, 0.06250000000000000000 ) ;
#266 = DIRECTION ( 'NONE',  ( 0.000000000000000000, 0.000000000000000000, -1.000000000000000000 ) ) ;
#267 = AXIS2_PLACEMENT_3D ( 'NONE', #236, #258, #4 ) ;
#268 = LINE ( 'NONE', #51, #8 ) ;
#269 = DIRECTION ( 'NONE',  ( -0.000000000000000000, -1.000000000000000000, -0.000000000000000000 ) ) ;
#270 = UNCERTAINTY_MEASURE_WITH_UNIT (LENGTH_MEASURE( 1.000000000000000082E-05 ), #65, 'distance_accuracy_value', 'NONE');
#271 = AXIS2_PLACEMENT_3D ( 'NONE', #202, #142, #22 ) ;
#272 = FACE_OUTER_BOUND ( 'NONE', #275, .T. ) ;
#273 = PRODUCT ( '84414', '84414', '', ( #141 ) ) ;
#274 = DIRECTION ( 'NONE',  ( 9.797174393178823685E-17, 1.000000000000000000, -0.000000000000000000 ) ) ;
#275 = EDGE_LOOP ( 'NONE', ( #199, #255, #135, #253 ) ) ;
#276 =( NAMED_UNIT ( * ) PLANE_ANGLE_UNIT ( ) SI_UNIT ( $, .RADIAN. ) );
#277 = CARTESIAN_POINT ( 'NONE',  ( 0.000000000000000000, 0.2500000000000000000, 0.000000000000000000 ) ) ;
#278 =( CONVERSION_BASED_UNIT ( 'INCH', #172 ) LENGTH_UNIT ( ) NAMED_UNIT ( #148 ) );
#279 = EDGE_LOOP ( 'NONE', ( #133, #130, #85, #176 ) ) ;
#280 = APPLICATION_CONTEXT ( 'automotive_design' ) ;
#281 = EDGE_LOOP ( 'NONE', ( #150, #223 ) ) ;
#282 = EDGE_CURVE ( 'NONE', #158, #200, #289, .T. ) ;
#283 = APPLICATION_PROTOCOL_DEFINITION ( 'draft international standard', 'automotive_design', 1998, #280 ) ;
#284 = VERTEX_POINT ( 'NONE', #132 ) ;
#285 = FILL_AREA_STYLE_COLOUR ( '', #140 ) ;
#286 = EDGE_CURVE ( 'NONE', #173, #284, #47, .T. ) ;
#287 = DIRECTION ( 'NONE',  ( 1.000000000000000000, 0.000000000000000000, 0.000000000000000000 ) ) ;
#288 = DIRECTION ( 'NONE',  ( -1.000000000000000000, 0.000000000000000000, 0.000000000000000000 ) ) ;
#289 = CIRCLE ( 'NONE', #124, 0.06250000000000000000 ) ;
#290 =( LENGTH_UNIT ( ) NAMED_UNIT ( * ) SI_UNIT ( $, .METRE. ) );
#291 =( NAMED_UNIT ( * ) PLANE_ANGLE_UNIT ( ) SI_UNIT ( $, .RADIAN. ) );
#292 = DIRECTION ( 'NONE',  ( 9.797174393178823685E-17, 1.000000000000000000, -0.000000000000000000 ) ) ;
#293 = COLOUR_RGB ( '',1.000000000000000000, 0.000000000000000000, 0.000000000000000000 ) ;
#294 = PRESENTATION_STYLE_ASSIGNMENT (( #237 ) ) ;
#295 = DIRECTION ( 'NONE',  ( -1.000000000000000000, 0.000000000000000000, 0.000000000000000000 ) ) ;
#296 = STYLED_ITEM ( 'NONE', ( #294 ), #213 ) ;
#297 = EDGE_LOOP ( 'NONE', ( #153, #89, #20, #248 ) ) ;
#298 = EDGE_CURVE ( 'NONE', #40, #200, #86, .T. ) ;
#299 = PLANE ( 'NONE',  #91 ) ;
#300 = DIRECTION ( 'NONE',  ( 0.000000000000000000, 0.000000000000000000, -1.000000000000000000 ) ) ;
#301 = CARTESIAN_POINT ( 'NONE',  ( 0.000000000000000000, 0.000000000000000000, -0.06250000000000000000 ) ) ;
#302 = CIRCLE ( 'NONE', #77, 0.06250000000000000000 ) ;
#303 =( GEOMETRIC_REPRESENTATION_CONTEXT ( 3 ) GLOBAL_UNCERTAINTY_ASSIGNED_CONTEXT ( ( #241 ) ) GLOBAL_UNIT_ASSIGNED_CONTEXT ( ( #278, #276, #195 ) ) REPRESENTATION_CONTEXT ( 'NONE', 'WORKASPACE' ) );
#304 = DIRECTION ( 'NONE',  ( -0.000000000000000000, -1.000000000000000000, -0.000000000000000000 ) ) ;
#305 = ORIENTED_EDGE ( 'NONE', *, *, #282, .T. ) ;
#306 = ADVANCED_FACE ( 'NONE', ( #170 ), #57, .T. ) ;
#307 = EDGE_LOOP ( 'NONE', ( #174, #246 ) ) ;
#308 =( NAMED_UNIT ( * ) PLANE_ANGLE_UNIT ( ) SI_UNIT ( $, .RADIAN. ) );
#309 = CYLINDRICAL_SURFACE ( 'NONE', #96, 0.06249999999999993755 ) ;
ENDSEC;
END-ISO-10303-21;
