ISO-10303-21;
HEADER;
FILE_DESCRIPTION (( 'STEP AP214' ),
    '1' );
FILE_NAME ('81674.STEP',
    '2023-06-30T22:30:09',
    ( '' ),
    ( '' ),
    'SwSTEP 2.0',
    'SolidWorks 2023',
    '' );
FILE_SCHEMA (( 'AUTOMOTIVE_DESIGN' ));
ENDSEC;

DATA;
#1 =( LENGTH_UNIT ( ) NAMED_UNIT ( * ) SI_UNIT ( $, .METRE. ) );
#2 = DIMENSIONAL_EXPONENTS ( 1.000000000000000000, 0.000000000000000000, 0.000000000000000000, 0.000000000000000000, 0.000000000000000000, 0.000000000000000000, 0.000000000000000000 ) ;
#3 = VERTEX_POINT ( 'NONE', #168 ) ;
#4 = FACE_OUTER_BOUND ( 'NONE', #245, .T. ) ;
#5 = DIRECTION ( 'NONE',  ( -1.239117966662770659E-16, 1.000000000000000000, -0.000000000000000000 ) ) ;
#6 = AXIS2_PLACEMENT_3D ( 'NONE', #56, #110, #365 ) ;
#7 = VERTEX_POINT ( 'NONE', #138 ) ;
#8 = AXIS2_PLACEMENT_3D ( 'NONE', #152, #266, #11 ) ;
#9 = DIRECTION ( 'NONE',  ( -0.000000000000000000, -1.000000000000000000, -0.000000000000000000 ) ) ;
#10 = DIRECTION ( 'NONE',  ( 0.000000000000000000, 0.000000000000000000, -1.000000000000000000 ) ) ;
#11 = DIRECTION ( 'NONE',  ( 0.000000000000000000, -0.000000000000000000, 1.000000000000000000 ) ) ;
#12 = AXIS2_PLACEMENT_3D ( 'NONE', #262, #9, #10 ) ;
#13 = CARTESIAN_POINT ( 'NONE',  ( 1.224646799147353700E-16, 2.000000000000000000, 0.000000000000000000 ) ) ;
#14 =( NAMED_UNIT ( * ) PLANE_ANGLE_UNIT ( ) SI_UNIT ( $, .RADIAN. ) );
#15 = SURFACE_STYLE_USAGE ( .BOTH. , #210 ) ;
#16 = EDGE_CURVE ( 'NONE', #281, #338, #188, .T. ) ;
#17 = AXIS2_PLACEMENT_3D ( 'NONE', #95, #65, #264 ) ;
#18 = DIRECTION ( 'NONE',  ( -0.000000000000000000, -1.000000000000000000, -0.000000000000000000 ) ) ;
#19 = DIRECTION ( 'NONE',  ( 0.000000000000000000, 0.000000000000000000, -1.000000000000000000 ) ) ;
#20 = CYLINDRICAL_SURFACE ( 'NONE', #197, 0.06249999999999997918 ) ;
#21 = DIRECTION ( 'NONE',  ( -1.000000000000000000, 0.000000000000000000, 0.000000000000000000 ) ) ;
#22 = CARTESIAN_POINT ( 'NONE',  ( 0.000000000000000000, 0.3749999999999999445, -0.06249999999999997918 ) ) ;
#23 = EDGE_CURVE ( 'NONE', #349, #59, #243, .T. ) ;
#24 = MANIFOLD_SOLID_BREP ( 'Revolve - Cutting Edge', #282 ) ;
#25 = DIRECTION ( 'NONE',  ( 0.000000000000000000, 0.000000000000000000, -1.000000000000000000 ) ) ;
#26 = SURFACE_SIDE_STYLE ('',( #113 ) ) ;
#27 = ORIENTED_EDGE ( 'NONE', *, *, #177, .T. ) ;
#28 = CARTESIAN_POINT ( 'NONE',  ( 0.000000000000000000, 0.06250000000000002776, -0.06249999999999997918 ) ) ;
#29 = PRESENTATION_LAYER_ASSIGNMENT (  '', '', ( #38 ) ) ;
#30 = ORIENTED_EDGE ( 'NONE', *, *, #234, .T. ) ;
#31 = EDGE_LOOP ( 'NONE', ( #129, #171 ) ) ;
#32 = CARTESIAN_POINT ( 'NONE',  ( 1.224646799147353700E-16, 2.000000000000000000, 0.000000000000000000 ) ) ;
#33 = ORIENTED_EDGE ( 'NONE', *, *, #217, .F. ) ;
#34 = SHAPE_DEFINITION_REPRESENTATION ( #224, #153 ) ;
#35 = MECHANICAL_DESIGN_GEOMETRIC_PRESENTATION_REPRESENTATION (  '', ( #221 ), #66 ) ;
#36 = CARTESIAN_POINT ( 'NONE',  ( -7.654042494670959086E-18, 0.06250000000000001388, 0.000000000000000000 ) ) ;
#37 = AXIS2_PLACEMENT_3D ( 'NONE', #194, #228, #64 ) ;
#38 = STYLED_ITEM ( 'NONE', ( #300 ), #121 ) ;
#39 = CIRCLE ( 'NONE', #187, 0.06249999999999965999 ) ;
#40 = DIRECTION ( 'NONE',  ( -1.239117966662770659E-16, 1.000000000000000000, -0.000000000000000000 ) ) ;
#41 =( GEOMETRIC_REPRESENTATION_CONTEXT ( 3 ) GLOBAL_UNCERTAINTY_ASSIGNED_CONTEXT ( ( #76 ) ) GLOBAL_UNIT_ASSIGNED_CONTEXT ( ( #137, #141, #310 ) ) REPRESENTATION_CONTEXT ( 'NONE', 'WORKASPACE' ) );
#42 = VECTOR ( 'NONE', #47, 39.37007874015748143 ) ;
#43 = LENGTH_MEASURE_WITH_UNIT ( LENGTH_MEASURE( 0.02539999999999999897 ), #351 );
#44 =( LENGTH_UNIT ( ) NAMED_UNIT ( * ) SI_UNIT ( $, .METRE. ) );
#45 = ADVANCED_FACE ( 'NONE', ( #356 ), #312, .T. ) ;
#46 =( NAMED_UNIT ( * ) PLANE_ANGLE_UNIT ( ) SI_UNIT ( $, .RADIAN. ) );
#47 = DIRECTION ( 'NONE',  ( -0.000000000000000000, -1.000000000000000000, -0.000000000000000000 ) ) ;
#48 = PRESENTATION_STYLE_ASSIGNMENT (( #15 ) ) ;
#49 = COLOUR_RGB ( '',1.000000000000000000, 0.000000000000000000, 0.000000000000000000 ) ;
#50 = EDGE_CURVE ( 'NONE', #347, #349, #272, .T. ) ;
#51 =( GEOMETRIC_REPRESENTATION_CONTEXT ( 3 ) GLOBAL_UNCERTAINTY_ASSIGNED_CONTEXT ( ( #304 ) ) GLOBAL_UNIT_ASSIGNED_CONTEXT ( ( #268, #46, #215 ) ) REPRESENTATION_CONTEXT ( 'NONE', 'WORKASPACE' ) );
#52 = DIRECTION ( 'NONE',  ( -1.239117966662770659E-16, 1.000000000000000000, -0.000000000000000000 ) ) ;
#53 = AXIS2_PLACEMENT_3D ( 'NONE', #372, #219, #288 ) ;
#54 = DIRECTION ( 'NONE',  ( 1.000000000000000000, 0.000000000000000000, 0.000000000000000000 ) ) ;
#55 = SURFACE_SIDE_STYLE ('',( #341 ) ) ;
#56 = CARTESIAN_POINT ( 'NONE',  ( 1.224646799147353700E-16, 2.000000000000000000, 0.000000000000000000 ) ) ;
#57 = SURFACE_SIDE_STYLE ('',( #107 ) ) ;
#58 = MECHANICAL_DESIGN_GEOMETRIC_PRESENTATION_REPRESENTATION (  '', ( #71 ), #51 ) ;
#59 = VERTEX_POINT ( 'NONE', #236 ) ;
#60 = DIMENSIONAL_EXPONENTS ( 1.000000000000000000, 0.000000000000000000, 0.000000000000000000, 0.000000000000000000, 0.000000000000000000, 0.000000000000000000, 0.000000000000000000 ) ;
#61 = ORIENTED_EDGE ( 'NONE', *, *, #308, .F. ) ;
#62 = EDGE_CURVE ( 'NONE', #281, #347, #353, .T. ) ;
#63 =( NAMED_UNIT ( * ) PLANE_ANGLE_UNIT ( ) SI_UNIT ( $, .RADIAN. ) );
#64 = DIRECTION ( 'NONE',  ( 0.000000000000000000, 0.000000000000000000, -1.000000000000000000 ) ) ;
#65 = DIRECTION ( 'NONE',  ( -1.239117966662770659E-16, 1.000000000000000000, -0.000000000000000000 ) ) ;
#66 =( GEOMETRIC_REPRESENTATION_CONTEXT ( 3 ) GLOBAL_UNCERTAINTY_ASSIGNED_CONTEXT ( ( #159 ) ) GLOBAL_UNIT_ASSIGNED_CONTEXT ( ( #279, #342, #78 ) ) REPRESENTATION_CONTEXT ( 'NONE', 'WORKASPACE' ) );
#67 =( CONVERSION_BASED_UNIT ( 'INCH', #43 ) LENGTH_UNIT ( ) NAMED_UNIT ( #290 ) );
#68 = CARTESIAN_POINT ( 'NONE',  ( 0.000000000000000000, 0.000000000000000000, -0.06249999999999997918 ) ) ;
#69 = CARTESIAN_POINT ( 'NONE',  ( 0.06249999999999999306, 2.000000000000000000, 7.654042494670934434E-18 ) ) ;
#70 = CARTESIAN_POINT ( 'NONE',  ( 0.000000000000000000, 0.3749999999999999445, 0.000000000000000000 ) ) ;
#71 = STYLED_ITEM ( 'NONE', ( #48 ), #147 ) ;
#72 = FILL_AREA_STYLE ('',( #270 ) ) ;
#73 = DIRECTION ( 'NONE',  ( 1.000000000000000000, 1.239117966662770659E-16, 0.000000000000000000 ) ) ;
#74 = AXIS2_PLACEMENT_3D ( 'NONE', #254, #25, #135 ) ;
#75 = STYLED_ITEM ( 'NONE', ( #344 ), #24 ) ;
#76 = UNCERTAINTY_MEASURE_WITH_UNIT (LENGTH_MEASURE( 1.000000000000000082E-05 ), #137, 'distance_accuracy_value', 'NONE');
#77 = ORIENTED_EDGE ( 'NONE', *, *, #331, .T. ) ;
#78 =( NAMED_UNIT ( * ) SI_UNIT ( $, .STERADIAN. ) SOLID_ANGLE_UNIT ( ) );
#79 = LENGTH_MEASURE_WITH_UNIT ( LENGTH_MEASURE( 0.02539999999999999897 ), #1 );
#80 = CARTESIAN_POINT ( 'NONE',  ( 3.238213494974356082E-16, 0.3749999999999999445, 0.000000000000000000 ) ) ;
#81 = FILL_AREA_STYLE ('',( #103 ) ) ;
#82 = ORIENTED_EDGE ( 'NONE', *, *, #87, .T. ) ;
#83 = LENGTH_MEASURE_WITH_UNIT ( LENGTH_MEASURE( 0.02539999999999999897 ), #162 );
#84 = MECHANICAL_DESIGN_GEOMETRIC_PRESENTATION_REPRESENTATION (  '', ( #317 ), #229 ) ;
#85 = EDGE_LOOP ( 'NONE', ( #226, #174, #260, #318 ) ) ;
#86 = ORIENTED_EDGE ( 'NONE', *, *, #217, .T. ) ;
#87 = EDGE_CURVE ( 'NONE', #366, #3, #329, .T. ) ;
#88 = FACE_OUTER_BOUND ( 'NONE', #164, .T. ) ;
#89 = DIRECTION ( 'NONE',  ( 1.000000000000000000, 0.000000000000000000, 0.000000000000000000 ) ) ;
#90 = FILL_AREA_STYLE ('',( #325 ) ) ;
#91 =( GEOMETRIC_REPRESENTATION_CONTEXT ( 3 ) GLOBAL_UNCERTAINTY_ASSIGNED_CONTEXT ( ( #131 ) ) GLOBAL_UNIT_ASSIGNED_CONTEXT ( ( #126, #14, #239 ) ) REPRESENTATION_CONTEXT ( 'NONE', 'WORKASPACE' ) );
#92 = PRODUCT_CONTEXT ( 'NONE', #335, 'mechanical' ) ;
#93 = FILL_AREA_STYLE ('',( #123 ) ) ;
#94 = APPLICATION_CONTEXT ( 'automotive_design' ) ;
#95 = CARTESIAN_POINT ( 'NONE',  ( 3.238213494974356082E-16, 0.3749999999999999445, 0.000000000000000000 ) ) ;
#96 = AXIS2_PLACEMENT_3D ( 'NONE', #80, #190, #195 ) ;
#97 = PRODUCT_RELATED_PRODUCT_CATEGORY ( 'part', '', ( #214 ) ) ;
#98 = AXIS2_PLACEMENT_3D ( 'NONE', #306, #303, #247 ) ;
#99 = CARTESIAN_POINT ( 'NONE',  ( 0.000000000000000000, 0.000000000000000000, 0.000000000000000000 ) ) ;
#100 = UNCERTAINTY_MEASURE_WITH_UNIT (LENGTH_MEASURE( 1.000000000000000082E-05 ), #182, 'distance_accuracy_value', 'NONE');
#101 =( NAMED_UNIT ( * ) PLANE_ANGLE_UNIT ( ) SI_UNIT ( $, .RADIAN. ) );
#102 = DIRECTION ( 'NONE',  ( 0.000000000000000000, 0.000000000000000000, 1.000000000000000000 ) ) ;
#103 = FILL_AREA_STYLE_COLOUR ( '', #189 ) ;
#104 = FILL_AREA_STYLE_COLOUR ( '', #299 ) ;
#105 = CIRCLE ( 'NONE', #17, 0.06249999999999965999 ) ;
#106 = SURFACE_STYLE_FILL_AREA ( #276 ) ;
#107 = SURFACE_STYLE_FILL_AREA ( #186 ) ;
#108 = STYLED_ITEM ( 'NONE', ( #170 ), #291 ) ;
#109 = EDGE_LOOP ( 'NONE', ( #201, #61 ) ) ;
#110 = DIRECTION ( 'NONE',  ( -1.239117966662770659E-16, 1.000000000000000000, -0.000000000000000000 ) ) ;
#111 = ORIENTED_EDGE ( 'NONE', *, *, #50, .F. ) ;
#112 = FACE_OUTER_BOUND ( 'NONE', #85, .T. ) ;
#113 = SURFACE_STYLE_FILL_AREA ( #81 ) ;
#114 = EDGE_CURVE ( 'NONE', #257, #316, #105, .T. ) ;
#115 = UNCERTAINTY_MEASURE_WITH_UNIT (LENGTH_MEASURE( 1.000000000000000082E-05 ), #150, 'distance_accuracy_value', 'NONE');
#116 = ORIENTED_EDGE ( 'NONE', *, *, #16, .T. ) ;
#117 = DIRECTION ( 'NONE',  ( -1.000000000000000000, 0.000000000000000000, 0.000000000000000000 ) ) ;
#118 = AXIS2_PLACEMENT_3D ( 'NONE', #13, #127, #330 ) ;
#119 = ORIENTED_EDGE ( 'NONE', *, *, #241, .F. ) ;
#120 = SURFACE_SIDE_STYLE ('',( #328 ) ) ;
#121 = ADVANCED_FACE ( 'NONE', ( #88 ), #292, .T. ) ;
#122 = LENGTH_MEASURE_WITH_UNIT ( LENGTH_MEASURE( 0.02539999999999999897 ), #295 );
#123 = FILL_AREA_STYLE_COLOUR ( '', #160 ) ;
#124 = MECHANICAL_DESIGN_GEOMETRIC_PRESENTATION_REPRESENTATION (  '', ( #75 ), #91 ) ;
#125 = CARTESIAN_POINT ( 'NONE',  ( 0.000000000000000000, 0.000000000000000000, 0.000000000000000000 ) ) ;
#126 =( CONVERSION_BASED_UNIT ( 'INCH', #296 ) LENGTH_UNIT ( ) NAMED_UNIT ( #294 ) );
#127 = DIRECTION ( 'NONE',  ( -1.239117966662770659E-16, 1.000000000000000000, -0.000000000000000000 ) ) ;
#128 = CIRCLE ( 'NONE', #175, 0.06249999999999997918 ) ;
#129 = ORIENTED_EDGE ( 'NONE', *, *, #134, .T. ) ;
#130 =( GEOMETRIC_REPRESENTATION_CONTEXT ( 3 ) GLOBAL_UNCERTAINTY_ASSIGNED_CONTEXT ( ( #115 ) ) GLOBAL_UNIT_ASSIGNED_CONTEXT ( ( #150, #63, #298 ) ) REPRESENTATION_CONTEXT ( 'NONE', 'WORKASPACE' ) );
#131 = UNCERTAINTY_MEASURE_WITH_UNIT (LENGTH_MEASURE( 1.000000000000000082E-05 ), #126, 'distance_accuracy_value', 'NONE');
#132 = DIRECTION ( 'NONE',  ( -0.000000000000000000, -1.000000000000000000, -0.000000000000000000 ) ) ;
#133 = MECHANICAL_DESIGN_GEOMETRIC_PRESENTATION_REPRESENTATION (  '', ( #38 ), #237 ) ;
#134 = EDGE_CURVE ( 'NONE', #7, #173, #354, .T. ) ;
#135 = DIRECTION ( 'NONE',  ( -1.000000000000000000, 0.000000000000000000, 0.000000000000000000 ) ) ;
#136 = DIRECTION ( 'NONE',  ( -0.000000000000000000, -1.000000000000000000, -0.000000000000000000 ) ) ;
#137 =( CONVERSION_BASED_UNIT ( 'INCH', #273 ) LENGTH_UNIT ( ) NAMED_UNIT ( #200 ) );
#138 = CARTESIAN_POINT ( 'NONE',  ( -0.06249999999999974326, 2.000000000000000000, 0.000000000000000000 ) ) ;
#139 = AXIS2_PLACEMENT_3D ( 'NONE', #178, #326, #204 ) ;
#140 = CARTESIAN_POINT ( 'NONE',  ( 0.000000000000000000, 0.06250000000000002776, 0.000000000000000000 ) ) ;
#141 =( NAMED_UNIT ( * ) PLANE_ANGLE_UNIT ( ) SI_UNIT ( $, .RADIAN. ) );
#142 = ORIENTED_EDGE ( 'NONE', *, *, #50, .T. ) ;
#143 = ORIENTED_EDGE ( 'NONE', *, *, #331, .F. ) ;
#144 = CARTESIAN_POINT ( 'NONE',  ( 7.654042494670956004E-18, 0.3749999999999999445, 0.06249999999999997918 ) ) ;
#145 = CARTESIAN_POINT ( 'NONE',  ( 0.06249999999999988204, 2.000000000000000000, 7.654042494670928271E-18 ) ) ;
#146 = EDGE_LOOP ( 'NONE', ( #116, #274, #278, #111, #314 ) ) ;
#147 = MANIFOLD_SOLID_BREP ( 'Revolve - Tool Body (Straight Shanked)', #358 ) ;
#148 = AXIS2_PLACEMENT_3D ( 'NONE', #258, #315, #54 ) ;
#149 = DIRECTION ( 'NONE',  ( -1.000000000000000000, 0.000000000000000000, 0.000000000000000000 ) ) ;
#150 =( CONVERSION_BASED_UNIT ( 'INCH', #122 ) LENGTH_UNIT ( ) NAMED_UNIT ( #255 ) );
#151 = PRESENTATION_LAYER_ASSIGNMENT (  '', '', ( #317 ) ) ;
#152 = CARTESIAN_POINT ( 'NONE',  ( 0.000000000000000000, 0.3749999999999999445, 0.000000000000000000 ) ) ;
#153 = ADVANCED_BREP_SHAPE_REPRESENTATION ( '81674', ( #24, #147, #180 ), #130 ) ;
#154 = LENGTH_MEASURE_WITH_UNIT ( LENGTH_MEASURE( 0.02539999999999999897 ), #184 );
#155 = AXIS2_PLACEMENT_3D ( 'NONE', #367, #102, #172 ) ;
#156 = COLOUR_RGB ( '',1.000000000000000000, 0.000000000000000000, 0.000000000000000000 ) ;
#157 = VECTOR ( 'NONE', #256, 39.37007874015748143 ) ;
#158 = CARTESIAN_POINT ( 'NONE',  ( -0.06249999999999933387, 0.3749999999999999445, 0.000000000000000000 ) ) ;
#159 = UNCERTAINTY_MEASURE_WITH_UNIT (LENGTH_MEASURE( 1.000000000000000082E-05 ), #279, 'distance_accuracy_value', 'NONE');
#160 = COLOUR_RGB ( '',0.7921568627450980005, 0.8196078431372548767, 0.9333333333333333481 ) ;
#161 = PRODUCT_DEFINITION ( 'UNKNOWN', '', #269, #238 ) ;
#162 =( LENGTH_UNIT ( ) NAMED_UNIT ( * ) SI_UNIT ( $, .METRE. ) );
#163 = FACE_OUTER_BOUND ( 'NONE', #146, .T. ) ;
#164 = EDGE_LOOP ( 'NONE', ( #350, #33 ) ) ;
#165 = FILL_AREA_STYLE_COLOUR ( '', #49 ) ;
#166 = ORIENTED_EDGE ( 'NONE', *, *, #177, .F. ) ;
#167 = CARTESIAN_POINT ( 'NONE',  ( 0.06249999999999999306, 0.3749999999999999445, 7.654042494670934434E-18 ) ) ;
#168 = CARTESIAN_POINT ( 'NONE',  ( -0.06250000000000000000, 0.06250000000000002776, 7.654042494670956004E-18 ) ) ;
#169 = PRESENTATION_LAYER_ASSIGNMENT (  '', '', ( #75 ) ) ;
#170 = PRESENTATION_STYLE_ASSIGNMENT (( #343 ) ) ;
#171 = ORIENTED_EDGE ( 'NONE', *, *, #305, .T. ) ;
#172 = DIRECTION ( 'NONE',  ( 1.000000000000000000, 0.000000000000000000, 0.000000000000000000 ) ) ;
#173 = VERTEX_POINT ( 'NONE', #69 ) ;
#174 = ORIENTED_EDGE ( 'NONE', *, *, #286, .T. ) ;
#175 = AXIS2_PLACEMENT_3D ( 'NONE', #140, #136, #287 ) ;
#176 = CARTESIAN_POINT ( 'NONE',  ( 1.224646799147353700E-16, 2.000000000000000000, 0.000000000000000000 ) ) ;
#177 = EDGE_CURVE ( 'NONE', #3, #59, #208, .T. ) ;
#178 = CARTESIAN_POINT ( 'NONE',  ( 0.000000000000000000, 0.06250000000000002776, 0.000000000000000000 ) ) ;
#179 = PRESENTATION_LAYER_ASSIGNMENT (  '', '', ( #71 ) ) ;
#180 = AXIS2_PLACEMENT_3D ( 'NONE', #125, #352, #89 ) ;
#181 = FACE_OUTER_BOUND ( 'NONE', #220, .T. ) ;
#182 =( CONVERSION_BASED_UNIT ( 'INCH', #154 ) LENGTH_UNIT ( ) NAMED_UNIT ( #2 ) );
#183 = CARTESIAN_POINT ( 'NONE',  ( 7.654042494670956004E-18, 0.000000000000000000, 0.06249999999999997918 ) ) ;
#184 =( LENGTH_UNIT ( ) NAMED_UNIT ( * ) SI_UNIT ( $, .METRE. ) );
#185 = LINE ( 'NONE', #193, #157 ) ;
#186 = FILL_AREA_STYLE ('',( #285 ) ) ;
#187 = AXIS2_PLACEMENT_3D ( 'NONE', #232, #40, #21 ) ;
#188 = CIRCLE ( 'NONE', #37, 0.06249999999999997918 ) ;
#189 = COLOUR_RGB ( '',1.000000000000000000, 0.000000000000000000, 0.000000000000000000 ) ;
#190 = DIRECTION ( 'NONE',  ( -1.239117966662770659E-16, 1.000000000000000000, 0.000000000000000000 ) ) ;
#191 = LINE ( 'NONE', #145, #359 ) ;
#192 = ORIENTED_EDGE ( 'NONE', *, *, #87, .F. ) ;
#193 = CARTESIAN_POINT ( 'NONE',  ( -0.06249999999999963918, 2.000000000000000000, 0.000000000000000000 ) ) ;
#194 = CARTESIAN_POINT ( 'NONE',  ( 0.000000000000000000, 0.3749999999999999445, 0.000000000000000000 ) ) ;
#195 = DIRECTION ( 'NONE',  ( -1.000000000000000000, -1.239117966662770659E-16, 0.000000000000000000 ) ) ;
#196 = ORIENTED_EDGE ( 'NONE', *, *, #23, .F. ) ;
#197 = AXIS2_PLACEMENT_3D ( 'NONE', #99, #18, #333 ) ;
#198 =( NAMED_UNIT ( * ) PLANE_ANGLE_UNIT ( ) SI_UNIT ( $, .RADIAN. ) );
#199 = ORIENTED_EDGE ( 'NONE', *, *, #62, .T. ) ;
#200 = DIMENSIONAL_EXPONENTS ( 1.000000000000000000, 0.000000000000000000, 0.000000000000000000, 0.000000000000000000, 0.000000000000000000, 0.000000000000000000, 0.000000000000000000 ) ;
#201 = ORIENTED_EDGE ( 'NONE', *, *, #114, .F. ) ;
#202 = DIRECTION ( 'NONE',  ( -1.239117966662770659E-16, 1.000000000000000000, -0.000000000000000000 ) ) ;
#203 = MECHANICAL_DESIGN_GEOMETRIC_PRESENTATION_REPRESENTATION (  '', ( #368 ), #41 ) ;
#204 = DIRECTION ( 'NONE',  ( 0.000000000000000000, 0.000000000000000000, -1.000000000000000000 ) ) ;
#205 = DIRECTION ( 'NONE',  ( -0.000000000000000000, -1.000000000000000000, -0.000000000000000000 ) ) ;
#206 =( GEOMETRIC_REPRESENTATION_CONTEXT ( 3 ) GLOBAL_UNCERTAINTY_ASSIGNED_CONTEXT ( ( #307 ) ) GLOBAL_UNIT_ASSIGNED_CONTEXT ( ( #251, #198, #277 ) ) REPRESENTATION_CONTEXT ( 'NONE', 'WORKASPACE' ) );
#207 =( NAMED_UNIT ( * ) SI_UNIT ( $, .STERADIAN. ) SOLID_ANGLE_UNIT ( ) );
#208 = CIRCLE ( 'NONE', #244, 0.06250000000000000000 ) ;
#209 = COLOUR_RGB ( '',1.000000000000000000, 0.000000000000000000, 0.000000000000000000 ) ;
#210 = SURFACE_SIDE_STYLE ('',( #364 ) ) ;
#211 = ADVANCED_FACE ( 'NONE', ( #181 ), #20, .T. ) ;
#212 = LENGTH_MEASURE_WITH_UNIT ( LENGTH_MEASURE( 0.02539999999999999897 ), #44 );
#213 = UNCERTAINTY_MEASURE_WITH_UNIT (LENGTH_MEASURE( 1.000000000000000082E-05 ), #67, 'distance_accuracy_value', 'NONE');
#214 = PRODUCT ( '81674', '81674', '', ( #92 ) ) ;
#215 =( NAMED_UNIT ( * ) SI_UNIT ( $, .STERADIAN. ) SOLID_ANGLE_UNIT ( ) );
#216 = CARTESIAN_POINT ( 'NONE',  ( 0.06249999999999997918, 2.000000000000000000, 0.000000000000000000 ) ) ;
#217 = EDGE_CURVE ( 'NONE', #338, #281, #261, .T. ) ;
#218 = FACE_OUTER_BOUND ( 'NONE', #109, .T. ) ;
#219 = DIRECTION ( 'NONE',  ( -0.000000000000000000, -1.000000000000000000, -0.000000000000000000 ) ) ;
#220 = EDGE_LOOP ( 'NONE', ( #119, #86, #199, #143, #192 ) ) ;
#221 = STYLED_ITEM ( 'NONE', ( #222 ), #327 ) ;
#222 = PRESENTATION_STYLE_ASSIGNMENT (( #284 ) ) ;
#223 = SURFACE_STYLE_USAGE ( .BOTH. , #26 ) ;
#224 = PRODUCT_DEFINITION_SHAPE ( 'NONE', 'NONE',  #161 ) ;
#225 = SURFACE_STYLE_USAGE ( .BOTH. , #55 ) ;
#226 = ORIENTED_EDGE ( 'NONE', *, *, #114, .T. ) ;
#227 = PRESENTATION_STYLE_ASSIGNMENT (( #223 ) ) ;
#228 = DIRECTION ( 'NONE',  ( -0.000000000000000000, -1.000000000000000000, -0.000000000000000000 ) ) ;
#229 =( GEOMETRIC_REPRESENTATION_CONTEXT ( 3 ) GLOBAL_UNCERTAINTY_ASSIGNED_CONTEXT ( ( #100 ) ) GLOBAL_UNIT_ASSIGNED_CONTEXT ( ( #182, #101, #337 ) ) REPRESENTATION_CONTEXT ( 'NONE', 'WORKASPACE' ) );
#230 = PRESENTATION_LAYER_ASSIGNMENT (  '', '', ( #221 ) ) ;
#231 = CARTESIAN_POINT ( 'NONE',  ( 0.06249999999999997918, 0.06250000000000002776, 0.000000000000000000 ) ) ;
#232 = CARTESIAN_POINT ( 'NONE',  ( 3.238213494974356082E-16, 0.3749999999999999445, 0.000000000000000000 ) ) ;
#233 = ORIENTED_EDGE ( 'NONE', *, *, #23, .T. ) ;
#234 = EDGE_CURVE ( 'NONE', #349, #366, #323, .T. ) ;
#235 = APPLICATION_PROTOCOL_DEFINITION ( 'draft international standard', 'automotive_design', 1998, #94 ) ;
#236 = CARTESIAN_POINT ( 'NONE',  ( -3.827021247335480313E-18, 1.707404996040164512E-17, 0.000000000000000000 ) ) ;
#237 =( GEOMETRIC_REPRESENTATION_CONTEXT ( 3 ) GLOBAL_UNCERTAINTY_ASSIGNED_CONTEXT ( ( #213 ) ) GLOBAL_UNIT_ASSIGNED_CONTEXT ( ( #67, #297, #207 ) ) REPRESENTATION_CONTEXT ( 'NONE', 'WORKASPACE' ) );
#238 = PRODUCT_DEFINITION_CONTEXT ( 'detailed design', #94, 'design' ) ;
#239 =( NAMED_UNIT ( * ) SI_UNIT ( $, .STERADIAN. ) SOLID_ANGLE_UNIT ( ) );
#240 = SURFACE_STYLE_USAGE ( .BOTH. , #120 ) ;
#241 = EDGE_CURVE ( 'NONE', #338, #366, #246, .T. ) ;
#242 = MECHANICAL_DESIGN_GEOMETRIC_PRESENTATION_REPRESENTATION (  '', ( #108 ), #206 ) ;
#243 = CIRCLE ( 'NONE', #74, 0.06250000000000000000 ) ;
#244 = AXIS2_PLACEMENT_3D ( 'NONE', #36, #361, #362 ) ;
#245 = EDGE_LOOP ( 'NONE', ( #166, #77, #142, #233 ) ) ;
#246 = LINE ( 'NONE', #183, #42 ) ;
#247 = DIRECTION ( 'NONE',  ( 0.000000000000000000, 0.000000000000000000, -1.000000000000000000 ) ) ;
#248 = PRESENTATION_LAYER_ASSIGNMENT (  '', '', ( #368 ) ) ;
#249 = AXIS2_PLACEMENT_3D ( 'NONE', #216, #301, #73 ) ;
#250 = PLANE ( 'NONE',  #249 ) ;
#251 =( CONVERSION_BASED_UNIT ( 'INCH', #79 ) LENGTH_UNIT ( ) NAMED_UNIT ( #60 ) );
#252 = FILL_AREA_STYLE ('',( #104 ) ) ;
#253 = FACE_OUTER_BOUND ( 'NONE', #289, .T. ) ;
#254 = CARTESIAN_POINT ( 'NONE',  ( -7.654042494670959086E-18, 0.06250000000000001388, 0.000000000000000000 ) ) ;
#255 = DIMENSIONAL_EXPONENTS ( 1.000000000000000000, 0.000000000000000000, 0.000000000000000000, 0.000000000000000000, 0.000000000000000000, 0.000000000000000000, 0.000000000000000000 ) ;
#256 = DIRECTION ( 'NONE',  ( -1.239117966662770659E-16, 1.000000000000000000, -0.000000000000000000 ) ) ;
#257 = VERTEX_POINT ( 'NONE', #158 ) ;
#258 = CARTESIAN_POINT ( 'NONE',  ( -7.654042494670959086E-18, 0.06250000000000001388, 0.000000000000000000 ) ) ;
#259 = ORIENTED_EDGE ( 'NONE', *, *, #305, .F. ) ;
#260 = ORIENTED_EDGE ( 'NONE', *, *, #134, .F. ) ;
#261 = CIRCLE ( 'NONE', #363, 0.06249999999999997918 ) ;
#262 = CARTESIAN_POINT ( 'NONE',  ( 0.000000000000000000, 0.06250000000000002776, 0.000000000000000000 ) ) ;
#263 = APPLICATION_PROTOCOL_DEFINITION ( 'draft international standard', 'automotive_design', 1998, #335 ) ;
#264 = DIRECTION ( 'NONE',  ( -1.000000000000000000, 0.000000000000000000, 0.000000000000000000 ) ) ;
#265 = ADVANCED_FACE ( 'NONE', ( #271 ), #250, .F. ) ;
#266 = DIRECTION ( 'NONE',  ( 0.000000000000000000, 1.000000000000000000, 0.000000000000000000 ) ) ;
#267 = ADVANCED_FACE ( 'NONE', ( #253 ), #346, .T. ) ;
#268 =( CONVERSION_BASED_UNIT ( 'INCH', #212 ) LENGTH_UNIT ( ) NAMED_UNIT ( #319 ) );
#269 = PRODUCT_DEFINITION_FORMATION_WITH_SPECIFIED_SOURCE ( 'ANY', '', #214, .NOT_KNOWN. ) ;
#270 = FILL_AREA_STYLE_COLOUR ( '', #293 ) ;
#271 = FACE_OUTER_BOUND ( 'NONE', #31, .T. ) ;
#272 = CIRCLE ( 'NONE', #139, 0.06249999999999997918 ) ;
#273 = LENGTH_MEASURE_WITH_UNIT ( LENGTH_MEASURE( 0.02539999999999999897 ), #340 );
#274 = ORIENTED_EDGE ( 'NONE', *, *, #241, .T. ) ;
#275 = DIMENSIONAL_EXPONENTS ( 1.000000000000000000, 0.000000000000000000, 0.000000000000000000, 0.000000000000000000, 0.000000000000000000, 0.000000000000000000, 0.000000000000000000 ) ;
#276 = FILL_AREA_STYLE ('',( #165 ) ) ;
#277 =( NAMED_UNIT ( * ) SI_UNIT ( $, .STERADIAN. ) SOLID_ANGLE_UNIT ( ) );
#278 = ORIENTED_EDGE ( 'NONE', *, *, #234, .F. ) ;
#279 =( CONVERSION_BASED_UNIT ( 'INCH', #83 ) LENGTH_UNIT ( ) NAMED_UNIT ( #275 ) );
#280 = CYLINDRICAL_SURFACE ( 'NONE', #53, 0.06249999999999997918 ) ;
#281 = VERTEX_POINT ( 'NONE', #22 ) ;
#282 = CLOSED_SHELL ( 'NONE', ( #267, #291, #121, #211, #327 ) ) ;
#283 = VECTOR ( 'NONE', #205, 39.37007874015748143 ) ;
#284 = SURFACE_STYLE_USAGE ( .BOTH. , #348 ) ;
#285 = FILL_AREA_STYLE_COLOUR ( '', #209 ) ;
#286 = EDGE_CURVE ( 'NONE', #316, #173, #191, .T. ) ;
#287 = DIRECTION ( 'NONE',  ( 0.000000000000000000, 0.000000000000000000, -1.000000000000000000 ) ) ;
#288 = DIRECTION ( 'NONE',  ( 0.000000000000000000, 0.000000000000000000, -1.000000000000000000 ) ) ;
#289 = EDGE_LOOP ( 'NONE', ( #82, #27, #196, #30 ) ) ;
#290 = DIMENSIONAL_EXPONENTS ( 1.000000000000000000, 0.000000000000000000, 0.000000000000000000, 0.000000000000000000, 0.000000000000000000, 0.000000000000000000, 0.000000000000000000 ) ;
#291 = ADVANCED_FACE ( 'NONE', ( #163 ), #280, .T. ) ;
#292 = PLANE ( 'NONE',  #8 ) ;
#293 = COLOUR_RGB ( '',1.000000000000000000, 0.000000000000000000, 0.000000000000000000 ) ;
#294 = DIMENSIONAL_EXPONENTS ( 1.000000000000000000, 0.000000000000000000, 0.000000000000000000, 0.000000000000000000, 0.000000000000000000, 0.000000000000000000, 0.000000000000000000 ) ;
#295 =( LENGTH_UNIT ( ) NAMED_UNIT ( * ) SI_UNIT ( $, .METRE. ) );
#296 = LENGTH_MEASURE_WITH_UNIT ( LENGTH_MEASURE( 0.02539999999999999897 ), #321 );
#297 =( NAMED_UNIT ( * ) PLANE_ANGLE_UNIT ( ) SI_UNIT ( $, .RADIAN. ) );
#298 =( NAMED_UNIT ( * ) SI_UNIT ( $, .STERADIAN. ) SOLID_ANGLE_UNIT ( ) );
#299 = COLOUR_RGB ( '',0.7921568627450980005, 0.8196078431372548767, 0.9333333333333333481 ) ;
#300 = PRESENTATION_STYLE_ASSIGNMENT (( #240 ) ) ;
#301 = DIRECTION ( 'NONE',  ( 1.239117966662770659E-16, -1.000000000000000000, 0.000000000000000000 ) ) ;
#302 = PRESENTATION_STYLE_ASSIGNMENT (( #336 ) ) ;
#303 = DIRECTION ( 'NONE',  ( -0.000000000000000000, -1.000000000000000000, -0.000000000000000000 ) ) ;
#304 = UNCERTAINTY_MEASURE_WITH_UNIT (LENGTH_MEASURE( 1.000000000000000082E-05 ), #268, 'distance_accuracy_value', 'NONE');
#305 = EDGE_CURVE ( 'NONE', #173, #7, #339, .T. ) ;
#306 = CARTESIAN_POINT ( 'NONE',  ( 0.000000000000000000, 0.06250000000000002776, 0.000000000000000000 ) ) ;
#307 = UNCERTAINTY_MEASURE_WITH_UNIT (LENGTH_MEASURE( 1.000000000000000082E-05 ), #251, 'distance_accuracy_value', 'NONE');
#308 = EDGE_CURVE ( 'NONE', #316, #257, #39, .T. ) ;
#309 = CARTESIAN_POINT ( 'NONE',  ( 7.654042494670956004E-18, 0.06250000000000002776, 0.06249999999999997918 ) ) ;
#310 =( NAMED_UNIT ( * ) SI_UNIT ( $, .STERADIAN. ) SOLID_ANGLE_UNIT ( ) );
#311 = ORIENTED_EDGE ( 'NONE', *, *, #355, .T. ) ;
#312 = CYLINDRICAL_SURFACE ( 'NONE', #334, 0.06249999999999975714 ) ;
#313 = CYLINDRICAL_SURFACE ( 'NONE', #6, 0.06249999999999975714 ) ;
#314 = ORIENTED_EDGE ( 'NONE', *, *, #62, .F. ) ;
#315 = DIRECTION ( 'NONE',  ( 0.000000000000000000, 0.000000000000000000, 1.000000000000000000 ) ) ;
#316 = VERTEX_POINT ( 'NONE', #167 ) ;
#317 = STYLED_ITEM ( 'NONE', ( #302 ), #211 ) ;
#318 = ORIENTED_EDGE ( 'NONE', *, *, #355, .F. ) ;
#319 = DIMENSIONAL_EXPONENTS ( 1.000000000000000000, 0.000000000000000000, 0.000000000000000000, 0.000000000000000000, 0.000000000000000000, 0.000000000000000000, 0.000000000000000000 ) ;
#320 = EDGE_LOOP ( 'NONE', ( #369, #373, #311, #259 ) ) ;
#321 =( LENGTH_UNIT ( ) NAMED_UNIT ( * ) SI_UNIT ( $, .METRE. ) );
#322 = PRESENTATION_LAYER_ASSIGNMENT (  '', '', ( #108 ) ) ;
#323 = CIRCLE ( 'NONE', #98, 0.06249999999999997918 ) ;
#324 = AXIS2_PLACEMENT_3D ( 'NONE', #32, #5, #117 ) ;
#325 = FILL_AREA_STYLE_COLOUR ( '', #156 ) ;
#326 = DIRECTION ( 'NONE',  ( -0.000000000000000000, -1.000000000000000000, -0.000000000000000000 ) ) ;
#327 = ADVANCED_FACE ( 'NONE', ( #4 ), #371, .T. ) ;
#328 = SURFACE_STYLE_FILL_AREA ( #90 ) ;
#329 = CIRCLE ( 'NONE', #12, 0.06249999999999997918 ) ;
#330 = DIRECTION ( 'NONE',  ( -1.000000000000000000, 0.000000000000000000, 0.000000000000000000 ) ) ;
#331 = EDGE_CURVE ( 'NONE', #3, #347, #128, .T. ) ;
#332 = SURFACE_STYLE_FILL_AREA ( #72 ) ;
#333 = DIRECTION ( 'NONE',  ( 0.000000000000000000, 0.000000000000000000, -1.000000000000000000 ) ) ;
#334 = AXIS2_PLACEMENT_3D ( 'NONE', #176, #202, #149 ) ;
#335 = APPLICATION_CONTEXT ( 'automotive_design' ) ;
#336 = SURFACE_STYLE_USAGE ( .BOTH. , #360 ) ;
#337 =( NAMED_UNIT ( * ) SI_UNIT ( $, .STERADIAN. ) SOLID_ANGLE_UNIT ( ) );
#338 = VERTEX_POINT ( 'NONE', #144 ) ;
#339 = CIRCLE ( 'NONE', #324, 0.06249999999999986122 ) ;
#340 =( LENGTH_UNIT ( ) NAMED_UNIT ( * ) SI_UNIT ( $, .METRE. ) );
#341 = SURFACE_STYLE_FILL_AREA ( #252 ) ;
#342 =( NAMED_UNIT ( * ) PLANE_ANGLE_UNIT ( ) SI_UNIT ( $, .RADIAN. ) );
#343 = SURFACE_STYLE_USAGE ( .BOTH. , #57 ) ;
#344 = PRESENTATION_STYLE_ASSIGNMENT (( #225 ) ) ;
#345 = PLANE ( 'NONE',  #96 ) ;
#346 = SPHERICAL_SURFACE ( 'NONE', #148, 0.06250000000000000000 ) ;
#347 = VERTEX_POINT ( 'NONE', #28 ) ;
#348 = SURFACE_SIDE_STYLE ('',( #106 ) ) ;
#349 = VERTEX_POINT ( 'NONE', #231 ) ;
#350 = ORIENTED_EDGE ( 'NONE', *, *, #16, .F. ) ;
#351 =( LENGTH_UNIT ( ) NAMED_UNIT ( * ) SI_UNIT ( $, .METRE. ) );
#352 = DIRECTION ( 'NONE',  ( 0.000000000000000000, 0.000000000000000000, 1.000000000000000000 ) ) ;
#353 = LINE ( 'NONE', #68, #283 ) ;
#354 = CIRCLE ( 'NONE', #118, 0.06249999999999986122 ) ;
#355 = EDGE_CURVE ( 'NONE', #257, #7, #185, .T. ) ;
#356 = FACE_OUTER_BOUND ( 'NONE', #320, .T. ) ;
#357 = ADVANCED_FACE ( 'NONE', ( #112 ), #313, .T. ) ;
#358 = CLOSED_SHELL ( 'NONE', ( #357, #370, #45, #265 ) ) ;
#359 = VECTOR ( 'NONE', #52, 39.37007874015748143 ) ;
#360 = SURFACE_SIDE_STYLE ('',( #332 ) ) ;
#361 = DIRECTION ( 'NONE',  ( 1.224646799147353207E-16, -0.000000000000000000, 1.000000000000000000 ) ) ;
#362 = DIRECTION ( 'NONE',  ( 1.000000000000000000, 0.000000000000000000, -1.224646799147353207E-16 ) ) ;
#363 = AXIS2_PLACEMENT_3D ( 'NONE', #70, #132, #19 ) ;
#364 = SURFACE_STYLE_FILL_AREA ( #93 ) ;
#365 = DIRECTION ( 'NONE',  ( -1.000000000000000000, 0.000000000000000000, 0.000000000000000000 ) ) ;
#366 = VERTEX_POINT ( 'NONE', #309 ) ;
#367 = CARTESIAN_POINT ( 'NONE',  ( -7.654042494670959086E-18, 0.06250000000000001388, 0.000000000000000000 ) ) ;
#368 = STYLED_ITEM ( 'NONE', ( #227 ), #267 ) ;
#369 = ORIENTED_EDGE ( 'NONE', *, *, #286, .F. ) ;
#370 = ADVANCED_FACE ( 'NONE', ( #218 ), #345, .F. ) ;
#371 = SPHERICAL_SURFACE ( 'NONE', #155, 0.06250000000000000000 ) ;
#372 = CARTESIAN_POINT ( 'NONE',  ( 0.000000000000000000, 0.000000000000000000, 0.000000000000000000 ) ) ;
#373 = ORIENTED_EDGE ( 'NONE', *, *, #308, .T. ) ;
ENDSEC;
END-ISO-10303-21;
