ISO-10303-21;
HEADER;
FILE_DESCRIPTION (( 'STEP AP214' ),
    '1' );
FILE_NAME ('Micro_AEMM-140-3.STEP',
    '2022-03-15T14:32:18',
    ( '' ),
    ( '' ),
    'SwSTEP 2.0',
    'SolidWorks 2022',
    '' );
FILE_SCHEMA (( 'AUTOMOTIVE_DESIGN' ));
ENDSEC;

DATA;
#1 = DIRECTION ( 'NONE',  ( 1.000000000000000000, 0.000000000000000000, -0.000000000000000000 ) ) ;
#2 = ADVANCED_FACE ( 'NONE', ( #123 ), #51, .T. ) ;
#3 =( NAMED_UNIT ( * ) PLANE_ANGLE_UNIT ( ) SI_UNIT ( $, .RADIAN. ) );
#4 = DIRECTION ( 'NONE',  ( 1.000000000000000000, 0.000000000000000000, 0.000000000000000000 ) ) ;
#5 = CARTESIAN_POINT ( 'NONE',  ( 0.000000000000000000, 0.000000000000000000, 3.267717000000000649 ) ) ;
#6 = ORIENTED_EDGE ( 'NONE', *, *, #77, .F. ) ;
#7 =( LENGTH_UNIT ( ) NAMED_UNIT ( * ) SI_UNIT ( $, .METRE. ) );
#8 = CARTESIAN_POINT ( 'NONE',  ( -0.2753149094999998159, 3.373322731885684685E-17, 1.377952999999999983 ) ) ;
#9 = VECTOR ( 'NONE', #254, 39.37007874015748143 ) ;
#10 = ORIENTED_EDGE ( 'NONE', *, *, #83, .T. ) ;
#11 = DIRECTION ( 'NONE',  ( 1.000000000000000000, 0.000000000000000000, 0.000000000000000000 ) ) ;
#12 = CARTESIAN_POINT ( 'NONE',  ( -0.2755904999999998495, 0.000000000000000000, 1.379515951392309425 ) ) ;
#13 = ORIENTED_EDGE ( 'NONE', *, *, #161, .T. ) ;
#14 = DIRECTION ( 'NONE',  ( -1.224646799147353454E-16, -0.000000000000000000, -1.000000000000000000 ) ) ;
#15 =( NAMED_UNIT ( * ) PLANE_ANGLE_UNIT ( ) SI_UNIT ( $, .RADIAN. ) );
#16 = EDGE_CURVE ( 'NONE', #28, #147, #115, .T. ) ;
#17 = DIRECTION ( 'NONE',  ( 1.000000000000000000, 0.000000000000000000, 0.000000000000000000 ) ) ;
#18 = UNCERTAINTY_MEASURE_WITH_UNIT (LENGTH_MEASURE( 1.000000000000000082E-05 ), #126, 'distance_accuracy_value', 'NONE');
#19 = ORIENTED_EDGE ( 'NONE', *, *, #73, .F. ) ;
#20 = ORIENTED_EDGE ( 'NONE', *, *, #292, .T. ) ;
#21 = EDGE_LOOP ( 'NONE', ( #188, #13, #171, #40 ) ) ;
#22 = DIRECTION ( 'NONE',  ( 1.224646799147353454E-16, 0.000000000000000000, 1.000000000000000000 ) ) ;
#23 = AXIS2_PLACEMENT_3D ( 'NONE', #43, #133, #27 ) ;
#24 = ORIENTED_EDGE ( 'NONE', *, *, #83, .F. ) ;
#25 =( GEOMETRIC_REPRESENTATION_CONTEXT ( 3 ) GLOBAL_UNCERTAINTY_ASSIGNED_CONTEXT ( ( #125 ) ) GLOBAL_UNIT_ASSIGNED_CONTEXT ( ( #201, #3, #205 ) ) REPRESENTATION_CONTEXT ( 'NONE', 'WORKASPACE' ) );
#26 = VERTEX_POINT ( 'NONE', #92 ) ;
#27 = DIRECTION ( 'NONE',  ( -1.000000000000000000, 0.000000000000000000, 0.000000000000000000 ) ) ;
#28 = VERTEX_POINT ( 'NONE', #209 ) ;
#29 = EDGE_LOOP ( 'NONE', ( #57, #38, #10, #59 ) ) ;
#30 = ADVANCED_FACE ( 'NONE', ( #179 ), #94, .T. ) ;
#31 = ORIENTED_EDGE ( 'NONE', *, *, #274, .F. ) ;
#32 = CONICAL_SURFACE ( 'NONE', #199, 0.2753149095000000379, 0.1745329251994338082 ) ;
#33 = CYLINDRICAL_SURFACE ( 'NONE', #48, 0.2753149094999999824 ) ;
#34 = DIRECTION ( 'NONE',  ( 0.000000000000000000, 0.000000000000000000, -1.000000000000000000 ) ) ;
#35 = FILL_AREA_STYLE ('',( #164 ) ) ;
#36 = EDGE_LOOP ( 'NONE', ( #151, #169, #172, #260 ) ) ;
#37 = EDGE_LOOP ( 'NONE', ( #82, #206 ) ) ;
#38 = ORIENTED_EDGE ( 'NONE', *, *, #277, .F. ) ;
#39 = AXIS2_PLACEMENT_3D ( 'NONE', #235, #186, #261 ) ;
#40 = ORIENTED_EDGE ( 'NONE', *, *, #292, .F. ) ;
#41 = DIRECTION ( 'NONE',  ( 1.000000000000000000, 0.000000000000000000, 0.000000000000000000 ) ) ;
#42 = PRODUCT_CONTEXT ( 'NONE', #223, 'mechanical' ) ;
#43 = CARTESIAN_POINT ( 'NONE',  ( 1.687505730825493004E-16, 0.000000000000000000, 1.377952999999999983 ) ) ;
#44 = STYLED_ITEM ( 'NONE', ( #60 ), #203 ) ;
#45 = EDGE_CURVE ( 'NONE', #28, #26, #258, .T. ) ;
#46 = AXIS2_PLACEMENT_3D ( 'NONE', #49, #112, #1 ) ;
#47 = DIRECTION ( 'NONE',  ( -1.224646799147353454E-16, -0.000000000000000000, -1.000000000000000000 ) ) ;
#48 = AXIS2_PLACEMENT_3D ( 'NONE', #269, #265, #146 ) ;
#49 = CARTESIAN_POINT ( 'NONE',  ( 0.000000000000000000, 0.000000000000000000, 3.267717000000000649 ) ) ;
#50 = CARTESIAN_POINT ( 'NONE',  ( 0.2753149094999999824, 3.371635226767182256E-17, 0.000000000000000000 ) ) ;
#51 = CYLINDRICAL_SURFACE ( 'NONE', #243, 0.2755905000000000715 ) ;
#52 = VERTEX_POINT ( 'NONE', #53 ) ;
#53 = CARTESIAN_POINT ( 'NONE',  ( -0.2755905000000000715, 0.000000000000000000, 3.252717000000001857 ) ) ;
#54 = COLOUR_RGB ( '',0.7921568627450980005, 0.8196078431372548767, 0.9333333333333333481 ) ;
#55 = SURFACE_STYLE_FILL_AREA ( #35 ) ;
#56 = DIRECTION ( 'NONE',  ( 0.000000000000000000, 0.000000000000000000, -1.000000000000000000 ) ) ;
#57 = ORIENTED_EDGE ( 'NONE', *, *, #16, .F. ) ;
#58 = CYLINDRICAL_SURFACE ( 'NONE', #294, 0.2753149094999999824 ) ;
#59 = ORIENTED_EDGE ( 'NONE', *, *, #161, .F. ) ;
#60 = PRESENTATION_STYLE_ASSIGNMENT (( #242 ) ) ;
#61 = CIRCLE ( 'NONE', #193, 0.2605905000000014460 ) ;
#62 = VECTOR ( 'NONE', #184, 39.37007874015748143 ) ;
#63 = DIRECTION ( 'NONE',  ( -1.224646799147353454E-16, -0.000000000000000000, -1.000000000000000000 ) ) ;
#64 = DIRECTION ( 'NONE',  ( -0.000000000000000000, -0.000000000000000000, -1.000000000000000000 ) ) ;
#65 = ADVANCED_FACE ( 'NONE', ( #283 ), #231, .T. ) ;
#66 = CARTESIAN_POINT ( 'NONE',  ( 4.129062288352891690E-33, 0.000000000000000000, 3.371635226767182256E-17 ) ) ;
#67 = CONICAL_SURFACE ( 'NONE', #257, 0.2605905000000014460, 0.7853981633974471688 ) ;
#68 = VERTEX_POINT ( 'NONE', #285 ) ;
#69 = CARTESIAN_POINT ( 'NONE',  ( 1.687505730825493004E-16, 0.000000000000000000, 1.377952999999999983 ) ) ;
#70 = SURFACE_SIDE_STYLE ('',( #284 ) ) ;
#71 = PRESENTATION_LAYER_ASSIGNMENT (  '', '', ( #44 ) ) ;
#72 = CARTESIAN_POINT ( 'NONE',  ( 0.2753149094999999824, 3.371635226767182256E-17, -3.371635226767182256E-17 ) ) ;
#73 = EDGE_CURVE ( 'NONE', #68, #95, #141, .T. ) ;
#74 = PRESENTATION_STYLE_ASSIGNMENT (( #212 ) ) ;
#75 = VERTEX_POINT ( 'NONE', #12 ) ;
#76 = MANIFOLD_SOLID_BREP ( 'Cut-Revolve1', #158 ) ;
#77 = EDGE_CURVE ( 'NONE', #52, #75, #221, .T. ) ;
#78 = EDGE_LOOP ( 'NONE', ( #220, #229, #275, #24 ) ) ;
#79 = DIRECTION ( 'NONE',  ( 1.000000000000000000, 0.000000000000000000, -0.000000000000000000 ) ) ;
#80 = UNCERTAINTY_MEASURE_WITH_UNIT (LENGTH_MEASURE( 1.000000000000000082E-05 ), #168, 'distance_accuracy_value', 'NONE');
#81 =( NAMED_UNIT ( * ) PLANE_ANGLE_UNIT ( ) SI_UNIT ( $, .RADIAN. ) );
#82 = ORIENTED_EDGE ( 'NONE', *, *, #277, .T. ) ;
#83 = EDGE_CURVE ( 'NONE', #26, #52, #104, .T. ) ;
#84 = PRESENTATION_LAYER_ASSIGNMENT (  '', '', ( #153 ) ) ;
#85 = ORIENTED_EDGE ( 'NONE', *, *, #136, .T. ) ;
#86 = FACE_OUTER_BOUND ( 'NONE', #116, .T. ) ;
#87 = AXIS2_PLACEMENT_3D ( 'NONE', #176, #47, #276 ) ;
#88 = EDGE_CURVE ( 'NONE', #118, #189, #137, .T. ) ;
#89 = CARTESIAN_POINT ( 'NONE',  ( -0.2605905000000014460, 0.000000000000000000, 3.267717000000000649 ) ) ;
#90 = CARTESIAN_POINT ( 'NONE',  ( 0.000000000000000000, 0.000000000000000000, 3.267717000000000649 ) ) ;
#91 = LINE ( 'NONE', #234, #135 ) ;
#92 = CARTESIAN_POINT ( 'NONE',  ( -0.2605905000000014460, 0.000000000000000000, 3.267717000000000649 ) ) ;
#93 = CARTESIAN_POINT ( 'NONE',  ( 0.000000000000000000, 0.000000000000000000, 3.267717000000000649 ) ) ;
#94 = CONICAL_SURFACE ( 'NONE', #202, 0.2605905000000014460, 0.7853981633974471688 ) ;
#95 = VERTEX_POINT ( 'NONE', #50 ) ;
#96 = CARTESIAN_POINT ( 'NONE',  ( 0.000000000000000000, 0.000000000000000000, 3.267717000000000649 ) ) ;
#97 = DIRECTION ( 'NONE',  ( 0.000000000000000000, 0.000000000000000000, -1.000000000000000000 ) ) ;
#98 = ADVANCED_FACE ( 'NONE', ( #117 ), #208, .T. ) ;
#99 = ORIENTED_EDGE ( 'NONE', *, *, #181, .F. ) ;
#100 = FACE_OUTER_BOUND ( 'NONE', #232, .T. ) ;
#101 = DIRECTION ( 'NONE',  ( -1.000000000000000000, 0.000000000000000000, 0.000000000000000000 ) ) ;
#102 = VECTOR ( 'NONE', #289, 39.37007874015748143 ) ;
#103 = ORIENTED_EDGE ( 'NONE', *, *, #274, .T. ) ;
#104 = LINE ( 'NONE', #89, #9 ) ;
#105 = AXIS2_PLACEMENT_3D ( 'NONE', #271, #156, #245 ) ;
#106 = FACE_OUTER_BOUND ( 'NONE', #128, .T. ) ;
#107 = CIRCLE ( 'NONE', #23, 0.2753149095000000379 ) ;
#108 = ORIENTED_EDGE ( 'NONE', *, *, #181, .T. ) ;
#109 = EDGE_CURVE ( 'NONE', #52, #147, #173, .T. ) ;
#110 = AXIS2_PLACEMENT_3D ( 'NONE', #5, #187, #256 ) ;
#111 = LINE ( 'NONE', #204, #120 ) ;
#112 = DIRECTION ( 'NONE',  ( 0.000000000000000000, 0.000000000000000000, 1.000000000000000000 ) ) ;
#113 = DIMENSIONAL_EXPONENTS ( 1.000000000000000000, 0.000000000000000000, 0.000000000000000000, 0.000000000000000000, 0.000000000000000000, 0.000000000000000000, 0.000000000000000000 ) ;
#114 = EDGE_CURVE ( 'NONE', #147, #142, #91, .T. ) ;
#115 = LINE ( 'NONE', #162, #62 ) ;
#116 = EDGE_LOOP ( 'NONE', ( #237, #31, #210, #20 ) ) ;
#117 = FACE_OUTER_BOUND ( 'NONE', #37, .T. ) ;
#118 = VERTEX_POINT ( 'NONE', #8 ) ;
#119 = DIRECTION ( 'NONE',  ( 1.224646799147353454E-16, 0.000000000000000000, 1.000000000000000000 ) ) ;
#120 = VECTOR ( 'NONE', #122, 39.37007874015748143 ) ;
#121 = LENGTH_MEASURE_WITH_UNIT ( LENGTH_MEASURE( 0.02539999999999999897 ), #236 );
#122 = DIRECTION ( 'NONE',  ( 0.1736481776669313026, 0.000000000000000000, 0.9848077530122077983 ) ) ;
#123 = FACE_OUTER_BOUND ( 'NONE', #21, .T. ) ;
#124 = DIRECTION ( 'NONE',  ( -1.224646799147353454E-16, -0.000000000000000000, -1.000000000000000000 ) ) ;
#125 = UNCERTAINTY_MEASURE_WITH_UNIT (LENGTH_MEASURE( 1.000000000000000082E-05 ), #201, 'distance_accuracy_value', 'NONE');
#126 =( CONVERSION_BASED_UNIT ( 'INCH', #195 ) LENGTH_UNIT ( ) NAMED_UNIT ( #190 ) );
#127 = EDGE_LOOP ( 'NONE', ( #293, #198, #108, #272 ) ) ;
#128 = EDGE_LOOP ( 'NONE', ( #263, #185, #99, #6 ) ) ;
#129 = CARTESIAN_POINT ( 'NONE',  ( 1.689419794245307801E-16, 0.000000000000000000, 1.379515951392309425 ) ) ;
#130 = APPLICATION_PROTOCOL_DEFINITION ( 'draft international standard', 'automotive_design', 1998, #194 ) ;
#131 = ORIENTED_EDGE ( 'NONE', *, *, #226, .F. ) ;
#132 = PRODUCT_DEFINITION_FORMATION_WITH_SPECIFIED_SOURCE ( 'ANY', '', #298, .NOT_KNOWN. ) ;
#133 = DIRECTION ( 'NONE',  ( -1.224646799147353454E-16, -0.000000000000000000, -1.000000000000000000 ) ) ;
#134 = EDGE_CURVE ( 'NONE', #118, #68, #267, .T. ) ;
#135 = VECTOR ( 'NONE', #211, 39.37007874015748143 ) ;
#136 = EDGE_CURVE ( 'NONE', #189, #95, #213, .T. ) ;
#137 = LINE ( 'NONE', #278, #227 ) ;
#138 = DIRECTION ( 'NONE',  ( -0.000000000000000000, -0.000000000000000000, -1.000000000000000000 ) ) ;
#139 = EDGE_CURVE ( 'NONE', #68, #142, #111, .T. ) ;
#140 = CIRCLE ( 'NONE', #182, 0.2755905000000000715 ) ;
#141 = LINE ( 'NONE', #72, #102 ) ;
#142 = VERTEX_POINT ( 'NONE', #214 ) ;
#143 = CARTESIAN_POINT ( 'NONE',  ( 0.000000000000000000, 0.000000000000000000, 3.267717000000000649 ) ) ;
#144 = DIRECTION ( 'NONE',  ( 0.000000000000000000, 0.000000000000000000, -1.000000000000000000 ) ) ;
#145 = SURFACE_SIDE_STYLE ('',( #55 ) ) ;
#146 = DIRECTION ( 'NONE',  ( -1.000000000000000000, 0.000000000000000000, 1.224646799147353207E-16 ) ) ;
#147 = VERTEX_POINT ( 'NONE', #259 ) ;
#148 = DIRECTION ( 'NONE',  ( -1.000000000000000000, 0.000000000000000000, 1.224646799147353207E-16 ) ) ;
#149 = AXIS2_PLACEMENT_3D ( 'NONE', #273, #56, #157 ) ;
#150 = CARTESIAN_POINT ( 'NONE',  ( 1.689419794245307801E-16, 0.000000000000000000, 1.379515951392309425 ) ) ;
#151 = ORIENTED_EDGE ( 'NONE', *, *, #134, .T. ) ;
#152 = ORIENTED_EDGE ( 'NONE', *, *, #226, .T. ) ;
#153 = STYLED_ITEM ( 'NONE', ( #74 ), #76 ) ;
#154 =( NAMED_UNIT ( * ) SI_UNIT ( $, .STERADIAN. ) SOLID_ANGLE_UNIT ( ) );
#155 = FACE_OUTER_BOUND ( 'NONE', #36, .T. ) ;
#156 = DIRECTION ( 'NONE',  ( 0.000000000000000000, 0.000000000000000000, 1.000000000000000000 ) ) ;
#157 = DIRECTION ( 'NONE',  ( 1.000000000000000000, 0.000000000000000000, 0.000000000000000000 ) ) ;
#158 = CLOSED_SHELL ( 'NONE', ( #170, #65, #296, #255, #2, #98, #30, #253, #241, #248 ) ) ;
#159 = DIRECTION ( 'NONE',  ( -1.224646799147353454E-16, -0.000000000000000000, -1.000000000000000000 ) ) ;
#160 = CIRCLE ( 'NONE', #39, 0.2753149094999999824 ) ;
#161 = EDGE_CURVE ( 'NONE', #147, #52, #215, .T. ) ;
#162 = CARTESIAN_POINT ( 'NONE',  ( 0.2605905000000014460, 3.191313217132101795E-17, 3.267717000000000649 ) ) ;
#163 = VECTOR ( 'NONE', #225, 39.37007874015748143 ) ;
#164 = FILL_AREA_STYLE_COLOUR ( '', #54 ) ;
#165 = SHAPE_DEFINITION_REPRESENTATION ( #266, #203 ) ;
#166 = DIRECTION ( 'NONE',  ( 1.000000000000000000, 0.000000000000000000, 0.000000000000000000 ) ) ;
#167 = CARTESIAN_POINT ( 'NONE',  ( -0.2753149094999999824, 0.000000000000000000, 6.743270453534364513E-17 ) ) ;
#168 =( CONVERSION_BASED_UNIT ( 'INCH', #121 ) LENGTH_UNIT ( ) NAMED_UNIT ( #207 ) );
#169 = ORIENTED_EDGE ( 'NONE', *, *, #73, .T. ) ;
#170 = ADVANCED_FACE ( 'NONE', ( #155 ), #33, .T. ) ;
#171 = ORIENTED_EDGE ( 'NONE', *, *, #77, .T. ) ;
#172 = ORIENTED_EDGE ( 'NONE', *, *, #136, .F. ) ;
#173 = CIRCLE ( 'NONE', #268, 0.2755905000000000715 ) ;
#174 = CARTESIAN_POINT ( 'NONE',  ( 0.000000000000000000, 0.000000000000000000, 3.267717000000000649 ) ) ;
#175 = MECHANICAL_DESIGN_GEOMETRIC_PRESENTATION_REPRESENTATION (  '', ( #153 ), #219 ) ;
#176 = CARTESIAN_POINT ( 'NONE',  ( 1.687505730825493004E-16, 0.000000000000000000, 1.377952999999999983 ) ) ;
#177 = AXIS2_PLACEMENT_3D ( 'NONE', #217, #290, #79 ) ;
#178 = CARTESIAN_POINT ( 'NONE',  ( 0.000000000000000000, 0.000000000000000000, 3.252717000000001857 ) ) ;
#179 = FACE_OUTER_BOUND ( 'NONE', #29, .T. ) ;
#180 = LENGTH_MEASURE_WITH_UNIT ( LENGTH_MEASURE( 0.02539999999999999897 ), #7 );
#181 = EDGE_CURVE ( 'NONE', #75, #142, #252, .T. ) ;
#182 = AXIS2_PLACEMENT_3D ( 'NONE', #150, #124, #11 ) ;
#183 = DIRECTION ( 'NONE',  ( 0.000000000000000000, 0.000000000000000000, 1.000000000000000000 ) ) ;
#184 = DIRECTION ( 'NONE',  ( 0.7071067811865466846, 8.659560562354922997E-17, -0.7071067811865483499 ) ) ;
#185 = ORIENTED_EDGE ( 'NONE', *, *, #114, .T. ) ;
#186 = DIRECTION ( 'NONE',  ( -1.224646799147353454E-16, -0.000000000000000000, -1.000000000000000000 ) ) ;
#187 = DIRECTION ( 'NONE',  ( 0.000000000000000000, 0.000000000000000000, 1.000000000000000000 ) ) ;
#188 = ORIENTED_EDGE ( 'NONE', *, *, #114, .F. ) ;
#189 = VERTEX_POINT ( 'NONE', #167 ) ;
#190 = DIMENSIONAL_EXPONENTS ( 1.000000000000000000, 0.000000000000000000, 0.000000000000000000, 0.000000000000000000, 0.000000000000000000, 0.000000000000000000, 0.000000000000000000 ) ;
#191 = COLOUR_RGB ( '',0.7921568627450980005, 0.8196078431372548767, 0.9333333333333333481 ) ;
#192 = PLANE ( 'NONE',  #177 ) ;
#193 = AXIS2_PLACEMENT_3D ( 'NONE', #143, #183, #17 ) ;
#194 = APPLICATION_CONTEXT ( 'automotive_design' ) ;
#195 = LENGTH_MEASURE_WITH_UNIT ( LENGTH_MEASURE( 0.02539999999999999897 ), #291 );
#196 = PRODUCT_DEFINITION_CONTEXT ( 'detailed design', #194, 'design' ) ;
#197 = CARTESIAN_POINT ( 'NONE',  ( -0.2755905000000000715, 0.000000000000000000, 3.267717000000000649 ) ) ;
#198 = ORIENTED_EDGE ( 'NONE', *, *, #280, .T. ) ;
#199 = AXIS2_PLACEMENT_3D ( 'NONE', #244, #22, #295 ) ;
#200 = CYLINDRICAL_SURFACE ( 'NONE', #279, 0.2755905000000000715 ) ;
#201 =( CONVERSION_BASED_UNIT ( 'INCH', #180 ) LENGTH_UNIT ( ) NAMED_UNIT ( #113 ) );
#202 = AXIS2_PLACEMENT_3D ( 'NONE', #90, #97, #286 ) ;
#203 = ADVANCED_BREP_SHAPE_REPRESENTATION ( 'Micro_AEMM-140-3', ( #76, #105 ), #25 ) ;
#204 = CARTESIAN_POINT ( 'NONE',  ( 0.2753149095000002045, 0.000000000000000000, 1.377952999999999983 ) ) ;
#205 =( NAMED_UNIT ( * ) SI_UNIT ( $, .STERADIAN. ) SOLID_ANGLE_UNIT ( ) );
#206 = ORIENTED_EDGE ( 'NONE', *, *, #45, .T. ) ;
#207 = DIMENSIONAL_EXPONENTS ( 1.000000000000000000, 0.000000000000000000, 0.000000000000000000, 0.000000000000000000, 0.000000000000000000, 0.000000000000000000, 0.000000000000000000 ) ;
#208 = PLANE ( 'NONE',  #46 ) ;
#209 = CARTESIAN_POINT ( 'NONE',  ( 0.2605905000000014460, 3.283161727068144454E-17, 3.267717000000000649 ) ) ;
#210 = ORIENTED_EDGE ( 'NONE', *, *, #139, .T. ) ;
#211 = DIRECTION ( 'NONE',  ( -0.000000000000000000, -0.000000000000000000, -1.000000000000000000 ) ) ;
#212 = SURFACE_STYLE_USAGE ( .BOTH. , #145 ) ;
#213 = CIRCLE ( 'NONE', #250, 0.2753149094999999824 ) ;
#214 = CARTESIAN_POINT ( 'NONE',  ( 0.2755905000000002381, 3.375010237004188345E-17, 1.379515951392309425 ) ) ;
#215 = CIRCLE ( 'NONE', #149, 0.2755905000000000715 ) ;
#216 = LINE ( 'NONE', #262, #251 ) ;
#217 = CARTESIAN_POINT ( 'NONE',  ( 0.000000000000000000, 0.000000000000000000, 0.000000000000000000 ) ) ;
#218 = FACE_OUTER_BOUND ( 'NONE', #78, .T. ) ;
#219 =( GEOMETRIC_REPRESENTATION_CONTEXT ( 3 ) GLOBAL_UNCERTAINTY_ASSIGNED_CONTEXT ( ( #80 ) ) GLOBAL_UNIT_ASSIGNED_CONTEXT ( ( #168, #15, #270 ) ) REPRESENTATION_CONTEXT ( 'NONE', 'WORKASPACE' ) );
#220 = ORIENTED_EDGE ( 'NONE', *, *, #45, .F. ) ;
#221 = LINE ( 'NONE', #197, #163 ) ;
#222 = PRODUCT_RELATED_PRODUCT_CATEGORY ( 'part', '', ( #298 ) ) ;
#223 = APPLICATION_CONTEXT ( 'automotive_design' ) ;
#224 = FACE_OUTER_BOUND ( 'NONE', #299, .T. ) ;
#225 = DIRECTION ( 'NONE',  ( -0.000000000000000000, -0.000000000000000000, -1.000000000000000000 ) ) ;
#226 = EDGE_CURVE ( 'NONE', #95, #189, #160, .T. ) ;
#227 = VECTOR ( 'NONE', #282, 39.37007874015748143 ) ;
#228 = DIRECTION ( 'NONE',  ( -1.000000000000000000, 0.000000000000000000, 0.000000000000000000 ) ) ;
#229 = ORIENTED_EDGE ( 'NONE', *, *, #16, .T. ) ;
#230 = FILL_AREA_STYLE ('',( #281 ) ) ;
#231 = CONICAL_SURFACE ( 'NONE', #239, 0.2753149095000000379, 0.1745329251994338082 ) ;
#232 = EDGE_LOOP ( 'NONE', ( #19, #103, #287, #131 ) ) ;
#233 = APPLICATION_PROTOCOL_DEFINITION ( 'draft international standard', 'automotive_design', 1998, #223 ) ;
#234 = CARTESIAN_POINT ( 'NONE',  ( 0.2755905000000000715, 3.375010237004186497E-17, 3.267717000000000649 ) ) ;
#235 = CARTESIAN_POINT ( 'NONE',  ( 4.129062288352891690E-33, 0.000000000000000000, 3.371635226767182256E-17 ) ) ;
#236 =( LENGTH_UNIT ( ) NAMED_UNIT ( * ) SI_UNIT ( $, .METRE. ) );
#237 = ORIENTED_EDGE ( 'NONE', *, *, #280, .F. ) ;
#238 = CARTESIAN_POINT ( 'NONE',  ( 0.000000000000000000, 0.000000000000000000, 0.000000000000000000 ) ) ;
#239 = AXIS2_PLACEMENT_3D ( 'NONE', #69, #119, #166 ) ;
#240 =( GEOMETRIC_REPRESENTATION_CONTEXT ( 3 ) GLOBAL_UNCERTAINTY_ASSIGNED_CONTEXT ( ( #18 ) ) GLOBAL_UNIT_ASSIGNED_CONTEXT ( ( #126, #81, #154 ) ) REPRESENTATION_CONTEXT ( 'NONE', 'WORKASPACE' ) );
#241 = ADVANCED_FACE ( 'NONE', ( #100 ), #58, .T. ) ;
#242 = SURFACE_STYLE_USAGE ( .BOTH. , #70 ) ;
#243 = AXIS2_PLACEMENT_3D ( 'NONE', #93, #138, #228 ) ;
#244 = CARTESIAN_POINT ( 'NONE',  ( 1.687505730825493004E-16, 0.000000000000000000, 1.377952999999999983 ) ) ;
#245 = DIRECTION ( 'NONE',  ( 1.000000000000000000, 0.000000000000000000, 0.000000000000000000 ) ) ;
#246 = DIRECTION ( 'NONE',  ( -1.000000000000000000, 0.000000000000000000, 0.000000000000000000 ) ) ;
#247 = AXIS2_PLACEMENT_3D ( 'NONE', #129, #63, #41 ) ;
#248 = ADVANCED_FACE ( 'NONE', ( #224 ), #192, .F. ) ;
#249 = DIRECTION ( 'NONE',  ( -1.000000000000000000, 0.000000000000000000, 1.224646799147353207E-16 ) ) ;
#250 = AXIS2_PLACEMENT_3D ( 'NONE', #66, #159, #249 ) ;
#251 = VECTOR ( 'NONE', #288, 39.37007874015747433 ) ;
#252 = CIRCLE ( 'NONE', #247, 0.2755905000000000715 ) ;
#253 = ADVANCED_FACE ( 'NONE', ( #86 ), #32, .T. ) ;
#254 = DIRECTION ( 'NONE',  ( -0.7071067811865466846, 0.000000000000000000, -0.7071067811865483499 ) ) ;
#255 = ADVANCED_FACE ( 'NONE', ( #106 ), #200, .T. ) ;
#256 = DIRECTION ( 'NONE',  ( 1.000000000000000000, 0.000000000000000000, 0.000000000000000000 ) ) ;
#257 = AXIS2_PLACEMENT_3D ( 'NONE', #96, #34, #101 ) ;
#258 = CIRCLE ( 'NONE', #110, 0.2605905000000014460 ) ;
#259 = CARTESIAN_POINT ( 'NONE',  ( 0.2755905000000000715, 3.375010237004186497E-17, 3.252717000000001857 ) ) ;
#260 = ORIENTED_EDGE ( 'NONE', *, *, #88, .F. ) ;
#261 = DIRECTION ( 'NONE',  ( -1.000000000000000000, 0.000000000000000000, 1.224646799147353207E-16 ) ) ;
#262 = CARTESIAN_POINT ( 'NONE',  ( -0.2753149094999998159, 3.371635226767182256E-17, 1.377952999999999983 ) ) ;
#263 = ORIENTED_EDGE ( 'NONE', *, *, #109, .T. ) ;
#264 = MECHANICAL_DESIGN_GEOMETRIC_PRESENTATION_REPRESENTATION (  '', ( #44 ), #240 ) ;
#265 = DIRECTION ( 'NONE',  ( -1.224646799147353454E-16, -0.000000000000000000, -1.000000000000000000 ) ) ;
#266 = PRODUCT_DEFINITION_SHAPE ( 'NONE', 'NONE',  #297 ) ;
#267 = CIRCLE ( 'NONE', #87, 0.2753149095000000379 ) ;
#268 = AXIS2_PLACEMENT_3D ( 'NONE', #178, #144, #4 ) ;
#269 = CARTESIAN_POINT ( 'NONE',  ( 0.000000000000000000, 0.000000000000000000, 0.000000000000000000 ) ) ;
#270 =( NAMED_UNIT ( * ) SI_UNIT ( $, .STERADIAN. ) SOLID_ANGLE_UNIT ( ) );
#271 = CARTESIAN_POINT ( 'NONE',  ( 0.000000000000000000, 0.000000000000000000, 0.000000000000000000 ) ) ;
#272 = ORIENTED_EDGE ( 'NONE', *, *, #139, .F. ) ;
#273 = CARTESIAN_POINT ( 'NONE',  ( 0.000000000000000000, 0.000000000000000000, 3.252717000000001857 ) ) ;
#274 = EDGE_CURVE ( 'NONE', #68, #118, #107, .T. ) ;
#275 = ORIENTED_EDGE ( 'NONE', *, *, #109, .F. ) ;
#276 = DIRECTION ( 'NONE',  ( -1.000000000000000000, 0.000000000000000000, 0.000000000000000000 ) ) ;
#277 = EDGE_CURVE ( 'NONE', #26, #28, #61, .T. ) ;
#278 = CARTESIAN_POINT ( 'NONE',  ( -0.2753149094999999824, 0.000000000000000000, 3.371635226767182256E-17 ) ) ;
#279 = AXIS2_PLACEMENT_3D ( 'NONE', #174, #64, #246 ) ;
#280 = EDGE_CURVE ( 'NONE', #118, #75, #216, .T. ) ;
#281 = FILL_AREA_STYLE_COLOUR ( '', #191 ) ;
#282 = DIRECTION ( 'NONE',  ( -1.224646799147353454E-16, -0.000000000000000000, -1.000000000000000000 ) ) ;
#283 = FACE_OUTER_BOUND ( 'NONE', #127, .T. ) ;
#284 = SURFACE_STYLE_FILL_AREA ( #230 ) ;
#285 = CARTESIAN_POINT ( 'NONE',  ( 0.2753149095000002045, 0.000000000000000000, 1.377952999999999983 ) ) ;
#286 = DIRECTION ( 'NONE',  ( -1.000000000000000000, 0.000000000000000000, 0.000000000000000000 ) ) ;
#287 = ORIENTED_EDGE ( 'NONE', *, *, #88, .T. ) ;
#288 = DIRECTION ( 'NONE',  ( -0.1736481776669311083, 2.126576849575782084E-17, 0.9848077530122080203 ) ) ;
#289 = DIRECTION ( 'NONE',  ( -1.224646799147353454E-16, -0.000000000000000000, -1.000000000000000000 ) ) ;
#290 = DIRECTION ( 'NONE',  ( 0.000000000000000000, 0.000000000000000000, 1.000000000000000000 ) ) ;
#291 =( LENGTH_UNIT ( ) NAMED_UNIT ( * ) SI_UNIT ( $, .METRE. ) );
#292 = EDGE_CURVE ( 'NONE', #142, #75, #140, .T. ) ;
#293 = ORIENTED_EDGE ( 'NONE', *, *, #134, .F. ) ;
#294 = AXIS2_PLACEMENT_3D ( 'NONE', #238, #14, #148 ) ;
#295 = DIRECTION ( 'NONE',  ( 1.000000000000000000, 0.000000000000000000, 0.000000000000000000 ) ) ;
#296 = ADVANCED_FACE ( 'NONE', ( #218 ), #67, .T. ) ;
#297 = PRODUCT_DEFINITION ( 'UNKNOWN', '', #132, #196 ) ;
#298 = PRODUCT ( 'Micro_AEMM-140-3', 'Micro_AEMM-140-3', '', ( #42 ) ) ;
#299 = EDGE_LOOP ( 'NONE', ( #85, #152 ) ) ;
ENDSEC;
END-ISO-10303-21;
