ISO-10303-21;
HEADER;
FILE_DESCRIPTION (( 'STEP AP203' ),
    '1' );
FILE_NAME ('Micro_RMEM-015-2.STEP',
    '2021-09-22T18:37:38',
    ( '' ),
    ( '' ),
    'SwSTEP 2.0',
    'SolidWorks 2020',
    '' );
FILE_SCHEMA (( 'CONFIG_CONTROL_DESIGN' ));
ENDSEC;

DATA;
#1 = DIRECTION ( 'NONE',  ( -1.224646799147353207E-16, -0.0000000000000000000, -1.000000000000000000 ) ) ;
#2 = ADVANCED_FACE ( 'NONE', ( #191 ), #320, .T. ) ;
#3 = FACE_OUTER_BOUND ( 'NONE', #170, .T. ) ;
#4 = DIRECTION ( 'NONE',  ( 0.0000000000000000000, 0.0000000000000000000, -1.000000000000000000 ) ) ;
#5 = CLOSED_SHELL ( 'NONE', ( #137, #284, #78, #2, #237, #38, #15, #323, #277, #306 ) ) ;
#6 = AXIS2_PLACEMENT_3D ( 'NONE', #71, #100, #220 ) ;
#7 = EDGE_CURVE ( 'NONE', #12, #23, #304, .T. ) ;
#8 = COORDINATED_UNIVERSAL_TIME_OFFSET ( 5, 0, .BEHIND. ) ;
#9 = APPROVAL_STATUS ( 'not_yet_approved' ) ;
#10 = AXIS2_PLACEMENT_3D ( 'NONE', #313, #83, #159 ) ;
#11 = APPLICATION_CONTEXT ( 'configuration controlled 3d designs of mechanical parts and assemblies' ) ;
#12 = VERTEX_POINT ( 'NONE', #27 ) ;
#13 = APPROVAL_STATUS ( 'not_yet_approved' ) ;
#14 = EDGE_LOOP ( 'NONE', ( #258, #84, #247, #194 ) ) ;
#15 = ADVANCED_FACE ( 'NONE', ( #230 ), #290, .T. ) ;
#16 = APPROVAL_DATE_TIME ( #242, #232 ) ;
#17 = CALENDAR_DATE ( 2021, 22, 9 ) ;
#18 = ORIENTED_EDGE ( 'NONE', *, *, #63, .T. ) ;
#19 = DIRECTION ( 'NONE',  ( 1.000000000000000000, 0.0000000000000000000, 0.0000000000000000000 ) ) ;
#20 = ORIENTED_EDGE ( 'NONE', *, *, #32, .F. ) ;
#21 = DIRECTION ( 'NONE',  ( 1.000000000000000000, 0.0000000000000000000, 0.0000000000000000000 ) ) ;
#22 = DIRECTION ( 'NONE',  ( 0.0000000000000000000, 0.0000000000000000000, 1.000000000000000000 ) ) ;
#23 = VERTEX_POINT ( 'NONE', #126 ) ;
#24 = CARTESIAN_POINT ( 'NONE',  ( 0.02949797249999999704, 3.612459760346164844E-18, -3.612459760346164844E-18 ) ) ;
#25 = DIRECTION ( 'NONE',  ( 1.000000000000000000, 0.0000000000000000000, 0.0000000000000000000 ) ) ;
#26 = VECTOR ( 'NONE', #77, 39.37007874015748143 ) ;
#27 = CARTESIAN_POINT ( 'NONE',  ( 0.05905500000000001720, 7.232151672364695422E-18, 1.481062999999999574 ) ) ;
#28 = APPLICATION_CONTEXT ( 'configuration controlled 3d designs of mechanical parts and assemblies' ) ;
#29 = DIRECTION ( 'NONE',  ( 1.000000000000000000, 0.0000000000000000000, 0.0000000000000000000 ) ) ;
#30 = DIRECTION ( 'NONE',  ( -0.0000000000000000000, -0.0000000000000000000, -1.000000000000000000 ) ) ;
#31 = AXIS2_PLACEMENT_3D ( 'NONE', #222, #263, #140 ) ;
#32 = EDGE_CURVE ( 'NONE', #207, #81, #89, .T. ) ;
#33 = EDGE_LOOP ( 'NONE', ( #132, #218 ) ) ;
#34 = EDGE_CURVE ( 'NONE', #261, #129, #204, .T. ) ;
#35 = AXIS2_PLACEMENT_3D ( 'NONE', #270, #4, #121 ) ;
#36 = PERSON_AND_ORGANIZATION_ROLE ( 'design_owner' ) ;
#37 = DATE_TIME_ROLE ( 'classification_date' ) ;
#38 = ADVANCED_FACE ( 'NONE', ( #51 ), #250, .T. ) ;
#39 = CARTESIAN_POINT ( 'NONE',  ( 0.0000000000000000000, 0.0000000000000000000, 1.496062999999999921 ) ) ;
#40 = ORIENTED_EDGE ( 'NONE', *, *, #243, .T. ) ;
#41 = DATE_AND_TIME ( #161, #97 ) ;
#42 = PERSON_AND_ORGANIZATION_ROLE ( 'design_supplier' ) ;
#43 = ORIENTED_EDGE ( 'NONE', *, *, #52, .T. ) ;
#44 = DIRECTION ( 'NONE',  ( 0.0000000000000000000, 0.0000000000000000000, -1.000000000000000000 ) ) ;
#45 = AXIS2_PLACEMENT_3D ( 'NONE', #176, #148, #112 ) ;
#46 = CARTESIAN_POINT ( 'NONE',  ( 0.0000000000000000000, 0.0000000000000000000, 1.496062999999999921 ) ) ;
#47 = LINE ( 'NONE', #292, #130 ) ;
#48 = CARTESIAN_POINT ( 'NONE',  ( 0.02949797250000002133, 0.0000000000000000000, 0.1653539999999999732 ) ) ;
#49 = DIRECTION ( 'NONE',  ( -1.224646799147353207E-16, -0.0000000000000000000, -1.000000000000000000 ) ) ;
#50 = CIRCLE ( 'NONE', #327, 0.05905500000000001720 ) ;
#51 = FACE_OUTER_BOUND ( 'NONE', #33, .T. ) ;
#52 = EDGE_CURVE ( 'NONE', #261, #294, #118, .T. ) ;
#53 = ORGANIZATION ( 'UNSPECIFIED', 'UNSPECIFIED', '' ) ;
#54 = VECTOR ( 'NONE', #117, 39.37007874015748143 ) ;
#55 = ORIENTED_EDGE ( 'NONE', *, *, #157, .F. ) ;
#56 = FACE_OUTER_BOUND ( 'NONE', #162, .T. ) ;
#57 = APPROVAL_ROLE ( '' ) ;
#58 = APPROVAL_ROLE ( '' ) ;
#59 = EDGE_LOOP ( 'NONE', ( #134, #165, #234, #211 ) ) ;
#60 = AXIS2_PLACEMENT_3D ( 'NONE', #92, #30, #224 ) ;
#61 = ORIENTED_EDGE ( 'NONE', *, *, #310, .T. ) ;
#62 = PERSON_AND_ORGANIZATION_ROLE ( 'creator' ) ;
#63 = EDGE_CURVE ( 'NONE', #188, #68, #300, .T. ) ;
#64 = ORIENTED_EDGE ( 'NONE', *, *, #63, .F. ) ;
#65 = DIRECTION ( 'NONE',  ( -0.7071067811865482389, 0.0000000000000000000, -0.7071067811865469066 ) ) ;
#66 = SHAPE_DEFINITION_REPRESENTATION ( #185, #285 ) ;
#67 = DESIGN_CONTEXT ( 'detailed design', #28, 'design' ) ;
#68 = VERTEX_POINT ( 'NONE', #95 ) ;
#69 = LINE ( 'NONE', #91, #173 ) ;
#70 = FACE_OUTER_BOUND ( 'NONE', #267, .T. ) ;
#71 = CARTESIAN_POINT ( 'NONE',  ( 4.423987282556545093E-34, 0.0000000000000000000, 3.612459760346164844E-18 ) ) ;
#72 = CARTESIAN_POINT ( 'NONE',  ( 0.0000000000000000000, 0.0000000000000000000, 1.496062999999999921 ) ) ;
#73 = DIRECTION ( 'NONE',  ( 1.000000000000000000, 0.0000000000000000000, 0.0000000000000000000 ) ) ;
#74 = CARTESIAN_POINT ( 'NONE',  ( 0.0000000000000000000, 0.0000000000000000000, 1.481062999999999574 ) ) ;
#75 = AXIS2_PLACEMENT_3D ( 'NONE', #39, #199, #179 ) ;
#76 = CIRCLE ( 'NONE', #31, 0.02949797249999999704 ) ;
#77 = DIRECTION ( 'NONE',  ( -0.0000000000000000000, -0.0000000000000000000, -1.000000000000000000 ) ) ;
#78 = ADVANCED_FACE ( 'NONE', ( #197 ), #216, .T. ) ;
#79 = AXIS2_PLACEMENT_3D ( 'NONE', #153, #252, #144 ) ;
#80 = CC_DESIGN_PERSON_AND_ORGANIZATION_ASSIGNMENT ( #190, #244, ( #299 ) ) ;
#81 = VERTEX_POINT ( 'NONE', #166 ) ;
#82 = APPROVAL_PERSON_ORGANIZATION ( #136, #206, #213 ) ;
#83 = DIRECTION ( 'NONE',  ( 0.0000000000000000000, 0.0000000000000000000, 1.000000000000000000 ) ) ;
#84 = ORIENTED_EDGE ( 'NONE', *, *, #101, .T. ) ;
#85 = APPLICATION_PROTOCOL_DEFINITION ( 'international standard', 'config_control_design', 1994, #28 ) ;
#86 = ORIENTED_EDGE ( 'NONE', *, *, #101, .F. ) ;
#87 = CARTESIAN_POINT ( 'NONE',  ( -0.02949797249999999704, 0.0000000000000000000, 7.224919520692329689E-18 ) ) ;
#88 = DATE_AND_TIME ( #108, #240 ) ;
#89 = CIRCLE ( 'NONE', #123, 0.04405499999999974020 ) ;
#90 = CC_DESIGN_PERSON_AND_ORGANIZATION_ASSIGNMENT ( #291, #317, ( #135 ) ) ;
#91 = CARTESIAN_POINT ( 'NONE',  ( -0.02949797249999997623, 3.612459760346164844E-18, 0.1653539999999999732 ) ) ;
#92 = CARTESIAN_POINT ( 'NONE',  ( 0.0000000000000000000, 0.0000000000000000000, 1.496062999999999921 ) ) ;
#93 = CARTESIAN_POINT ( 'NONE',  ( -0.02949797249999999704, 0.0000000000000000000, 3.612459760346164844E-18 ) ) ;
#94 = CARTESIAN_POINT ( 'NONE',  ( 0.0000000000000000000, 0.0000000000000000000, 0.0000000000000000000 ) ) ;
#95 = CARTESIAN_POINT ( 'NONE',  ( -0.05905499999999996863, 0.0000000000000000000, 0.3329802327026897824 ) ) ;
#96 = DIRECTION ( 'NONE',  ( -1.224646799147353207E-16, -0.0000000000000000000, -1.000000000000000000 ) ) ;
#97 = LOCAL_TIME ( 14, 37, 38.00000000000000000, #287 ) ;
#98 = EDGE_LOOP ( 'NONE', ( #120, #168, #155, #209 ) ) ;
#99 = EDGE_CURVE ( 'NONE', #23, #68, #143, .T. ) ;
#100 = DIRECTION ( 'NONE',  ( -1.224646799147353207E-16, -0.0000000000000000000, -1.000000000000000000 ) ) ;
#101 = EDGE_CURVE ( 'NONE', #129, #68, #69, .T. ) ;
#102 = AXIS2_PLACEMENT_3D ( 'NONE', #275, #49, #328 ) ;
#103 = DIMENSIONAL_EXPONENTS ( 1.000000000000000000, 0.0000000000000000000, 0.0000000000000000000, 0.0000000000000000000, 0.0000000000000000000, 0.0000000000000000000, 0.0000000000000000000 ) ;
#104 = CYLINDRICAL_SURFACE ( 'NONE', #75, 0.05905500000000001720 ) ;
#105 = ORIENTED_EDGE ( 'NONE', *, *, #7, .F. ) ;
#106 = PERSON_AND_ORGANIZATION ( #171, #53 ) ;
#107 = DIRECTION ( 'NONE',  ( 1.000000000000000000, 0.0000000000000000000, 0.0000000000000000000 ) ) ;
#108 = CALENDAR_DATE ( 2021, 22, 9 ) ;
#109 = DATE_AND_TIME ( #208, #200 ) ;
#110 = CC_DESIGN_PERSON_AND_ORGANIZATION_ASSIGNMENT ( #236, #62, ( #255 ) ) ;
#111 = CALENDAR_DATE ( 2021, 22, 9 ) ;
#112 = DIRECTION ( 'NONE',  ( -1.000000000000000000, 0.0000000000000000000, 0.0000000000000000000 ) ) ;
#113 = AXIS2_PLACEMENT_3D ( 'NONE', #295, #175, #21 ) ;
#114 = CARTESIAN_POINT ( 'NONE',  ( -0.05905500000000001720, 0.0000000000000000000, 1.481062999999999574 ) ) ;
#115 =( CONVERSION_BASED_UNIT ( 'INCH', #226 ) LENGTH_UNIT ( ) NAMED_UNIT ( #103 ) );
#116 = ORIENTED_EDGE ( 'NONE', *, *, #157, .T. ) ;
#117 = DIRECTION ( 'NONE',  ( 0.7071067811865482389, 8.659560562354941486E-17, -0.7071067811865469066 ) ) ;
#118 = LINE ( 'NONE', #24, #253 ) ;
#119 = DIRECTION ( 'NONE',  ( 1.000000000000000000, 0.0000000000000000000, -0.0000000000000000000 ) ) ;
#120 = ORIENTED_EDGE ( 'NONE', *, *, #145, .F. ) ;
#121 = DIRECTION ( 'NONE',  ( -1.000000000000000000, 0.0000000000000000000, 0.0000000000000000000 ) ) ;
#122 = CARTESIAN_POINT ( 'NONE',  ( 4.423987282556545093E-34, 0.0000000000000000000, 3.612459760346164844E-18 ) ) ;
#123 = AXIS2_PLACEMENT_3D ( 'NONE', #72, #229, #302 ) ;
#124 = DIRECTION ( 'NONE',  ( -1.224646799147353207E-16, -0.0000000000000000000, -1.000000000000000000 ) ) ;
#125 = MANIFOLD_SOLID_BREP ( 'Cut-Revolve1', #5 ) ;
#126 = CARTESIAN_POINT ( 'NONE',  ( 0.05905500000000005884, 7.232151672364700045E-18, 0.3329802327026897824 ) ) ;
#127 = EDGE_CURVE ( 'NONE', #81, #188, #47, .T. ) ;
#128 = AXIS2_PLACEMENT_3D ( 'NONE', #180, #149, #25 ) ;
#129 = VERTEX_POINT ( 'NONE', #169 ) ;
#130 = VECTOR ( 'NONE', #65, 39.37007874015748143 ) ;
#131 = PRODUCT_RELATED_PRODUCT_CATEGORY ( 'detail', '', ( #278 ) ) ;
#132 = ORIENTED_EDGE ( 'NONE', *, *, #308, .T. ) ;
#133 = COORDINATED_UNIVERSAL_TIME_OFFSET ( 5, 0, .BEHIND. ) ;
#134 = ORIENTED_EDGE ( 'NONE', *, *, #52, .F. ) ;
#135 = PRODUCT_DEFINITION_FORMATION_WITH_SPECIFIED_SOURCE ( 'ANY', '', #278, .NOT_KNOWN. ) ;
#136 = PERSON_AND_ORGANIZATION ( #171, #53 ) ;
#137 = ADVANCED_FACE ( 'NONE', ( #241 ), #212, .T. ) ;
#138 = EDGE_LOOP ( 'NONE', ( #116, #265, #239, #64 ) ) ;
#139 = PERSON_AND_ORGANIZATION ( #171, #53 ) ;
#140 = DIRECTION ( 'NONE',  ( -1.000000000000000000, 0.0000000000000000000, 0.0000000000000000000 ) ) ;
#141 = SECURITY_CLASSIFICATION_LEVEL ( 'unclassified' ) ;
#142 = ORIENTED_EDGE ( 'NONE', *, *, #205, .F. ) ;
#143 = CIRCLE ( 'NONE', #113, 0.05905500000000001720 ) ;
#144 = DIRECTION ( 'NONE',  ( 1.000000000000000000, 0.0000000000000000000, -0.0000000000000000000 ) ) ;
#145 = EDGE_CURVE ( 'NONE', #207, #12, #269, .T. ) ;
#146 = VERTEX_POINT ( 'NONE', #87 ) ;
#147 = DIRECTION ( 'NONE',  ( -1.000000000000000000, 0.0000000000000000000, 1.224646799147353454E-16 ) ) ;
#148 = DIRECTION ( 'NONE',  ( 0.0000000000000000000, 0.0000000000000000000, -1.000000000000000000 ) ) ;
#149 = DIRECTION ( 'NONE',  ( 1.224646799147353207E-16, 0.0000000000000000000, 1.000000000000000000 ) ) ;
#150 = DIRECTION ( 'NONE',  ( -1.224646799147353207E-16, -0.0000000000000000000, -1.000000000000000000 ) ) ;
#151 = DIRECTION ( 'NONE',  ( 1.224646799147353207E-16, 0.0000000000000000000, 1.000000000000000000 ) ) ;
#152 = VECTOR ( 'NONE', #324, 39.37007874015748143 ) ;
#153 = CARTESIAN_POINT ( 'NONE',  ( 0.0000000000000000000, 0.0000000000000000000, 1.496062999999999921 ) ) ;
#154 = EDGE_CURVE ( 'NONE', #129, #261, #76, .T. ) ;
#155 = ORIENTED_EDGE ( 'NONE', *, *, #127, .T. ) ;
#156 = APPROVAL_PERSON_ORGANIZATION ( #106, #271, #58 ) ;
#157 = EDGE_CURVE ( 'NONE', #188, #12, #312, .T. ) ;
#158 = CC_DESIGN_DATE_AND_TIME_ASSIGNMENT ( #189, #37, ( #299 ) ) ;
#159 = DIRECTION ( 'NONE',  ( 1.000000000000000000, 0.0000000000000000000, 0.0000000000000000000 ) ) ;
#160 = ORIENTED_EDGE ( 'NONE', *, *, #34, .F. ) ;
#161 = CALENDAR_DATE ( 2021, 22, 9 ) ;
#162 = EDGE_LOOP ( 'NONE', ( #105, #235, #18, #318 ) ) ;
#163 = VECTOR ( 'NONE', #124, 39.37007874015748143 ) ;
#164 =( NAMED_UNIT ( * ) SI_UNIT ( $, .STERADIAN. ) SOLID_ANGLE_UNIT ( ) );
#165 = ORIENTED_EDGE ( 'NONE', *, *, #34, .T. ) ;
#166 = CARTESIAN_POINT ( 'NONE',  ( -0.04405499999999974020, 0.0000000000000000000, 1.496062999999999921 ) ) ;
#167 = PERSON_AND_ORGANIZATION ( #171, #53 ) ;
#168 = ORIENTED_EDGE ( 'NONE', *, *, #308, .F. ) ;
#169 = CARTESIAN_POINT ( 'NONE',  ( -0.02949797249999997623, 5.422305716355429748E-18, 0.1653539999999999732 ) ) ;
#170 = EDGE_LOOP ( 'NONE', ( #86, #160, #61, #315 ) ) ;
#171 = PERSON ( 'UNSPECIFIED', 'UNSPECIFIED', 'UNSPECIFIED', ('UNSPECIFIED'), ('UNSPECIFIED'), ('UNSPECIFIED') ) ;
#172 = DIRECTION ( 'NONE',  ( -1.224646799147353207E-16, -0.0000000000000000000, -1.000000000000000000 ) ) ;
#173 = VECTOR ( 'NONE', #219, 39.37007874015747433 ) ;
#174 = PLANE ( 'NONE',  #282 ) ;
#175 = DIRECTION ( 'NONE',  ( -1.224646799147353207E-16, -0.0000000000000000000, -1.000000000000000000 ) ) ;
#176 = CARTESIAN_POINT ( 'NONE',  ( 0.0000000000000000000, 0.0000000000000000000, 1.496062999999999921 ) ) ;
#177 = DIRECTION ( 'NONE',  ( 0.0000000000000000000, 0.0000000000000000000, -1.000000000000000000 ) ) ;
#178 = CARTESIAN_POINT ( 'NONE',  ( 0.04405499999999974020, 6.313666573004163292E-18, 1.496062999999999921 ) ) ;
#179 = DIRECTION ( 'NONE',  ( -1.000000000000000000, 0.0000000000000000000, 0.0000000000000000000 ) ) ;
#180 = CARTESIAN_POINT ( 'NONE',  ( 2.025002468262114287E-17, 0.0000000000000000000, 0.1653539999999999732 ) ) ;
#181 = LOCAL_TIME ( 14, 37, 38.00000000000000000, #133 ) ;
#182 = DIRECTION ( 'NONE',  ( -1.224646799147353207E-16, -0.0000000000000000000, -1.000000000000000000 ) ) ;
#183 = AXIS2_PLACEMENT_3D ( 'NONE', #195, #172, #147 ) ;
#184 = CC_DESIGN_SECURITY_CLASSIFICATION ( #299, ( #135 ) ) ;
#185 = PRODUCT_DEFINITION_SHAPE ( 'NONE', 'NONE',  #255 ) ;
#186 = CC_DESIGN_PERSON_AND_ORGANIZATION_ASSIGNMENT ( #167, #42, ( #135 ) ) ;
#187 = AXIS2_PLACEMENT_3D ( 'NONE', #46, #249, #29 ) ;
#188 = VERTEX_POINT ( 'NONE', #114 ) ;
#189 = DATE_AND_TIME ( #17, #283 ) ;
#190 = PERSON_AND_ORGANIZATION ( #171, #53 ) ;
#191 = FACE_OUTER_BOUND ( 'NONE', #138, .T. ) ;
#192 = CC_DESIGN_APPROVAL ( #232, ( #255 ) ) ;
#193 = APPROVAL_DATE_TIME ( #88, #206 ) ;
#194 = ORIENTED_EDGE ( 'NONE', *, *, #310, .F. ) ;
#195 = CARTESIAN_POINT ( 'NONE',  ( 0.0000000000000000000, 0.0000000000000000000, 0.0000000000000000000 ) ) ;
#196 = FACE_OUTER_BOUND ( 'NONE', #59, .T. ) ;
#197 = FACE_OUTER_BOUND ( 'NONE', #326, .T. ) ;
#198 = CIRCLE ( 'NONE', #256, 0.05905500000000001720 ) ;
#199 = DIRECTION ( 'NONE',  ( -0.0000000000000000000, -0.0000000000000000000, -1.000000000000000000 ) ) ;
#200 = LOCAL_TIME ( 14, 37, 38.00000000000000000, #217 ) ;
#201 = EDGE_LOOP ( 'NONE', ( #257, #43, #245, #142 ) ) ;
#202 = FACE_OUTER_BOUND ( 'NONE', #14, .T. ) ;
#203 = CARTESIAN_POINT ( 'NONE',  ( 2.025002468262114287E-17, 0.0000000000000000000, 0.1653539999999999732 ) ) ;
#204 = CIRCLE ( 'NONE', #233, 0.02949797249999999704 ) ;
#205 = EDGE_CURVE ( 'NONE', #129, #146, #321, .T. ) ;
#206 = APPROVAL ( #9, 'UNSPECIFIED' ) ;
#207 = VERTEX_POINT ( 'NONE', #178 ) ;
#208 = CALENDAR_DATE ( 2021, 22, 9 ) ;
#209 = ORIENTED_EDGE ( 'NONE', *, *, #289, .F. ) ;
#210 = APPROVAL_DATE_TIME ( #109, #271 ) ;
#211 = ORIENTED_EDGE ( 'NONE', *, *, #243, .F. ) ;
#212 = CYLINDRICAL_SURFACE ( 'NONE', #183, 0.02949797249999999704 ) ;
#213 = APPROVAL_ROLE ( '' ) ;
#214 = ORIENTED_EDGE ( 'NONE', *, *, #145, .T. ) ;
#215 = AXIS2_PLACEMENT_3D ( 'NONE', #266, #44, #19 ) ;
#216 = CONICAL_SURFACE ( 'NONE', #45, 0.04405499999999974020, 0.7853981633974491672 ) ;
#217 = COORDINATED_UNIVERSAL_TIME_OFFSET ( 5, 0, .BEHIND. ) ;
#218 = ORIENTED_EDGE ( 'NONE', *, *, #32, .T. ) ;
#219 = DIRECTION ( 'NONE',  ( -0.1736481776669311639, 2.126576849575783008E-17, 0.9848077530122080203 ) ) ;
#220 = DIRECTION ( 'NONE',  ( -1.000000000000000000, 0.0000000000000000000, 1.224646799147353454E-16 ) ) ;
#221 = ORIENTED_EDGE ( 'NONE', *, *, #281, .T. ) ;
#222 = CARTESIAN_POINT ( 'NONE',  ( 2.025002468262114287E-17, 0.0000000000000000000, 0.1653539999999999732 ) ) ;
#223 = CARTESIAN_POINT ( 'NONE',  ( -0.05905500000000001720, 0.0000000000000000000, 1.496062999999999921 ) ) ;
#224 = DIRECTION ( 'NONE',  ( -1.000000000000000000, 0.0000000000000000000, 0.0000000000000000000 ) ) ;
#225 = AXIS2_PLACEMENT_3D ( 'NONE', #272, #151, #73 ) ;
#226 = LENGTH_MEASURE_WITH_UNIT ( LENGTH_MEASURE( 0.02539999999999999897 ), #325 );
#227 = CARTESIAN_POINT ( 'NONE',  ( 4.077831761586898795E-17, 0.0000000000000000000, 0.3329802327026897824 ) ) ;
#228 = EDGE_CURVE ( 'NONE', #68, #23, #198, .T. ) ;
#229 = DIRECTION ( 'NONE',  ( 0.0000000000000000000, 0.0000000000000000000, 1.000000000000000000 ) ) ;
#230 = FACE_OUTER_BOUND ( 'NONE', #98, .T. ) ;
#231 = CONICAL_SURFACE ( 'NONE', #225, 0.02949797249999999704, 0.1745329251994338637 ) ;
#232 = APPROVAL ( #259, 'UNSPECIFIED' ) ;
#233 = AXIS2_PLACEMENT_3D ( 'NONE', #203, #182, #274 ) ;
#234 = ORIENTED_EDGE ( 'NONE', *, *, #205, .T. ) ;
#235 = ORIENTED_EDGE ( 'NONE', *, *, #289, .T. ) ;
#236 = PERSON_AND_ORGANIZATION ( #171, #53 ) ;
#237 = ADVANCED_FACE ( 'NONE', ( #56 ), #104, .T. ) ;
#238 = APPROVAL_PERSON_ORGANIZATION ( #139, #232, #57 ) ;
#239 = ORIENTED_EDGE ( 'NONE', *, *, #228, .F. ) ;
#240 = LOCAL_TIME ( 14, 37, 38.00000000000000000, #264 ) ;
#241 = FACE_OUTER_BOUND ( 'NONE', #201, .T. ) ;
#242 = DATE_AND_TIME ( #111, #181 ) ;
#243 = EDGE_CURVE ( 'NONE', #294, #146, #279, .T. ) ;
#244 = PERSON_AND_ORGANIZATION_ROLE ( 'classification_officer' ) ;
#245 = ORIENTED_EDGE ( 'NONE', *, *, #281, .F. ) ;
#246 = AXIS2_PLACEMENT_3D ( 'NONE', #122, #96, #301 ) ;
#247 = ORIENTED_EDGE ( 'NONE', *, *, #228, .T. ) ;
#248 = LINE ( 'NONE', #48, #268 ) ;
#249 = DIRECTION ( 'NONE',  ( 0.0000000000000000000, 0.0000000000000000000, 1.000000000000000000 ) ) ;
#250 = PLANE ( 'NONE',  #79 ) ;
#251 = CYLINDRICAL_SURFACE ( 'NONE', #102, 0.02949797249999999704 ) ;
#252 = DIRECTION ( 'NONE',  ( 0.0000000000000000000, 0.0000000000000000000, 1.000000000000000000 ) ) ;
#253 = VECTOR ( 'NONE', #150, 39.37007874015748143 ) ;
#254 = CC_DESIGN_APPROVAL ( #271, ( #299 ) ) ;
#255 = PRODUCT_DEFINITION ( 'UNKNOWN', '', #135, #67 ) ;
#256 = AXIS2_PLACEMENT_3D ( 'NONE', #227, #1, #107 ) ;
#257 = ORIENTED_EDGE ( 'NONE', *, *, #154, .T. ) ;
#258 = ORIENTED_EDGE ( 'NONE', *, *, #154, .F. ) ;
#259 = APPROVAL_STATUS ( 'not_yet_approved' ) ;
#260 = CIRCLE ( 'NONE', #6, 0.02949797249999999704 ) ;
#261 = VERTEX_POINT ( 'NONE', #296 ) ;
#262 = CC_DESIGN_DATE_AND_TIME_ASSIGNMENT ( #41, #288, ( #255 ) ) ;
#263 = DIRECTION ( 'NONE',  ( -1.224646799147353207E-16, -0.0000000000000000000, -1.000000000000000000 ) ) ;
#264 = COORDINATED_UNIVERSAL_TIME_OFFSET ( 5, 0, .BEHIND. ) ;
#265 = ORIENTED_EDGE ( 'NONE', *, *, #7, .T. ) ;
#266 = CARTESIAN_POINT ( 'NONE',  ( 0.0000000000000000000, 0.0000000000000000000, 1.481062999999999574 ) ) ;
#267 = EDGE_LOOP ( 'NONE', ( #221, #40 ) ) ;
#268 = VECTOR ( 'NONE', #322, 39.37007874015748143 ) ;
#269 = LINE ( 'NONE', #316, #54 ) ;
#270 = CARTESIAN_POINT ( 'NONE',  ( 0.0000000000000000000, 0.0000000000000000000, 1.496062999999999921 ) ) ;
#271 = APPROVAL ( #13, 'UNSPECIFIED' ) ;
#272 = CARTESIAN_POINT ( 'NONE',  ( 2.025002468262114287E-17, 0.0000000000000000000, 0.1653539999999999732 ) ) ;
#273 = CARTESIAN_POINT ( 'NONE',  ( 0.02949797249999999704, 3.612459760346164844E-18, 0.0000000000000000000 ) ) ;
#274 = DIRECTION ( 'NONE',  ( -1.000000000000000000, 0.0000000000000000000, 0.0000000000000000000 ) ) ;
#275 = CARTESIAN_POINT ( 'NONE',  ( 0.0000000000000000000, 0.0000000000000000000, 0.0000000000000000000 ) ) ;
#276 = CONICAL_SURFACE ( 'NONE', #128, 0.02949797249999999704, 0.1745329251994338637 ) ;
#277 = ADVANCED_FACE ( 'NONE', ( #196 ), #251, .T. ) ;
#278 = PRODUCT ( 'Micro_RMEM-015-2', 'Micro_RMEM-015-2', '', ( #286 ) ) ;
#279 = CIRCLE ( 'NONE', #246, 0.02949797249999999704 ) ;
#280 = CC_DESIGN_APPROVAL ( #206, ( #135 ) ) ;
#281 = EDGE_CURVE ( 'NONE', #146, #294, #260, .T. ) ;
#282 = AXIS2_PLACEMENT_3D ( 'NONE', #94, #22, #119 ) ;
#283 = LOCAL_TIME ( 14, 37, 38.00000000000000000, #8 ) ;
#284 = ADVANCED_FACE ( 'NONE', ( #202 ), #231, .T. ) ;
#285 = ADVANCED_BREP_SHAPE_REPRESENTATION ( 'Micro_RMEM-015-2', ( #125, #10 ), #298 ) ;
#286 = MECHANICAL_CONTEXT ( 'NONE', #11, 'mechanical' ) ;
#287 = COORDINATED_UNIVERSAL_TIME_OFFSET ( 5, 0, .BEHIND. ) ;
#288 = DATE_TIME_ROLE ( 'creation_date' ) ;
#289 = EDGE_CURVE ( 'NONE', #12, #188, #50, .T. ) ;
#290 = CONICAL_SURFACE ( 'NONE', #35, 0.04405499999999974020, 0.7853981633974491672 ) ;
#291 = PERSON_AND_ORGANIZATION ( #171, #53 ) ;
#292 = CARTESIAN_POINT ( 'NONE',  ( -0.04405499999999974020, 0.0000000000000000000, 1.496062999999999921 ) ) ;
#293 = APPLICATION_PROTOCOL_DEFINITION ( 'international standard', 'config_control_design', 1994, #11 ) ;
#294 = VERTEX_POINT ( 'NONE', #273 ) ;
#295 = CARTESIAN_POINT ( 'NONE',  ( 4.077831761586898795E-17, 0.0000000000000000000, 0.3329802327026897824 ) ) ;
#296 = CARTESIAN_POINT ( 'NONE',  ( 0.02949797250000002133, 0.0000000000000000000, 0.1653539999999999732 ) ) ;
#297 = UNCERTAINTY_MEASURE_WITH_UNIT (LENGTH_MEASURE( 1.000000000000000082E-05 ), #115, 'distance_accuracy_value', 'NONE');
#298 =( GEOMETRIC_REPRESENTATION_CONTEXT ( 3 ) GLOBAL_UNCERTAINTY_ASSIGNED_CONTEXT ( ( #297 ) ) GLOBAL_UNIT_ASSIGNED_CONTEXT ( ( #115, #305, #164 ) ) REPRESENTATION_CONTEXT ( 'NONE', 'WORKASPACE' ) );
#299 = SECURITY_CLASSIFICATION ( '', '', #141 ) ;
#300 = LINE ( 'NONE', #223, #152 ) ;
#301 = DIRECTION ( 'NONE',  ( -1.000000000000000000, 0.0000000000000000000, 1.224646799147353454E-16 ) ) ;
#302 = DIRECTION ( 'NONE',  ( 1.000000000000000000, 0.0000000000000000000, 0.0000000000000000000 ) ) ;
#303 = DIRECTION ( 'NONE',  ( 1.000000000000000000, 0.0000000000000000000, 0.0000000000000000000 ) ) ;
#304 = LINE ( 'NONE', #307, #26 ) ;
#305 =( NAMED_UNIT ( * ) PLANE_ANGLE_UNIT ( ) SI_UNIT ( $, .RADIAN. ) );
#306 = ADVANCED_FACE ( 'NONE', ( #70 ), #174, .F. ) ;
#307 = CARTESIAN_POINT ( 'NONE',  ( 0.05905500000000001720, 7.232151672364695422E-18, 1.496062999999999921 ) ) ;
#308 = EDGE_CURVE ( 'NONE', #81, #207, #309, .T. ) ;
#309 = CIRCLE ( 'NONE', #187, 0.04405499999999974020 ) ;
#310 = EDGE_CURVE ( 'NONE', #261, #23, #248, .T. ) ;
#311 = ORIENTED_EDGE ( 'NONE', *, *, #127, .F. ) ;
#312 = CIRCLE ( 'NONE', #215, 0.05905500000000001720 ) ;
#313 = CARTESIAN_POINT ( 'NONE',  ( 0.0000000000000000000, 0.0000000000000000000, 0.0000000000000000000 ) ) ;
#314 = CC_DESIGN_PERSON_AND_ORGANIZATION_ASSIGNMENT ( #319, #36, ( #278 ) ) ;
#315 = ORIENTED_EDGE ( 'NONE', *, *, #99, .T. ) ;
#316 = CARTESIAN_POINT ( 'NONE',  ( 0.04405499999999974020, 5.395181473643631161E-18, 1.496062999999999921 ) ) ;
#317 = PERSON_AND_ORGANIZATION_ROLE ( 'creator' ) ;
#318 = ORIENTED_EDGE ( 'NONE', *, *, #99, .F. ) ;
#319 = PERSON_AND_ORGANIZATION ( #171, #53 ) ;
#320 = CYLINDRICAL_SURFACE ( 'NONE', #60, 0.05905500000000001720 ) ;
#321 = LINE ( 'NONE', #93, #163 ) ;
#322 = DIRECTION ( 'NONE',  ( 0.1736481776669313581, 0.0000000000000000000, 0.9848077530122077983 ) ) ;
#323 = ADVANCED_FACE ( 'NONE', ( #3 ), #276, .T. ) ;
#324 = DIRECTION ( 'NONE',  ( -0.0000000000000000000, -0.0000000000000000000, -1.000000000000000000 ) ) ;
#325 =( LENGTH_UNIT ( ) NAMED_UNIT ( * ) SI_UNIT ( $, .METRE. ) );
#326 = EDGE_LOOP ( 'NONE', ( #20, #214, #55, #311 ) ) ;
#327 = AXIS2_PLACEMENT_3D ( 'NONE', #74, #177, #303 ) ;
#328 = DIRECTION ( 'NONE',  ( -1.000000000000000000, 0.0000000000000000000, 1.224646799147353454E-16 ) ) ;
ENDSEC;
END-ISO-10303-21;
