ISO-10303-21;
HEADER;
FILE_DESCRIPTION (( 'STEP AP214' ),
    '1' );
FILE_NAME ('Micro_BEM-625-04.STEP',
    '2021-09-03T13:17:06',
    ( '' ),
    ( '' ),
    'SwSTEP 2.0',
    'SolidWorks 2020',
    '' );
FILE_SCHEMA (( 'AUTOMOTIVE_DESIGN' ));
ENDSEC;

DATA;
#1 = APPLICATION_CONTEXT ( 'automotive_design' ) ;
#2 = AXIS2_PLACEMENT_3D ( 'NONE', #77, #283, #236 ) ;
#3 = SPHERICAL_SURFACE ( 'NONE', #212, 0.3121874999999999512 ) ;
#4 = ORIENTED_EDGE ( 'NONE', *, *, #126, .F. ) ;
#5 = CARTESIAN_POINT ( 'NONE',  ( 0.0000000000000000000, 0.0000000000000000000, 3.500000000000000000 ) ) ;
#6 = SHAPE_DEFINITION_REPRESENTATION ( #38, #94 ) ;
#7 = FACE_OUTER_BOUND ( 'NONE', #226, .T. ) ;
#8 =( GEOMETRIC_REPRESENTATION_CONTEXT ( 3 ) GLOBAL_UNCERTAINTY_ASSIGNED_CONTEXT ( ( #22 ) ) GLOBAL_UNIT_ASSIGNED_CONTEXT ( ( #169, #82, #127 ) ) REPRESENTATION_CONTEXT ( 'NONE', 'WORKASPACE' ) );
#9 = CARTESIAN_POINT ( 'NONE',  ( 0.3125000000000000000, 3.827021247335478926E-17, 3.484999999999999432 ) ) ;
#10 = SPHERICAL_SURFACE ( 'NONE', #43, 0.3121874999999999512 ) ;
#11 = EDGE_CURVE ( 'NONE', #198, #119, #73, .T. ) ;
#12 = PLANE ( 'NONE',  #303 ) ;
#13 = ADVANCED_FACE ( 'NONE', ( #229 ), #64, .T. ) ;
#14 = VECTOR ( 'NONE', #30, 39.37007874015748143 ) ;
#15 = CARTESIAN_POINT ( 'NONE',  ( 3.823194226088143379E-17, 0.0000000000000000000, 0.3121874999999999512 ) ) ;
#16 = CIRCLE ( 'NONE', #202, 0.2975000000000003197 ) ;
#17 = VECTOR ( 'NONE', #131, 39.37007874015748143 ) ;
#18 = PRODUCT_DEFINITION_FORMATION_WITH_SPECIFIED_SOURCE ( 'ANY', '', #293, .NOT_KNOWN. ) ;
#19 = FILL_AREA_STYLE ('',( #243 ) ) ;
#20 = ORIENTED_EDGE ( 'NONE', *, *, #85, .T. ) ;
#21 = CARTESIAN_POINT ( 'NONE',  ( -0.2975000000000003197, 0.0000000000000000000, 3.500000000000000000 ) ) ;
#22 = UNCERTAINTY_MEASURE_WITH_UNIT (LENGTH_MEASURE( 1.000000000000000082E-05 ), #169, 'distance_accuracy_value', 'NONE');
#23 = VERTEX_POINT ( 'NONE', #183 ) ;
#24 = ORIENTED_EDGE ( 'NONE', *, *, #191, .T. ) ;
#25 = PRODUCT_DEFINITION ( 'UNKNOWN', '', #18, #257 ) ;
#26 = CARTESIAN_POINT ( 'NONE',  ( 0.3125000000000001665, 3.827021247335480159E-17, 1.251772275568630910 ) ) ;
#27 = DIRECTION ( 'NONE',  ( 1.000000000000000000, 0.0000000000000000000, 0.0000000000000000000 ) ) ;
#28 = VECTOR ( 'NONE', #110, 39.37007874015748143 ) ;
#29 = PRODUCT_CONTEXT ( 'NONE', #1, 'mechanical' ) ;
#30 = DIRECTION ( 'NONE',  ( -0.0000000000000000000, -0.0000000000000000000, -1.000000000000000000 ) ) ;
#31 = EDGE_CURVE ( 'NONE', #42, #221, #105, .T. ) ;
#32 = CARTESIAN_POINT ( 'NONE',  ( 0.2975000000000003197, 3.643324227463378817E-17, 3.500000000000000000 ) ) ;
#33 = VERTEX_POINT ( 'NONE', #26 ) ;
#34 = EDGE_CURVE ( 'NONE', #119, #74, #296, .T. ) ;
#35 = DIRECTION ( 'NONE',  ( 1.224646799147353207E-16, 0.0000000000000000000, 1.000000000000000000 ) ) ;
#36 = EDGE_CURVE ( 'NONE', #23, #117, #16, .T. ) ;
#37 = DIRECTION ( 'NONE',  ( 1.224646799147353207E-16, 1.000000000000000000, -0.0000000000000000000 ) ) ;
#38 = PRODUCT_DEFINITION_SHAPE ( 'NONE', 'NONE',  #25 ) ;
#39 = CARTESIAN_POINT ( 'NONE',  ( 0.0000000000000000000, 0.0000000000000000000, 3.500000000000000000 ) ) ;
#40 = CARTESIAN_POINT ( 'NONE',  ( 1.530808498934191571E-16, 0.0000000000000000000, 1.250000000000000000 ) ) ;
#41 = DIRECTION ( 'NONE',  ( -1.000000000000000000, 0.0000000000000000000, 0.0000000000000000000 ) ) ;
#42 = VERTEX_POINT ( 'NONE', #9 ) ;
#43 = AXIS2_PLACEMENT_3D ( 'NONE', #15, #109, #211 ) ;
#44 = DIRECTION ( 'NONE',  ( -1.224646799147353207E-16, -0.0000000000000000000, -1.000000000000000000 ) ) ;
#45 = VERTEX_POINT ( 'NONE', #255 ) ;
#46 = CARTESIAN_POINT ( 'NONE',  ( 0.0000000000000000000, 0.0000000000000000000, 3.500000000000000000 ) ) ;
#47 = DIRECTION ( 'NONE',  ( 1.000000000000000000, 0.0000000000000000000, 0.0000000000000000000 ) ) ;
#48 = CARTESIAN_POINT ( 'NONE',  ( 1.530808498934191571E-16, 0.0000000000000000000, 1.250000000000000000 ) ) ;
#49 =( GEOMETRIC_REPRESENTATION_CONTEXT ( 3 ) GLOBAL_UNCERTAINTY_ASSIGNED_CONTEXT ( ( #288 ) ) GLOBAL_UNIT_ASSIGNED_CONTEXT ( ( #120, #194, #69 ) ) REPRESENTATION_CONTEXT ( 'NONE', 'WORKASPACE' ) );
#50 = ORIENTED_EDGE ( 'NONE', *, *, #237, .T. ) ;
#51 = CARTESIAN_POINT ( 'NONE',  ( 0.0000000000000000000, 0.0000000000000000000, 3.500000000000000000 ) ) ;
#52 = DIRECTION ( 'NONE',  ( -1.000000000000000000, 0.0000000000000000000, 0.0000000000000000000 ) ) ;
#53 = CIRCLE ( 'NONE', #290, 0.3121874999999998956 ) ;
#54 = DIRECTION ( 'NONE',  ( 1.000000000000000000, 0.0000000000000000000, 0.0000000000000000000 ) ) ;
#55 = DIRECTION ( 'NONE',  ( 0.0000000000000000000, 0.0000000000000000000, -1.000000000000000000 ) ) ;
#56 = CARTESIAN_POINT ( 'NONE',  ( 0.3121874999999998956, 3.823194226088142147E-17, -3.823194226088142147E-17 ) ) ;
#57 = APPLICATION_CONTEXT ( 'automotive_design' ) ;
#58 = SURFACE_STYLE_USAGE ( .BOTH. , #138 ) ;
#59 = CIRCLE ( 'NONE', #242, 0.3121874999999999512 ) ;
#60 = STYLED_ITEM ( 'NONE', ( #313 ), #177 ) ;
#61 = CARTESIAN_POINT ( 'NONE',  ( 0.3125000000000000000, 3.827021247335478926E-17, 3.500000000000000000 ) ) ;
#62 = DIRECTION ( 'NONE',  ( 0.0000000000000000000, 0.0000000000000000000, 1.000000000000000000 ) ) ;
#63 = EDGE_CURVE ( 'NONE', #233, #324, #59, .T. ) ;
#64 = CONICAL_SURFACE ( 'NONE', #247, 0.2975000000000003197, 0.7853981633974300713 ) ;
#65 = DIRECTION ( 'NONE',  ( 1.000000000000000000, 0.0000000000000000000, -0.0000000000000000000 ) ) ;
#66 = FACE_OUTER_BOUND ( 'NONE', #228, .T. ) ;
#67 = ORIENTED_EDGE ( 'NONE', *, *, #63, .F. ) ;
#68 = ADVANCED_FACE ( 'NONE', ( #7 ), #3, .T. ) ;
#69 =( NAMED_UNIT ( * ) SI_UNIT ( $, .STERADIAN. ) SOLID_ANGLE_UNIT ( ) );
#70 = ORIENTED_EDGE ( 'NONE', *, *, #161, .T. ) ;
#71 = VECTOR ( 'NONE', #209, 39.37007874015748143 ) ;
#72 = ORIENTED_EDGE ( 'NONE', *, *, #153, .F. ) ;
#73 = CIRCLE ( 'NONE', #222, 0.3121874999999999512 ) ;
#74 = VERTEX_POINT ( 'NONE', #204 ) ;
#75 = CYLINDRICAL_SURFACE ( 'NONE', #106, 0.3125000000000000000 ) ;
#76 = EDGE_CURVE ( 'NONE', #221, #42, #96, .T. ) ;
#77 = CARTESIAN_POINT ( 'NONE',  ( 3.823194226088143379E-17, 0.0000000000000000000, 0.3121874999999999512 ) ) ;
#78 = DIRECTION ( 'NONE',  ( -1.224646799147353207E-16, -0.0000000000000000000, -1.000000000000000000 ) ) ;
#79 = CARTESIAN_POINT ( 'NONE',  ( 0.3121874999999999512, 3.823194226088142147E-17, 0.3121874999999998956 ) ) ;
#80 = PRESENTATION_LAYER_ASSIGNMENT (  '', '', ( #60 ) ) ;
#81 = ORIENTED_EDGE ( 'NONE', *, *, #63, .T. ) ;
#82 =( NAMED_UNIT ( * ) PLANE_ANGLE_UNIT ( ) SI_UNIT ( $, .RADIAN. ) );
#83 = EDGE_LOOP ( 'NONE', ( #295, #164, #170, #101 ) ) ;
#84 = DIRECTION ( 'NONE',  ( 1.000000000000000000, 0.0000000000000000000, 0.0000000000000000000 ) ) ;
#85 = EDGE_CURVE ( 'NONE', #74, #119, #53, .T. ) ;
#86 = CYLINDRICAL_SURFACE ( 'NONE', #252, 0.3121874999999998956 ) ;
#87 = CARTESIAN_POINT ( 'NONE',  ( 3.823194226088143379E-17, 0.0000000000000000000, 0.3121874999999999512 ) ) ;
#88 = LINE ( 'NONE', #61, #28 ) ;
#89 = FACE_OUTER_BOUND ( 'NONE', #139, .T. ) ;
#90 = AXIS2_PLACEMENT_3D ( 'NONE', #214, #238, #261 ) ;
#91 = DIRECTION ( 'NONE',  ( -0.0000000000000000000, -0.0000000000000000000, -1.000000000000000000 ) ) ;
#92 = CARTESIAN_POINT ( 'NONE',  ( 0.0000000000000000000, 0.0000000000000000000, 0.0000000000000000000 ) ) ;
#93 = ORIENTED_EDGE ( 'NONE', *, *, #34, .F. ) ;
#94 = ADVANCED_BREP_SHAPE_REPRESENTATION ( 'Micro_BEM-625-04', ( #177, #317 ), #49 ) ;
#95 = ORIENTED_EDGE ( 'NONE', *, *, #161, .F. ) ;
#96 = CIRCLE ( 'NONE', #150, 0.3125000000000000000 ) ;
#97 = CYLINDRICAL_SURFACE ( 'NONE', #133, 0.3121874999999998956 ) ;
#98 = ORIENTED_EDGE ( 'NONE', *, *, #11, .F. ) ;
#99 = ADVANCED_FACE ( 'NONE', ( #232 ), #234, .T. ) ;
#100 = ORIENTED_EDGE ( 'NONE', *, *, #219, .T. ) ;
#101 = ORIENTED_EDGE ( 'NONE', *, *, #31, .F. ) ;
#102 = DIRECTION ( 'NONE',  ( 0.0000000000000000000, 1.000000000000000000, 0.0000000000000000000 ) ) ;
#103 = DIRECTION ( 'NONE',  ( -1.000000000000000000, 0.0000000000000000000, 2.187666060992403711E-16 ) ) ;
#104 = DIRECTION ( 'NONE',  ( 0.0000000000000000000, 0.0000000000000000000, -1.000000000000000000 ) ) ;
#105 = CIRCLE ( 'NONE', #155, 0.3125000000000000000 ) ;
#106 = AXIS2_PLACEMENT_3D ( 'NONE', #46, #192, #116 ) ;
#107 = LINE ( 'NONE', #56, #71 ) ;
#108 = CARTESIAN_POINT ( 'NONE',  ( 1.532978910536522064E-16, 0.0000000000000000000, 1.251772275568630910 ) ) ;
#109 = DIRECTION ( 'NONE',  ( 0.0000000000000000000, 1.000000000000000000, 0.0000000000000000000 ) ) ;
#110 = DIRECTION ( 'NONE',  ( -0.0000000000000000000, -0.0000000000000000000, -1.000000000000000000 ) ) ;
#111 = CONICAL_SURFACE ( 'NONE', #248, 0.3121874999999999512, 0.1745329251994338915 ) ;
#112 = COLOUR_RGB ( '',0.7921568627450980005, 0.8196078431372548767, 0.9333333333333333481 ) ;
#113 = CARTESIAN_POINT ( 'NONE',  ( 1.530808498934191571E-16, 0.0000000000000000000, 1.250000000000000000 ) ) ;
#114 = LINE ( 'NONE', #21, #285 ) ;
#115 = AXIS2_PLACEMENT_3D ( 'NONE', #87, #37, #158 ) ;
#116 = DIRECTION ( 'NONE',  ( -1.000000000000000000, 0.0000000000000000000, 0.0000000000000000000 ) ) ;
#117 = VERTEX_POINT ( 'NONE', #154 ) ;
#118 = DIRECTION ( 'NONE',  ( 1.224646799147353207E-16, 0.0000000000000000000, 1.000000000000000000 ) ) ;
#119 = VERTEX_POINT ( 'NONE', #79 ) ;
#120 =( CONVERSION_BASED_UNIT ( 'INCH', #265 ) LENGTH_UNIT ( ) NAMED_UNIT ( #142 ) );
#121 = ORIENTED_EDGE ( 'NONE', *, *, #314, .F. ) ;
#122 = MECHANICAL_DESIGN_GEOMETRIC_PRESENTATION_REPRESENTATION (  '', ( #260 ), #8 ) ;
#123 = CARTESIAN_POINT ( 'NONE',  ( -0.3121874999999998401, 3.823194226088143379E-17, 1.250000000000000000 ) ) ;
#124 = ORIENTED_EDGE ( 'NONE', *, *, #304, .F. ) ;
#125 = EDGE_LOOP ( 'NONE', ( #174, #274, #302, #4 ) ) ;
#126 = EDGE_CURVE ( 'NONE', #221, #45, #208, .T. ) ;
#127 =( NAMED_UNIT ( * ) SI_UNIT ( $, .STERADIAN. ) SOLID_ANGLE_UNIT ( ) );
#128 = CIRCLE ( 'NONE', #115, 0.3121874999999999512 ) ;
#129 = EDGE_LOOP ( 'NONE', ( #72, #319, #134, #20 ) ) ;
#130 = DIRECTION ( 'NONE',  ( 0.0000000000000000000, 0.0000000000000000000, 1.000000000000000000 ) ) ;
#131 = DIRECTION ( 'NONE',  ( 0.7071067811865346942, 8.659560562354773853E-17, -0.7071067811865603403 ) ) ;
#132 = EDGE_CURVE ( 'NONE', #23, #42, #307, .T. ) ;
#133 = AXIS2_PLACEMENT_3D ( 'NONE', #92, #44, #143 ) ;
#134 = ORIENTED_EDGE ( 'NONE', *, *, #304, .T. ) ;
#135 = DIRECTION ( 'NONE',  ( 1.000000000000000000, 0.0000000000000000000, 0.0000000000000000000 ) ) ;
#136 =( GEOMETRIC_REPRESENTATION_CONTEXT ( 3 ) GLOBAL_UNCERTAINTY_ASSIGNED_CONTEXT ( ( #262 ) ) GLOBAL_UNIT_ASSIGNED_CONTEXT ( ( #291, #184, #216 ) ) REPRESENTATION_CONTEXT ( 'NONE', 'WORKASPACE' ) );
#137 = FILL_AREA_STYLE_COLOUR ( '', #112 ) ;
#138 = SURFACE_SIDE_STYLE ('',( #259 ) ) ;
#139 = EDGE_LOOP ( 'NONE', ( #100, #322 ) ) ;
#140 = AXIS2_PLACEMENT_3D ( 'NONE', #108, #310, #187 ) ;
#141 = DIRECTION ( 'NONE',  ( -1.000000000000000000, 0.0000000000000000000, 0.0000000000000000000 ) ) ;
#142 = DIMENSIONAL_EXPONENTS ( 1.000000000000000000, 0.0000000000000000000, 0.0000000000000000000, 0.0000000000000000000, 0.0000000000000000000, 0.0000000000000000000, 0.0000000000000000000 ) ;
#143 = DIRECTION ( 'NONE',  ( -1.000000000000000000, 0.0000000000000000000, 1.224646799147353207E-16 ) ) ;
#144 = ORIENTED_EDGE ( 'NONE', *, *, #309, .F. ) ;
#145 = FACE_OUTER_BOUND ( 'NONE', #125, .T. ) ;
#146 = EDGE_LOOP ( 'NONE', ( #144, #121, #70, #199 ) ) ;
#147 = CARTESIAN_POINT ( 'NONE',  ( 0.0000000000000000000, 0.0000000000000000000, 0.0000000000000000000 ) ) ;
#148 = DIRECTION ( 'NONE',  ( 0.0000000000000000000, -1.000000000000000000, 0.0000000000000000000 ) ) ;
#149 = DIRECTION ( 'NONE',  ( 0.0000000000000000000, 0.0000000000000000000, -1.000000000000000000 ) ) ;
#150 = AXIS2_PLACEMENT_3D ( 'NONE', #176, #305, #251 ) ;
#151 = CARTESIAN_POINT ( 'NONE',  ( 1.530808498934191571E-16, 0.0000000000000000000, 1.250000000000000000 ) ) ;
#152 = CARTESIAN_POINT ( 'NONE',  ( 0.0000000000000000000, 0.0000000000000000000, 3.500000000000000000 ) ) ;
#153 = EDGE_CURVE ( 'NONE', #324, #119, #107, .T. ) ;
#154 = CARTESIAN_POINT ( 'NONE',  ( -0.2975000000000003197, 0.0000000000000000000, 3.500000000000000000 ) ) ;
#155 = AXIS2_PLACEMENT_3D ( 'NONE', #178, #149, #256 ) ;
#156 = DIRECTION ( 'NONE',  ( 0.1736481776669313859, 0.0000000000000000000, 0.9848077530122077983 ) ) ;
#157 = FACE_OUTER_BOUND ( 'NONE', #146, .T. ) ;
#158 = DIRECTION ( 'NONE',  ( -1.000000000000000000, 1.224646799147353454E-16, 0.0000000000000000000 ) ) ;
#159 = DIRECTION ( 'NONE',  ( -1.224646799147353207E-16, -0.0000000000000000000, -1.000000000000000000 ) ) ;
#160 = CIRCLE ( 'NONE', #196, 0.2975000000000003197 ) ;
#161 = EDGE_CURVE ( 'NONE', #324, #33, #308, .T. ) ;
#162 = FACE_OUTER_BOUND ( 'NONE', #264, .T. ) ;
#163 = CARTESIAN_POINT ( 'NONE',  ( -0.3121874999999998956, 0.0000000000000000000, 3.823194226088142147E-17 ) ) ;
#164 = ORIENTED_EDGE ( 'NONE', *, *, #219, .F. ) ;
#165 =( LENGTH_UNIT ( ) NAMED_UNIT ( * ) SI_UNIT ( $, .METRE. ) );
#166 = ORIENTED_EDGE ( 'NONE', *, *, #318, .F. ) ;
#167 = VECTOR ( 'NONE', #225, 39.37007874015747433 ) ;
#168 = DIMENSIONAL_EXPONENTS ( 1.000000000000000000, 0.0000000000000000000, 0.0000000000000000000, 0.0000000000000000000, 0.0000000000000000000, 0.0000000000000000000, 0.0000000000000000000 ) ;
#169 =( CONVERSION_BASED_UNIT ( 'INCH', #297 ) LENGTH_UNIT ( ) NAMED_UNIT ( #168 ) );
#170 = ORIENTED_EDGE ( 'NONE', *, *, #318, .T. ) ;
#171 = SURFACE_SIDE_STYLE ('',( #217 ) ) ;
#172 = ORIENTED_EDGE ( 'NONE', *, *, #31, .T. ) ;
#173 = CARTESIAN_POINT ( 'NONE',  ( 0.3121875000000001177, 0.0000000000000000000, 1.250000000000000000 ) ) ;
#174 = ORIENTED_EDGE ( 'NONE', *, *, #76, .T. ) ;
#175 = PRESENTATION_LAYER_ASSIGNMENT (  '', '', ( #260 ) ) ;
#176 = CARTESIAN_POINT ( 'NONE',  ( 0.0000000000000000000, 0.0000000000000000000, 3.484999999999999432 ) ) ;
#177 = MANIFOLD_SOLID_BREP ( 'Fillet1', #220 ) ;
#178 = CARTESIAN_POINT ( 'NONE',  ( 0.0000000000000000000, 0.0000000000000000000, 3.484999999999999432 ) ) ;
#179 = DIRECTION ( 'NONE',  ( 1.000000000000000000, 0.0000000000000000000, 0.0000000000000000000 ) ) ;
#180 = ORIENTED_EDGE ( 'NONE', *, *, #34, .T. ) ;
#181 = VECTOR ( 'NONE', #245, 39.37007874015748143 ) ;
#182 = ORIENTED_EDGE ( 'NONE', *, *, #11, .T. ) ;
#183 = CARTESIAN_POINT ( 'NONE',  ( 0.2975000000000003197, 3.735172737399428256E-17, 3.500000000000000000 ) ) ;
#184 =( NAMED_UNIT ( * ) PLANE_ANGLE_UNIT ( ) SI_UNIT ( $, .RADIAN. ) );
#185 = AXIS2_PLACEMENT_3D ( 'NONE', #5, #104, #306 ) ;
#186 = CARTESIAN_POINT ( 'NONE',  ( 0.3121875000000001177, 0.0000000000000000000, 1.250000000000000000 ) ) ;
#187 = DIRECTION ( 'NONE',  ( 1.000000000000000000, 0.0000000000000000000, 0.0000000000000000000 ) ) ;
#188 = FACE_OUTER_BOUND ( 'NONE', #325, .T. ) ;
#189 = DIRECTION ( 'NONE',  ( 0.0000000000000000000, 0.0000000000000000000, 1.000000000000000000 ) ) ;
#190 = AXIS2_PLACEMENT_3D ( 'NONE', #40, #118, #47 ) ;
#191 = EDGE_CURVE ( 'NONE', #198, #74, #128, .T. ) ;
#192 = DIRECTION ( 'NONE',  ( -0.0000000000000000000, -0.0000000000000000000, -1.000000000000000000 ) ) ;
#193 = DIMENSIONAL_EXPONENTS ( 1.000000000000000000, 0.0000000000000000000, 0.0000000000000000000, 0.0000000000000000000, 0.0000000000000000000, 0.0000000000000000000, 0.0000000000000000000 ) ;
#194 =( NAMED_UNIT ( * ) PLANE_ANGLE_UNIT ( ) SI_UNIT ( $, .RADIAN. ) );
#195 = ORIENTED_EDGE ( 'NONE', *, *, #36, .F. ) ;
#196 = AXIS2_PLACEMENT_3D ( 'NONE', #315, #62, #84 ) ;
#197 = DIRECTION ( 'NONE',  ( -0.7071067811865346942, 0.0000000000000000000, -0.7071067811865603403 ) ) ;
#198 = VERTEX_POINT ( 'NONE', #286 ) ;
#199 = ORIENTED_EDGE ( 'NONE', *, *, #206, .T. ) ;
#200 = ORIENTED_EDGE ( 'NONE', *, *, #224, .F. ) ;
#201 = PRODUCT_RELATED_PRODUCT_CATEGORY ( 'part', '', ( #293 ) ) ;
#202 = AXIS2_PLACEMENT_3D ( 'NONE', #152, #130, #54 ) ;
#203 = CIRCLE ( 'NONE', #140, 0.3125000000000000000 ) ;
#204 = CARTESIAN_POINT ( 'NONE',  ( -0.3121874999999998401, 0.0000000000000000000, 0.3121875000000000622 ) ) ;
#205 = CARTESIAN_POINT ( 'NONE',  ( 3.823194226088143379E-17, 0.0000000000000000000, 0.3121874999999999512 ) ) ;
#206 = EDGE_CURVE ( 'NONE', #33, #45, #203, .T. ) ;
#207 = DIRECTION ( 'NONE',  ( 0.0000000000000000000, 0.0000000000000000000, 1.000000000000000000 ) ) ;
#208 = LINE ( 'NONE', #254, #14 ) ;
#209 = DIRECTION ( 'NONE',  ( -1.224646799147353207E-16, -0.0000000000000000000, -1.000000000000000000 ) ) ;
#210 =( LENGTH_UNIT ( ) NAMED_UNIT ( * ) SI_UNIT ( $, .METRE. ) );
#211 = DIRECTION ( 'NONE',  ( 1.000000000000000000, 0.0000000000000000000, 0.0000000000000000000 ) ) ;
#212 = AXIS2_PLACEMENT_3D ( 'NONE', #276, #102, #27 ) ;
#213 = LENGTH_MEASURE_WITH_UNIT ( LENGTH_MEASURE( 0.02539999999999999897 ), #210 );
#214 = CARTESIAN_POINT ( 'NONE',  ( 1.532978910536522064E-16, 0.0000000000000000000, 1.251772275568630910 ) ) ;
#215 = ADVANCED_FACE ( 'NONE', ( #287 ), #10, .T. ) ;
#216 =( NAMED_UNIT ( * ) SI_UNIT ( $, .STERADIAN. ) SOLID_ANGLE_UNIT ( ) );
#217 = SURFACE_STYLE_FILL_AREA ( #19 ) ;
#218 = ORIENTED_EDGE ( 'NONE', *, *, #132, .T. ) ;
#219 = EDGE_CURVE ( 'NONE', #117, #23, #160, .T. ) ;
#220 = CLOSED_SHELL ( 'NONE', ( #215, #227, #272, #13, #279, #300, #258, #99, #235, #284, #68 ) ) ;
#221 = VERTEX_POINT ( 'NONE', #311 ) ;
#222 = AXIS2_PLACEMENT_3D ( 'NONE', #205, #148, #55 ) ;
#223 = ORIENTED_EDGE ( 'NONE', *, *, #126, .T. ) ;
#224 = EDGE_CURVE ( 'NONE', #42, #33, #88, .T. ) ;
#225 = DIRECTION ( 'NONE',  ( -0.1736481776669311916, 2.126576849575783316E-17, 0.9848077530122080203 ) ) ;
#226 = EDGE_LOOP ( 'NONE', ( #299, #182, #269 ) ) ;
#227 = ADVANCED_FACE ( 'NONE', ( #188 ), #86, .T. ) ;
#228 = EDGE_LOOP ( 'NONE', ( #200, #172, #223, #249 ) ) ;
#229 = FACE_OUTER_BOUND ( 'NONE', #267, .T. ) ;
#230 = CIRCLE ( 'NONE', #90, 0.3125000000000000000 ) ;
#231 = CARTESIAN_POINT ( 'NONE',  ( 3.823194226088143379E-17, 0.0000000000000000000, 0.3121874999999999512 ) ) ;
#232 = FACE_OUTER_BOUND ( 'NONE', #83, .T. ) ;
#233 = VERTEX_POINT ( 'NONE', #316 ) ;
#234 = CONICAL_SURFACE ( 'NONE', #185, 0.2975000000000003197, 0.7853981633974300713 ) ;
#235 = ADVANCED_FACE ( 'NONE', ( #157 ), #111, .T. ) ;
#236 = DIRECTION ( 'NONE',  ( -1.000000000000000000, 0.0000000000000000000, 2.187666060992403711E-16 ) ) ;
#237 = EDGE_CURVE ( 'NONE', #45, #33, #230, .T. ) ;
#238 = DIRECTION ( 'NONE',  ( -1.224646799147353207E-16, -0.0000000000000000000, -1.000000000000000000 ) ) ;
#239 = CONICAL_SURFACE ( 'NONE', #190, 0.3121874999999999512, 0.1745329251994338915 ) ;
#240 = DIRECTION ( 'NONE',  ( -1.000000000000000000, 0.0000000000000000000, 1.224646799147353207E-16 ) ) ;
#241 = FILL_AREA_STYLE ('',( #137 ) ) ;
#242 = AXIS2_PLACEMENT_3D ( 'NONE', #151, #78, #52 ) ;
#243 = FILL_AREA_STYLE_COLOUR ( '', #275 ) ;
#244 = ORIENTED_EDGE ( 'NONE', *, *, #76, .F. ) ;
#245 = DIRECTION ( 'NONE',  ( -1.224646799147353207E-16, -0.0000000000000000000, -1.000000000000000000 ) ) ;
#246 = CARTESIAN_POINT ( 'NONE',  ( 0.0000000000000000000, 0.0000000000000000000, 3.500000000000000000 ) ) ;
#247 = AXIS2_PLACEMENT_3D ( 'NONE', #51, #280, #250 ) ;
#248 = AXIS2_PLACEMENT_3D ( 'NONE', #113, #35, #135 ) ;
#249 = ORIENTED_EDGE ( 'NONE', *, *, #206, .F. ) ;
#250 = DIRECTION ( 'NONE',  ( -1.000000000000000000, 0.0000000000000000000, 0.0000000000000000000 ) ) ;
#251 = DIRECTION ( 'NONE',  ( 1.000000000000000000, 0.0000000000000000000, 0.0000000000000000000 ) ) ;
#252 = AXIS2_PLACEMENT_3D ( 'NONE', #289, #159, #240 ) ;
#253 = VECTOR ( 'NONE', #156, 39.37007874015748143 ) ;
#254 = CARTESIAN_POINT ( 'NONE',  ( -0.3125000000000000000, 0.0000000000000000000, 3.500000000000000000 ) ) ;
#255 = CARTESIAN_POINT ( 'NONE',  ( -0.3124999999999998890, 0.0000000000000000000, 1.251772275568630910 ) ) ;
#256 = DIRECTION ( 'NONE',  ( 1.000000000000000000, 0.0000000000000000000, 0.0000000000000000000 ) ) ;
#257 = PRODUCT_DEFINITION_CONTEXT ( 'detailed design', #57, 'design' ) ;
#258 = ADVANCED_FACE ( 'NONE', ( #89 ), #12, .T. ) ;
#259 = SURFACE_STYLE_FILL_AREA ( #241 ) ;
#260 = STYLED_ITEM ( 'NONE', ( #301 ), #94 ) ;
#261 = DIRECTION ( 'NONE',  ( 1.000000000000000000, 0.0000000000000000000, 0.0000000000000000000 ) ) ;
#262 = UNCERTAINTY_MEASURE_WITH_UNIT (LENGTH_MEASURE( 1.000000000000000082E-05 ), #291, 'distance_accuracy_value', 'NONE');
#263 = LINE ( 'NONE', #123, #167 ) ;
#264 = EDGE_LOOP ( 'NONE', ( #67, #282, #50, #95 ) ) ;
#265 = LENGTH_MEASURE_WITH_UNIT ( LENGTH_MEASURE( 0.02539999999999999897 ), #165 );
#266 = MECHANICAL_DESIGN_GEOMETRIC_PRESENTATION_REPRESENTATION (  '', ( #60 ), #136 ) ;
#267 = EDGE_LOOP ( 'NONE', ( #195, #218, #244, #166 ) ) ;
#268 = FACE_OUTER_BOUND ( 'NONE', #129, .T. ) ;
#269 = ORIENTED_EDGE ( 'NONE', *, *, #85, .F. ) ;
#270 = SURFACE_STYLE_USAGE ( .BOTH. , #171 ) ;
#271 = EDGE_LOOP ( 'NONE', ( #98, #24, #93 ) ) ;
#272 = ADVANCED_FACE ( 'NONE', ( #162 ), #239, .T. ) ;
#273 = APPLICATION_PROTOCOL_DEFINITION ( 'draft international standard', 'automotive_design', 1998, #1 ) ;
#274 = ORIENTED_EDGE ( 'NONE', *, *, #224, .T. ) ;
#275 = COLOUR_RGB ( '',0.7921568627450980005, 0.8196078431372548767, 0.9333333333333333481 ) ;
#276 = CARTESIAN_POINT ( 'NONE',  ( 3.823194226088143379E-17, 0.0000000000000000000, 0.3121874999999999512 ) ) ;
#277 = DIRECTION ( 'NONE',  ( 1.224646799147353207E-16, 0.0000000000000000000, 1.000000000000000000 ) ) ;
#278 = APPLICATION_PROTOCOL_DEFINITION ( 'draft international standard', 'automotive_design', 1998, #57 ) ;
#279 = ADVANCED_FACE ( 'NONE', ( #145 ), #292, .T. ) ;
#280 = DIRECTION ( 'NONE',  ( 0.0000000000000000000, 0.0000000000000000000, -1.000000000000000000 ) ) ;
#281 = AXIS2_PLACEMENT_3D ( 'NONE', #48, #294, #141 ) ;
#282 = ORIENTED_EDGE ( 'NONE', *, *, #309, .T. ) ;
#283 = DIRECTION ( 'NONE',  ( 1.224646799147353207E-16, 0.0000000000000000000, 1.000000000000000000 ) ) ;
#284 = ADVANCED_FACE ( 'NONE', ( #268 ), #97, .T. ) ;
#285 = VECTOR ( 'NONE', #197, 39.37007874015748143 ) ;
#286 = CARTESIAN_POINT ( 'NONE',  ( 5.734791339132215685E-17, 0.0000000000000000000, 0.0000000000000000000 ) ) ;
#287 = FACE_OUTER_BOUND ( 'NONE', #271, .T. ) ;
#288 = UNCERTAINTY_MEASURE_WITH_UNIT (LENGTH_MEASURE( 1.000000000000000082E-05 ), #120, 'distance_accuracy_value', 'NONE');
#289 = CARTESIAN_POINT ( 'NONE',  ( 0.0000000000000000000, 0.0000000000000000000, 0.0000000000000000000 ) ) ;
#290 = AXIS2_PLACEMENT_3D ( 'NONE', #231, #277, #103 ) ;
#291 =( CONVERSION_BASED_UNIT ( 'INCH', #213 ) LENGTH_UNIT ( ) NAMED_UNIT ( #193 ) );
#292 = CYLINDRICAL_SURFACE ( 'NONE', #312, 0.3125000000000000000 ) ;
#293 = PRODUCT ( 'Micro_BEM-625-04', 'Micro_BEM-625-04', '', ( #29 ) ) ;
#294 = DIRECTION ( 'NONE',  ( -1.224646799147353207E-16, -0.0000000000000000000, -1.000000000000000000 ) ) ;
#295 = ORIENTED_EDGE ( 'NONE', *, *, #132, .F. ) ;
#296 = CIRCLE ( 'NONE', #2, 0.3121874999999998956 ) ;
#297 = LENGTH_MEASURE_WITH_UNIT ( LENGTH_MEASURE( 0.02539999999999999897 ), #320 );
#298 = CIRCLE ( 'NONE', #281, 0.3121874999999999512 ) ;
#299 = ORIENTED_EDGE ( 'NONE', *, *, #191, .F. ) ;
#300 = ADVANCED_FACE ( 'NONE', ( #66 ), #75, .T. ) ;
#301 = PRESENTATION_STYLE_ASSIGNMENT (( #270 ) ) ;
#302 = ORIENTED_EDGE ( 'NONE', *, *, #237, .F. ) ;
#303 = AXIS2_PLACEMENT_3D ( 'NONE', #39, #189, #65 ) ;
#304 = EDGE_CURVE ( 'NONE', #233, #74, #323, .T. ) ;
#305 = DIRECTION ( 'NONE',  ( 0.0000000000000000000, 0.0000000000000000000, -1.000000000000000000 ) ) ;
#306 = DIRECTION ( 'NONE',  ( -1.000000000000000000, 0.0000000000000000000, 0.0000000000000000000 ) ) ;
#307 = LINE ( 'NONE', #32, #17 ) ;
#308 = LINE ( 'NONE', #186, #253 ) ;
#309 = EDGE_CURVE ( 'NONE', #233, #45, #263, .T. ) ;
#310 = DIRECTION ( 'NONE',  ( -1.224646799147353207E-16, -0.0000000000000000000, -1.000000000000000000 ) ) ;
#311 = CARTESIAN_POINT ( 'NONE',  ( -0.3125000000000000000, 0.0000000000000000000, 3.484999999999999432 ) ) ;
#312 = AXIS2_PLACEMENT_3D ( 'NONE', #246, #91, #41 ) ;
#313 = PRESENTATION_STYLE_ASSIGNMENT (( #58 ) ) ;
#314 = EDGE_CURVE ( 'NONE', #324, #233, #298, .T. ) ;
#315 = CARTESIAN_POINT ( 'NONE',  ( 0.0000000000000000000, 0.0000000000000000000, 3.500000000000000000 ) ) ;
#316 = CARTESIAN_POINT ( 'NONE',  ( -0.3121874999999998401, 3.825107736711810845E-17, 1.250000000000000000 ) ) ;
#317 = AXIS2_PLACEMENT_3D ( 'NONE', #147, #207, #179 ) ;
#318 = EDGE_CURVE ( 'NONE', #117, #221, #114, .T. ) ;
#319 = ORIENTED_EDGE ( 'NONE', *, *, #314, .T. ) ;
#320 =( LENGTH_UNIT ( ) NAMED_UNIT ( * ) SI_UNIT ( $, .METRE. ) );
#321 = ORIENTED_EDGE ( 'NONE', *, *, #153, .T. ) ;
#322 = ORIENTED_EDGE ( 'NONE', *, *, #36, .T. ) ;
#323 = LINE ( 'NONE', #163, #181 ) ;
#324 = VERTEX_POINT ( 'NONE', #173 ) ;
#325 = EDGE_LOOP ( 'NONE', ( #81, #321, #180, #124 ) ) ;
ENDSEC;
END-ISO-10303-21;
