ISO-10303-21;
HEADER;
FILE_DESCRIPTION (( 'STEP AP214' ),
    '1' );
FILE_NAME ('59259.STEP',
    '2023-06-22T22:21:48',
    ( '' ),
    ( '' ),
    'SwSTEP 2.0',
    'SolidWorks 2023',
    '' );
FILE_SCHEMA (( 'AUTOMOTIVE_DESIGN' ));
ENDSEC;

DATA;
#1 = DIRECTION ( 'NONE',  ( -1.000000000000000000, 0.000000000000000000, 0.000000000000000000 ) ) ;
#2 = CARTESIAN_POINT ( 'NONE',  ( 0.000000000000000000, 1.000000000000000000, 0.000000000000000000 ) ) ;
#3 = DIRECTION ( 'NONE',  ( 0.000000000000000000, 0.000000000000000000, 1.000000000000000000 ) ) ;
#4 = ADVANCED_FACE ( 'NONE', ( #70 ), #51, .T. ) ;
#5 = DIRECTION ( 'NONE',  ( -6.123233995736769734E-17, 1.000000000000000000, -0.000000000000000000 ) ) ;
#6 = CARTESIAN_POINT ( 'NONE',  ( -0.1875000000000003331, 3.000000000000000444, 0.000000000000000000 ) ) ;
#7 = CYLINDRICAL_SURFACE ( 'NONE', #95, 0.1875000000000000555 ) ;
#8 = FILL_AREA_STYLE ('',( #252 ) ) ;
#9 = ADVANCED_FACE ( 'NONE', ( #187 ), #281, .T. ) ;
#10 = DIRECTION ( 'NONE',  ( -1.000000000000000000, 0.000000000000000000, 0.000000000000000000 ) ) ;
#11 =( CONVERSION_BASED_UNIT ( 'INCH', #267 ) LENGTH_UNIT ( ) NAMED_UNIT ( #48 ) );
#12 = AXIS2_PLACEMENT_3D ( 'NONE', #2, #24, #101 ) ;
#13 = CIRCLE ( 'NONE', #189, 0.1875000000000000278 ) ;
#14 = ORIENTED_EDGE ( 'NONE', *, *, #140, .T. ) ;
#15 =( CONVERSION_BASED_UNIT ( 'INCH', #37 ) LENGTH_UNIT ( ) NAMED_UNIT ( #280 ) );
#16 = ORIENTED_EDGE ( 'NONE', *, *, #115, .T. ) ;
#17 = ORIENTED_EDGE ( 'NONE', *, *, #107, .F. ) ;
#18 =( CONVERSION_BASED_UNIT ( 'INCH', #63 ) LENGTH_UNIT ( ) NAMED_UNIT ( #214 ) );
#19 = CLOSED_SHELL ( 'NONE', ( #130, #39, #56, #198 ) ) ;
#20 = DIRECTION ( 'NONE',  ( -6.123233995736769734E-17, 1.000000000000000000, -0.000000000000000000 ) ) ;
#21 = CIRCLE ( 'NONE', #103, 0.1875000000000000555 ) ;
#22 = LENGTH_MEASURE_WITH_UNIT ( LENGTH_MEASURE( 0.02539999999999999897 ), #90 );
#23 = CARTESIAN_POINT ( 'NONE',  ( -1.224646799147353700E-16, 3.000000000000000444, 0.000000000000000000 ) ) ;
#24 = DIRECTION ( 'NONE',  ( 0.000000000000000000, 1.000000000000000000, 0.000000000000000000 ) ) ;
#25 = DIRECTION ( 'NONE',  ( 0.000000000000000000, 0.000000000000000000, -1.000000000000000000 ) ) ;
#26 = VERTEX_POINT ( 'NONE', #248 ) ;
#27 = SURFACE_STYLE_FILL_AREA ( #72 ) ;
#28 = VECTOR ( 'NONE', #223, 39.37007874015748143 ) ;
#29 = ORIENTED_EDGE ( 'NONE', *, *, #107, .T. ) ;
#30 = DIRECTION ( 'NONE',  ( -0.000000000000000000, -1.000000000000000000, -0.000000000000000000 ) ) ;
#31 =( LENGTH_UNIT ( ) NAMED_UNIT ( * ) SI_UNIT ( $, .METRE. ) );
#32 = FILL_AREA_STYLE_COLOUR ( '', #102 ) ;
#33 = COLOUR_RGB ( '',0.7921568627450980005, 0.8196078431372548767, 0.9333333333333333481 ) ;
#34 = FACE_OUTER_BOUND ( 'NONE', #203, .T. ) ;
#35 = EDGE_CURVE ( 'NONE', #99, #191, #301, .T. ) ;
#36 = CARTESIAN_POINT ( 'NONE',  ( 0.000000000000000000, 0.000000000000000000, 0.000000000000000000 ) ) ;
#37 = LENGTH_MEASURE_WITH_UNIT ( LENGTH_MEASURE( 0.02539999999999999897 ), #141 );
#38 = AXIS2_PLACEMENT_3D ( 'NONE', #182, #276, #66 ) ;
#39 = ADVANCED_FACE ( 'NONE', ( #246 ), #136, .F. ) ;
#40 = DIRECTION ( 'NONE',  ( 0.000000000000000000, 0.000000000000000000, -1.000000000000000000 ) ) ;
#41 = ORIENTED_EDGE ( 'NONE', *, *, #140, .F. ) ;
#42 = PRODUCT_DEFINITION_CONTEXT ( 'detailed design', #159, 'design' ) ;
#43 =( NAMED_UNIT ( * ) SI_UNIT ( $, .STERADIAN. ) SOLID_ANGLE_UNIT ( ) );
#44 =( CONVERSION_BASED_UNIT ( 'INCH', #76 ) LENGTH_UNIT ( ) NAMED_UNIT ( #183 ) );
#45 = EDGE_CURVE ( 'NONE', #200, #62, #226, .T. ) ;
#46 = VECTOR ( 'NONE', #61, 39.37007874015748143 ) ;
#47 =( GEOMETRIC_REPRESENTATION_CONTEXT ( 3 ) GLOBAL_UNCERTAINTY_ASSIGNED_CONTEXT ( ( #263 ) ) GLOBAL_UNIT_ASSIGNED_CONTEXT ( ( #11, #148, #98 ) ) REPRESENTATION_CONTEXT ( 'NONE', 'WORKASPACE' ) );
#48 = DIMENSIONAL_EXPONENTS ( 1.000000000000000000, 0.000000000000000000, 0.000000000000000000, 0.000000000000000000, 0.000000000000000000, 0.000000000000000000, 0.000000000000000000 ) ;
#49 =( NAMED_UNIT ( * ) SI_UNIT ( $, .STERADIAN. ) SOLID_ANGLE_UNIT ( ) );
#50 = DIRECTION ( 'NONE',  ( -6.123233995736769734E-17, 1.000000000000000000, -0.000000000000000000 ) ) ;
#51 = PLANE ( 'NONE',  #12 ) ;
#52 =( NAMED_UNIT ( * ) SI_UNIT ( $, .STERADIAN. ) SOLID_ANGLE_UNIT ( ) );
#53 = MANIFOLD_SOLID_BREP ( 'Revolve - Cutting Edge', #230 ) ;
#54 = MANIFOLD_SOLID_BREP ( 'Revolve - Tool Body (Straight Shanked)', #19 ) ;
#55 = EDGE_CURVE ( 'NONE', #179, #293, #118, .T. ) ;
#56 = ADVANCED_FACE ( 'NONE', ( #124 ), #257, .T. ) ;
#57 = DIRECTION ( 'NONE',  ( -0.000000000000000000, -1.000000000000000000, -0.000000000000000000 ) ) ;
#58 = CIRCLE ( 'NONE', #245, 0.1875000000000000555 ) ;
#59 = MECHANICAL_DESIGN_GEOMETRIC_PRESENTATION_REPRESENTATION (  '', ( #262 ), #221 ) ;
#60 = UNCERTAINTY_MEASURE_WITH_UNIT (LENGTH_MEASURE( 1.000000000000000082E-05 ), #166, 'distance_accuracy_value', 'NONE');
#61 = DIRECTION ( 'NONE',  ( -0.000000000000000000, -1.000000000000000000, -0.000000000000000000 ) ) ;
#62 = VERTEX_POINT ( 'NONE', #186 ) ;
#63 = LENGTH_MEASURE_WITH_UNIT ( LENGTH_MEASURE( 0.02539999999999999897 ), #290 );
#64 = PRODUCT ( '59259', '59259', '', ( #192 ) ) ;
#65 = ORIENTED_EDGE ( 'NONE', *, *, #35, .F. ) ;
#66 = DIRECTION ( 'NONE',  ( -1.000000000000000000, 0.000000000000000000, 0.000000000000000000 ) ) ;
#67 = PRODUCT_DEFINITION ( 'UNKNOWN', '', #86, #42 ) ;
#68 = SURFACE_STYLE_USAGE ( .BOTH. , #283 ) ;
#69 = LENGTH_MEASURE_WITH_UNIT ( LENGTH_MEASURE( 0.02539999999999999897 ), #216 );
#70 = FACE_OUTER_BOUND ( 'NONE', #232, .T. ) ;
#71 = STYLED_ITEM ( 'NONE', ( #235 ), #157 ) ;
#72 = FILL_AREA_STYLE ('',( #75 ) ) ;
#73 = CIRCLE ( 'NONE', #156, 0.1875000000000001943 ) ;
#74 = PRESENTATION_STYLE_ASSIGNMENT (( #68 ) ) ;
#75 = FILL_AREA_STYLE_COLOUR ( '', #33 ) ;
#76 = LENGTH_MEASURE_WITH_UNIT ( LENGTH_MEASURE( 0.02539999999999999897 ), #165 );
#77 =( NAMED_UNIT ( * ) PLANE_ANGLE_UNIT ( ) SI_UNIT ( $, .RADIAN. ) );
#78 = ORIENTED_EDGE ( 'NONE', *, *, #167, .T. ) ;
#79 = APPLICATION_PROTOCOL_DEFINITION ( 'draft international standard', 'automotive_design', 1998, #159 ) ;
#80 = DIRECTION ( 'NONE',  ( 1.000000000000000000, 6.123233995736769734E-17, 0.000000000000000000 ) ) ;
#81 = PRESENTATION_LAYER_ASSIGNMENT (  '', '', ( #71 ) ) ;
#82 = DIRECTION ( 'NONE',  ( 0.000000000000000000, 0.000000000000000000, -1.000000000000000000 ) ) ;
#83 = LINE ( 'NONE', #193, #288 ) ;
#84 = FILL_AREA_STYLE ('',( #32 ) ) ;
#85 = UNCERTAINTY_MEASURE_WITH_UNIT (LENGTH_MEASURE( 1.000000000000000082E-05 ), #44, 'distance_accuracy_value', 'NONE');
#86 = PRODUCT_DEFINITION_FORMATION_WITH_SPECIFIED_SOURCE ( 'ANY', '', #64, .NOT_KNOWN. ) ;
#87 = EDGE_LOOP ( 'NONE', ( #306, #41 ) ) ;
#88 = VECTOR ( 'NONE', #175, 39.37007874015748143 ) ;
#89 = AXIS2_PLACEMENT_3D ( 'NONE', #162, #20, #96 ) ;
#90 =( LENGTH_UNIT ( ) NAMED_UNIT ( * ) SI_UNIT ( $, .METRE. ) );
#91 = ADVANCED_BREP_SHAPE_REPRESENTATION ( '59259', ( #53, #54, #219 ), #234 ) ;
#92 = SURFACE_SIDE_STYLE ('',( #145 ) ) ;
#93 = CARTESIAN_POINT ( 'NONE',  ( 3.515061990613733900E-34, 1.000000000000000000, 0.000000000000000000 ) ) ;
#94 = STYLED_ITEM ( 'NONE', ( #74 ), #4 ) ;
#95 = AXIS2_PLACEMENT_3D ( 'NONE', #36, #242, #82 ) ;
#96 = DIRECTION ( 'NONE',  ( -1.000000000000000000, 0.000000000000000000, 0.000000000000000000 ) ) ;
#97 = ORIENTED_EDGE ( 'NONE', *, *, #55, .F. ) ;
#98 =( NAMED_UNIT ( * ) SI_UNIT ( $, .STERADIAN. ) SOLID_ANGLE_UNIT ( ) );
#99 = VERTEX_POINT ( 'NONE', #229 ) ;
#100 = CARTESIAN_POINT ( 'NONE',  ( 0.000000000000000000, 0.000000000000000000, 0.000000000000000000 ) ) ;
#101 = DIRECTION ( 'NONE',  ( 0.000000000000000000, -0.000000000000000000, 1.000000000000000000 ) ) ;
#102 = COLOUR_RGB ( '',1.000000000000000000, 0.000000000000000000, 0.000000000000000000 ) ;
#103 = AXIS2_PLACEMENT_3D ( 'NONE', #197, #5, #10 ) ;
#104 = FACE_OUTER_BOUND ( 'NONE', #295, .T. ) ;
#105 = SURFACE_STYLE_FILL_AREA ( #258 ) ;
#106 = DIRECTION ( 'NONE',  ( 0.000000000000000000, 0.000000000000000000, -1.000000000000000000 ) ) ;
#107 = EDGE_CURVE ( 'NONE', #99, #200, #194, .T. ) ;
#108 = DIRECTION ( 'NONE',  ( 6.123233995736769734E-17, -1.000000000000000000, 0.000000000000000000 ) ) ;
#109 = SURFACE_STYLE_FILL_AREA ( #202 ) ;
#110 = MECHANICAL_DESIGN_GEOMETRIC_PRESENTATION_REPRESENTATION (  '', ( #168 ), #304 ) ;
#111 = CARTESIAN_POINT ( 'NONE',  ( 2.296212748401288034E-17, 0.000000000000000000, 0.1875000000000000555 ) ) ;
#112 = DIRECTION ( 'NONE',  ( 0.000000000000000000, 0.000000000000000000, -1.000000000000000000 ) ) ;
#113 = LENGTH_MEASURE_WITH_UNIT ( LENGTH_MEASURE( 0.02539999999999999897 ), #31 );
#114 = DIRECTION ( 'NONE',  ( -1.000000000000000000, -6.123233995736769734E-17, 0.000000000000000000 ) ) ;
#115 = EDGE_CURVE ( 'NONE', #200, #99, #58, .T. ) ;
#116 = EDGE_LOOP ( 'NONE', ( #199, #14, #120, #97 ) ) ;
#117 = EDGE_CURVE ( 'NONE', #293, #179, #73, .T. ) ;
#118 = CIRCLE ( 'NONE', #237, 0.1875000000000001943 ) ;
#119 = EDGE_LOOP ( 'NONE', ( #127, #78 ) ) ;
#120 = ORIENTED_EDGE ( 'NONE', *, *, #294, .T. ) ;
#121 =( GEOMETRIC_REPRESENTATION_CONTEXT ( 3 ) GLOBAL_UNCERTAINTY_ASSIGNED_CONTEXT ( ( #247 ) ) GLOBAL_UNIT_ASSIGNED_CONTEXT ( ( #139, #77, #52 ) ) REPRESENTATION_CONTEXT ( 'NONE', 'WORKASPACE' ) );
#122 = PLANE ( 'NONE',  #154 ) ;
#123 =( CONVERSION_BASED_UNIT ( 'INCH', #22 ) LENGTH_UNIT ( ) NAMED_UNIT ( #147 ) );
#124 = FACE_OUTER_BOUND ( 'NONE', #116, .T. ) ;
#125 = CARTESIAN_POINT ( 'NONE',  ( 0.000000000000000000, 1.000000000000000000, 0.000000000000000000 ) ) ;
#126 = DIMENSIONAL_EXPONENTS ( 1.000000000000000000, 0.000000000000000000, 0.000000000000000000, 0.000000000000000000, 0.000000000000000000, 0.000000000000000000, 0.000000000000000000 ) ;
#127 = ORIENTED_EDGE ( 'NONE', *, *, #173, .T. ) ;
#128 = DIRECTION ( 'NONE',  ( -6.123233995736769734E-17, 1.000000000000000000, -0.000000000000000000 ) ) ;
#129 = ORIENTED_EDGE ( 'NONE', *, *, #115, .F. ) ;
#130 = ADVANCED_FACE ( 'NONE', ( #104 ), #303, .T. ) ;
#131 = MECHANICAL_DESIGN_GEOMETRIC_PRESENTATION_REPRESENTATION (  '', ( #296 ), #47 ) ;
#132 = PLANE ( 'NONE',  #181 ) ;
#133 = LINE ( 'NONE', #291, #28 ) ;
#134 = PRESENTATION_LAYER_ASSIGNMENT (  '', '', ( #94 ) ) ;
#135 = MECHANICAL_DESIGN_GEOMETRIC_PRESENTATION_REPRESENTATION (  '', ( #71 ), #121 ) ;
#136 = PLANE ( 'NONE',  #218 ) ;
#137 = APPLICATION_CONTEXT ( 'automotive_design' ) ;
#138 = ORIENTED_EDGE ( 'NONE', *, *, #45, .T. ) ;
#139 =( CONVERSION_BASED_UNIT ( 'INCH', #113 ) LENGTH_UNIT ( ) NAMED_UNIT ( #207 ) );
#140 = EDGE_CURVE ( 'NONE', #26, #272, #149, .T. ) ;
#141 =( LENGTH_UNIT ( ) NAMED_UNIT ( * ) SI_UNIT ( $, .METRE. ) );
#142 = PRODUCT_DEFINITION_SHAPE ( 'NONE', 'NONE',  #67 ) ;
#143 = CARTESIAN_POINT ( 'NONE',  ( 0.000000000000000000, 0.000000000000000000, -0.1875000000000000555 ) ) ;
#144 = AXIS2_PLACEMENT_3D ( 'NONE', #222, #270, #112 ) ;
#145 = SURFACE_STYLE_FILL_AREA ( #84 ) ;
#146 = CARTESIAN_POINT ( 'NONE',  ( -1.224646799147353700E-16, 3.000000000000000444, 0.000000000000000000 ) ) ;
#147 = DIMENSIONAL_EXPONENTS ( 1.000000000000000000, 0.000000000000000000, 0.000000000000000000, 0.000000000000000000, 0.000000000000000000, 0.000000000000000000, 0.000000000000000000 ) ;
#148 =( NAMED_UNIT ( * ) PLANE_ANGLE_UNIT ( ) SI_UNIT ( $, .RADIAN. ) );
#149 = CIRCLE ( 'NONE', #38, 0.1875000000000000555 ) ;
#150 = CARTESIAN_POINT ( 'NONE',  ( 0.000000000000000000, 0.000000000000000000, 0.000000000000000000 ) ) ;
#151 = DIRECTION ( 'NONE',  ( 0.000000000000000000, 0.000000000000000000, -1.000000000000000000 ) ) ;
#152 =( GEOMETRIC_REPRESENTATION_CONTEXT ( 3 ) GLOBAL_UNCERTAINTY_ASSIGNED_CONTEXT ( ( #85 ) ) GLOBAL_UNIT_ASSIGNED_CONTEXT ( ( #44, #255, #49 ) ) REPRESENTATION_CONTEXT ( 'NONE', 'WORKASPACE' ) );
#153 = DIRECTION ( 'NONE',  ( -6.123233995736769734E-17, 1.000000000000000000, -0.000000000000000000 ) ) ;
#154 = AXIS2_PLACEMENT_3D ( 'NONE', #150, #225, #151 ) ;
#155 = SURFACE_STYLE_USAGE ( .BOTH. , #298 ) ;
#156 = AXIS2_PLACEMENT_3D ( 'NONE', #212, #50, #1 ) ;
#157 = ADVANCED_FACE ( 'NONE', ( #164 ), #122, .T. ) ;
#158 = UNCERTAINTY_MEASURE_WITH_UNIT (LENGTH_MEASURE( 1.000000000000000082E-05 ), #18, 'distance_accuracy_value', 'NONE');
#159 = APPLICATION_CONTEXT ( 'automotive_design' ) ;
#160 =( LENGTH_UNIT ( ) NAMED_UNIT ( * ) SI_UNIT ( $, .METRE. ) );
#161 = ORIENTED_EDGE ( 'NONE', *, *, #173, .F. ) ;
#162 = CARTESIAN_POINT ( 'NONE',  ( -1.224646799147353700E-16, 3.000000000000000444, 0.000000000000000000 ) ) ;
#163 = EDGE_LOOP ( 'NONE', ( #213, #16, #170, #271 ) ) ;
#164 = FACE_OUTER_BOUND ( 'NONE', #119, .T. ) ;
#165 =( LENGTH_UNIT ( ) NAMED_UNIT ( * ) SI_UNIT ( $, .METRE. ) );
#166 =( CONVERSION_BASED_UNIT ( 'INCH', #69 ) LENGTH_UNIT ( ) NAMED_UNIT ( #126 ) );
#167 = EDGE_CURVE ( 'NONE', #62, #191, #13, .T. ) ;
#168 = STYLED_ITEM ( 'NONE', ( #277 ), #54 ) ;
#169 = SURFACE_SIDE_STYLE ('',( #27 ) ) ;
#170 = ORIENTED_EDGE ( 'NONE', *, *, #35, .T. ) ;
#171 = CIRCLE ( 'NONE', #174, 0.1875000000000000278 ) ;
#172 = CARTESIAN_POINT ( 'NONE',  ( -0.1875000000000000555, 1.000000000000000000, 0.000000000000000000 ) ) ;
#173 = EDGE_CURVE ( 'NONE', #191, #62, #171, .T. ) ;
#174 = AXIS2_PLACEMENT_3D ( 'NONE', #196, #57, #106 ) ;
#175 = DIRECTION ( 'NONE',  ( -0.000000000000000000, -1.000000000000000000, -0.000000000000000000 ) ) ;
#176 = EDGE_CURVE ( 'NONE', #26, #179, #83, .T. ) ;
#177 = COLOUR_RGB ( '',1.000000000000000000, 0.000000000000000000, 0.000000000000000000 ) ;
#178 = SURFACE_STYLE_USAGE ( .BOTH. , #92 ) ;
#179 = VERTEX_POINT ( 'NONE', #285 ) ;
#180 = DIRECTION ( 'NONE',  ( -6.123233995736769734E-17, 1.000000000000000000, 0.000000000000000000 ) ) ;
#181 = AXIS2_PLACEMENT_3D ( 'NONE', #195, #108, #80 ) ;
#182 = CARTESIAN_POINT ( 'NONE',  ( 3.032960542342103792E-32, 1.000000000000000000, 0.000000000000000000 ) ) ;
#183 = DIMENSIONAL_EXPONENTS ( 1.000000000000000000, 0.000000000000000000, 0.000000000000000000, 0.000000000000000000, 0.000000000000000000, 0.000000000000000000, 0.000000000000000000 ) ;
#184 = FILL_AREA_STYLE_COLOUR ( '', #233 ) ;
#185 = DIRECTION ( 'NONE',  ( 1.000000000000000000, 0.000000000000000000, 0.000000000000000000 ) ) ;
#186 = CARTESIAN_POINT ( 'NONE',  ( 2.296212748401287726E-17, 0.000000000000000000, 0.1875000000000000278 ) ) ;
#187 = FACE_OUTER_BOUND ( 'NONE', #163, .T. ) ;
#188 = STYLED_ITEM ( 'NONE', ( #227 ), #9 ) ;
#189 = AXIS2_PLACEMENT_3D ( 'NONE', #236, #30, #40 ) ;
#190 =( NAMED_UNIT ( * ) PLANE_ANGLE_UNIT ( ) SI_UNIT ( $, .RADIAN. ) );
#191 = VERTEX_POINT ( 'NONE', #239 ) ;
#192 = PRODUCT_CONTEXT ( 'NONE', #137, 'mechanical' ) ;
#193 = CARTESIAN_POINT ( 'NONE',  ( 0.1874999999999999722, 3.000000000000000444, 2.296212748401288650E-17 ) ) ;
#194 = CIRCLE ( 'NONE', #266, 0.1875000000000000555 ) ;
#195 = CARTESIAN_POINT ( 'NONE',  ( 0.1875000000000000555, 3.000000000000000444, 0.000000000000000000 ) ) ;
#196 = CARTESIAN_POINT ( 'NONE',  ( 0.000000000000000000, 0.000000000000000000, 0.000000000000000000 ) ) ;
#197 = CARTESIAN_POINT ( 'NONE',  ( 3.032960542342103792E-32, 1.000000000000000000, 0.000000000000000000 ) ) ;
#198 = ADVANCED_FACE ( 'NONE', ( #34 ), #132, .F. ) ;
#199 = ORIENTED_EDGE ( 'NONE', *, *, #176, .F. ) ;
#200 = VERTEX_POINT ( 'NONE', #217 ) ;
#201 = MECHANICAL_DESIGN_GEOMETRIC_PRESENTATION_REPRESENTATION (  '', ( #94 ), #152 ) ;
#202 = FILL_AREA_STYLE ('',( #259 ) ) ;
#203 = EDGE_LOOP ( 'NONE', ( #305, #224 ) ) ;
#204 =( NAMED_UNIT ( * ) PLANE_ANGLE_UNIT ( ) SI_UNIT ( $, .RADIAN. ) );
#205 =( NAMED_UNIT ( * ) PLANE_ANGLE_UNIT ( ) SI_UNIT ( $, .RADIAN. ) );
#206 = DIRECTION ( 'NONE',  ( 0.000000000000000000, 0.000000000000000000, -1.000000000000000000 ) ) ;
#207 = DIMENSIONAL_EXPONENTS ( 1.000000000000000000, 0.000000000000000000, 0.000000000000000000, 0.000000000000000000, 0.000000000000000000, 0.000000000000000000, 0.000000000000000000 ) ;
#208 = DIRECTION ( 'NONE',  ( -1.000000000000000000, 0.000000000000000000, 0.000000000000000000 ) ) ;
#209 = SHAPE_DEFINITION_REPRESENTATION ( #142, #91 ) ;
#210 = DIRECTION ( 'NONE',  ( -6.123233995736769734E-17, 1.000000000000000000, -0.000000000000000000 ) ) ;
#211 =( NAMED_UNIT ( * ) PLANE_ANGLE_UNIT ( ) SI_UNIT ( $, .RADIAN. ) );
#212 = CARTESIAN_POINT ( 'NONE',  ( -1.224646799147353700E-16, 3.000000000000000444, 0.000000000000000000 ) ) ;
#213 = ORIENTED_EDGE ( 'NONE', *, *, #45, .F. ) ;
#214 = DIMENSIONAL_EXPONENTS ( 1.000000000000000000, 0.000000000000000000, 0.000000000000000000, 0.000000000000000000, 0.000000000000000000, 0.000000000000000000, 0.000000000000000000 ) ;
#215 = PRESENTATION_LAYER_ASSIGNMENT (  '', '', ( #262 ) ) ;
#216 =( LENGTH_UNIT ( ) NAMED_UNIT ( * ) SI_UNIT ( $, .METRE. ) );
#217 = CARTESIAN_POINT ( 'NONE',  ( 2.296212748401288034E-17, 1.000000000000000000, 0.1875000000000000555 ) ) ;
#218 = AXIS2_PLACEMENT_3D ( 'NONE', #93, #180, #114 ) ;
#219 = AXIS2_PLACEMENT_3D ( 'NONE', #100, #3, #185 ) ;
#220 = SURFACE_STYLE_USAGE ( .BOTH. , #260 ) ;
#221 =( GEOMETRIC_REPRESENTATION_CONTEXT ( 3 ) GLOBAL_UNCERTAINTY_ASSIGNED_CONTEXT ( ( #269 ) ) GLOBAL_UNIT_ASSIGNED_CONTEXT ( ( #123, #211, #240 ) ) REPRESENTATION_CONTEXT ( 'NONE', 'WORKASPACE' ) );
#222 = CARTESIAN_POINT ( 'NONE',  ( 0.000000000000000000, 0.000000000000000000, 0.000000000000000000 ) ) ;
#223 = DIRECTION ( 'NONE',  ( -6.123233995736769734E-17, 1.000000000000000000, -0.000000000000000000 ) ) ;
#224 = ORIENTED_EDGE ( 'NONE', *, *, #55, .T. ) ;
#225 = DIRECTION ( 'NONE',  ( 0.000000000000000000, -1.000000000000000000, -0.000000000000000000 ) ) ;
#226 = LINE ( 'NONE', #111, #88 ) ;
#227 = PRESENTATION_STYLE_ASSIGNMENT (( #178 ) ) ;
#228 = DIRECTION ( 'NONE',  ( -1.000000000000000000, 0.000000000000000000, 0.000000000000000000 ) ) ;
#229 = CARTESIAN_POINT ( 'NONE',  ( 0.000000000000000000, 1.000000000000000000, -0.1875000000000000555 ) ) ;
#230 = CLOSED_SHELL ( 'NONE', ( #286, #4, #9, #157 ) ) ;
#231 = CARTESIAN_POINT ( 'NONE',  ( 0.000000000000000000, 1.000000000000000000, 0.000000000000000000 ) ) ;
#232 = EDGE_LOOP ( 'NONE', ( #17, #129 ) ) ;
#233 = COLOUR_RGB ( '',1.000000000000000000, 0.000000000000000000, 0.000000000000000000 ) ;
#234 =( GEOMETRIC_REPRESENTATION_CONTEXT ( 3 ) GLOBAL_UNCERTAINTY_ASSIGNED_CONTEXT ( ( #158 ) ) GLOBAL_UNIT_ASSIGNED_CONTEXT ( ( #18, #204, #261 ) ) REPRESENTATION_CONTEXT ( 'NONE', 'WORKASPACE' ) );
#235 = PRESENTATION_STYLE_ASSIGNMENT (( #220 ) ) ;
#236 = CARTESIAN_POINT ( 'NONE',  ( 0.000000000000000000, 0.000000000000000000, 0.000000000000000000 ) ) ;
#237 = AXIS2_PLACEMENT_3D ( 'NONE', #23, #128, #208 ) ;
#238 = COLOUR_RGB ( '',1.000000000000000000, 0.000000000000000000, 0.000000000000000000 ) ;
#239 = CARTESIAN_POINT ( 'NONE',  ( 0.000000000000000000, 0.000000000000000000, -0.1875000000000000278 ) ) ;
#240 =( NAMED_UNIT ( * ) SI_UNIT ( $, .STERADIAN. ) SOLID_ANGLE_UNIT ( ) );
#241 = PRESENTATION_STYLE_ASSIGNMENT (( #300 ) ) ;
#242 = DIRECTION ( 'NONE',  ( -0.000000000000000000, -1.000000000000000000, -0.000000000000000000 ) ) ;
#243 = PRESENTATION_STYLE_ASSIGNMENT (( #155 ) ) ;
#244 = PRESENTATION_LAYER_ASSIGNMENT (  '', '', ( #188 ) ) ;
#245 = AXIS2_PLACEMENT_3D ( 'NONE', #125, #282, #206 ) ;
#246 = FACE_OUTER_BOUND ( 'NONE', #87, .T. ) ;
#247 = UNCERTAINTY_MEASURE_WITH_UNIT (LENGTH_MEASURE( 1.000000000000000082E-05 ), #139, 'distance_accuracy_value', 'NONE');
#248 = CARTESIAN_POINT ( 'NONE',  ( 0.1875000000000000555, 1.000000000000000000, 2.296212748401289266E-17 ) ) ;
#249 = UNCERTAINTY_MEASURE_WITH_UNIT (LENGTH_MEASURE( 1.000000000000000082E-05 ), #15, 'distance_accuracy_value', 'NONE');
#250 = PRESENTATION_LAYER_ASSIGNMENT (  '', '', ( #168 ) ) ;
#251 = ORIENTED_EDGE ( 'NONE', *, *, #294, .F. ) ;
#252 = FILL_AREA_STYLE_COLOUR ( '', #238 ) ;
#253 =( NAMED_UNIT ( * ) SI_UNIT ( $, .STERADIAN. ) SOLID_ANGLE_UNIT ( ) );
#254 = COLOUR_RGB ( '',0.7921568627450980005, 0.8196078431372548767, 0.9333333333333333481 ) ;
#255 =( NAMED_UNIT ( * ) PLANE_ANGLE_UNIT ( ) SI_UNIT ( $, .RADIAN. ) );
#256 = SURFACE_STYLE_USAGE ( .BOTH. , #169 ) ;
#257 = CYLINDRICAL_SURFACE ( 'NONE', #275, 0.1875000000000001110 ) ;
#258 = FILL_AREA_STYLE ('',( #184 ) ) ;
#259 = FILL_AREA_STYLE_COLOUR ( '', #177 ) ;
#260 = SURFACE_SIDE_STYLE ('',( #265 ) ) ;
#261 =( NAMED_UNIT ( * ) SI_UNIT ( $, .STERADIAN. ) SOLID_ANGLE_UNIT ( ) );
#262 = STYLED_ITEM ( 'NONE', ( #241 ), #286 ) ;
#263 = UNCERTAINTY_MEASURE_WITH_UNIT (LENGTH_MEASURE( 1.000000000000000082E-05 ), #11, 'distance_accuracy_value', 'NONE');
#264 = ORIENTED_EDGE ( 'NONE', *, *, #268, .T. ) ;
#265 = SURFACE_STYLE_FILL_AREA ( #8 ) ;
#266 = AXIS2_PLACEMENT_3D ( 'NONE', #231, #278, #25 ) ;
#267 = LENGTH_MEASURE_WITH_UNIT ( LENGTH_MEASURE( 0.02539999999999999897 ), #160 );
#268 = EDGE_CURVE ( 'NONE', #272, #26, #21, .T. ) ;
#269 = UNCERTAINTY_MEASURE_WITH_UNIT (LENGTH_MEASURE( 1.000000000000000082E-05 ), #123, 'distance_accuracy_value', 'NONE');
#270 = DIRECTION ( 'NONE',  ( -0.000000000000000000, -1.000000000000000000, -0.000000000000000000 ) ) ;
#271 = ORIENTED_EDGE ( 'NONE', *, *, #167, .F. ) ;
#272 = VERTEX_POINT ( 'NONE', #172 ) ;
#273 =( GEOMETRIC_REPRESENTATION_CONTEXT ( 3 ) GLOBAL_UNCERTAINTY_ASSIGNED_CONTEXT ( ( #249 ) ) GLOBAL_UNIT_ASSIGNED_CONTEXT ( ( #15, #205, #43 ) ) REPRESENTATION_CONTEXT ( 'NONE', 'WORKASPACE' ) );
#274 = FILL_AREA_STYLE_COLOUR ( '', #254 ) ;
#275 = AXIS2_PLACEMENT_3D ( 'NONE', #146, #210, #228 ) ;
#276 = DIRECTION ( 'NONE',  ( -6.123233995736769734E-17, 1.000000000000000000, -0.000000000000000000 ) ) ;
#277 = PRESENTATION_STYLE_ASSIGNMENT (( #256 ) ) ;
#278 = DIRECTION ( 'NONE',  ( -0.000000000000000000, -1.000000000000000000, -0.000000000000000000 ) ) ;
#279 = SURFACE_SIDE_STYLE ('',( #109 ) ) ;
#280 = DIMENSIONAL_EXPONENTS ( 1.000000000000000000, 0.000000000000000000, 0.000000000000000000, 0.000000000000000000, 0.000000000000000000, 0.000000000000000000, 0.000000000000000000 ) ;
#281 = CYLINDRICAL_SURFACE ( 'NONE', #144, 0.1875000000000000555 ) ;
#282 = DIRECTION ( 'NONE',  ( -0.000000000000000000, -1.000000000000000000, -0.000000000000000000 ) ) ;
#283 = SURFACE_SIDE_STYLE ('',( #105 ) ) ;
#284 = ORIENTED_EDGE ( 'NONE', *, *, #176, .T. ) ;
#285 = CARTESIAN_POINT ( 'NONE',  ( 0.1875000000000000555, 3.000000000000000444, 2.296212748401289266E-17 ) ) ;
#286 = ADVANCED_FACE ( 'NONE', ( #289 ), #7, .T. ) ;
#287 = PRODUCT_RELATED_PRODUCT_CATEGORY ( 'part', '', ( #64 ) ) ;
#288 = VECTOR ( 'NONE', #153, 39.37007874015748143 ) ;
#289 = FACE_OUTER_BOUND ( 'NONE', #299, .T. ) ;
#290 =( LENGTH_UNIT ( ) NAMED_UNIT ( * ) SI_UNIT ( $, .METRE. ) );
#291 = CARTESIAN_POINT ( 'NONE',  ( -0.1875000000000002498, 3.000000000000000444, 0.000000000000000000 ) ) ;
#292 = SURFACE_STYLE_FILL_AREA ( #297 ) ;
#293 = VERTEX_POINT ( 'NONE', #6 ) ;
#294 = EDGE_CURVE ( 'NONE', #272, #293, #133, .T. ) ;
#295 = EDGE_LOOP ( 'NONE', ( #264, #284, #309, #251 ) ) ;
#296 = STYLED_ITEM ( 'NONE', ( #243 ), #53 ) ;
#297 = FILL_AREA_STYLE ('',( #274 ) ) ;
#298 = SURFACE_SIDE_STYLE ('',( #292 ) ) ;
#299 = EDGE_LOOP ( 'NONE', ( #29, #138, #161, #65 ) ) ;
#300 = SURFACE_STYLE_USAGE ( .BOTH. , #279 ) ;
#301 = LINE ( 'NONE', #143, #46 ) ;
#302 = MECHANICAL_DESIGN_GEOMETRIC_PRESENTATION_REPRESENTATION (  '', ( #188 ), #273 ) ;
#303 = CYLINDRICAL_SURFACE ( 'NONE', #89, 0.1875000000000001110 ) ;
#304 =( GEOMETRIC_REPRESENTATION_CONTEXT ( 3 ) GLOBAL_UNCERTAINTY_ASSIGNED_CONTEXT ( ( #60 ) ) GLOBAL_UNIT_ASSIGNED_CONTEXT ( ( #166, #190, #253 ) ) REPRESENTATION_CONTEXT ( 'NONE', 'WORKASPACE' ) );
#305 = ORIENTED_EDGE ( 'NONE', *, *, #117, .T. ) ;
#306 = ORIENTED_EDGE ( 'NONE', *, *, #268, .F. ) ;
#307 = APPLICATION_PROTOCOL_DEFINITION ( 'draft international standard', 'automotive_design', 1998, #137 ) ;
#308 = PRESENTATION_LAYER_ASSIGNMENT (  '', '', ( #296 ) ) ;
#309 = ORIENTED_EDGE ( 'NONE', *, *, #117, .F. ) ;
ENDSEC;
END-ISO-10303-21;
