ISO-10303-21;
HEADER;
FILE_DESCRIPTION (( 'STEP AP214' ),
    '1' );
FILE_NAME ('83366.STEP',
    '2023-06-30T23:07:01',
    ( '' ),
    ( '' ),
    'SwSTEP 2.0',
    'SolidWorks 2023',
    '' );
FILE_SCHEMA (( 'AUTOMOTIVE_DESIGN' ));
ENDSEC;

DATA;
#1 = CLOSED_SHELL ( 'NONE', ( #92, #131, #231, #354 ) ) ;
#2 = CIRCLE ( 'NONE', #353, 0.1562499999999999445 ) ;
#3 = SURFACE_STYLE_USAGE ( .BOTH. , #322 ) ;
#4 =( CONVERSION_BASED_UNIT ( 'INCH', #264 ) LENGTH_UNIT ( ) NAMED_UNIT ( #323 ) );
#5 = DIRECTION ( 'NONE',  ( -0.000000000000000000, -1.000000000000000000, -0.000000000000000000 ) ) ;
#6 = SURFACE_SIDE_STYLE ('',( #128 ) ) ;
#7 = CIRCLE ( 'NONE', #87, 0.1562499999999999445 ) ;
#8 = PRESENTATION_LAYER_ASSIGNMENT (  '', '', ( #62 ) ) ;
#9 = CARTESIAN_POINT ( 'NONE',  ( 0.000000000000000000, 1.000000000000000000, 0.000000000000000000 ) ) ;
#10 = PLANE ( 'NONE',  #312 ) ;
#11 = SURFACE_STYLE_USAGE ( .BOTH. , #6 ) ;
#12 = DIRECTION ( 'NONE',  ( -0.000000000000000000, -1.000000000000000000, -0.000000000000000000 ) ) ;
#13 = ORIENTED_EDGE ( 'NONE', *, *, #300, .T. ) ;
#14 =( GEOMETRIC_REPRESENTATION_CONTEXT ( 3 ) GLOBAL_UNCERTAINTY_ASSIGNED_CONTEXT ( ( #176 ) ) GLOBAL_UNIT_ASSIGNED_CONTEXT ( ( #298, #357, #45 ) ) REPRESENTATION_CONTEXT ( 'NONE', 'WORKASPACE' ) );
#15 = CIRCLE ( 'NONE', #273, 0.1562499999999996947 ) ;
#16 = DIRECTION ( 'NONE',  ( 0.000000000000000000, 0.000000000000000000, -1.000000000000000000 ) ) ;
#17 = VERTEX_POINT ( 'NONE', #320 ) ;
#18 = CARTESIAN_POINT ( 'NONE',  ( 0.000000000000000000, 0.000000000000000000, 0.000000000000000000 ) ) ;
#19 = DIRECTION ( 'NONE',  ( -0.000000000000000000, -1.000000000000000000, -0.000000000000000000 ) ) ;
#20 = EDGE_CURVE ( 'NONE', #224, #201, #132, .T. ) ;
#21 = SURFACE_STYLE_FILL_AREA ( #218 ) ;
#22 =( GEOMETRIC_REPRESENTATION_CONTEXT ( 3 ) GLOBAL_UNCERTAINTY_ASSIGNED_CONTEXT ( ( #156 ) ) GLOBAL_UNIT_ASSIGNED_CONTEXT ( ( #265, #151, #125 ) ) REPRESENTATION_CONTEXT ( 'NONE', 'WORKASPACE' ) );
#23 = ORIENTED_EDGE ( 'NONE', *, *, #102, .T. ) ;
#24 = CARTESIAN_POINT ( 'NONE',  ( 0.000000000000000000, 0.000000000000000000, 0.000000000000000000 ) ) ;
#25 = EDGE_CURVE ( 'NONE', #17, #161, #7, .T. ) ;
#26 = DIRECTION ( 'NONE',  ( -0.000000000000000000, -1.000000000000000000, -0.000000000000000000 ) ) ;
#27 = CARTESIAN_POINT ( 'NONE',  ( 0.1562499999999999445, 0.1562500000000000000, 0.000000000000000000 ) ) ;
#28 = SURFACE_STYLE_FILL_AREA ( #170 ) ;
#29 = FILL_AREA_STYLE_COLOUR ( '', #89 ) ;
#30 = ORIENTED_EDGE ( 'NONE', *, *, #193, .F. ) ;
#31 = CIRCLE ( 'NONE', #127, 0.1562499999999996947 ) ;
#32 = ORIENTED_EDGE ( 'NONE', *, *, #163, .T. ) ;
#33 = EDGE_LOOP ( 'NONE', ( #56, #32, #196, #165 ) ) ;
#34 = DIRECTION ( 'NONE',  ( 0.000000000000000000, 0.000000000000000000, 1.000000000000000000 ) ) ;
#35 = CARTESIAN_POINT ( 'NONE',  ( 0.000000000000000000, 0.000000000000000000, 0.000000000000000000 ) ) ;
#36 = PRODUCT_DEFINITION_SHAPE ( 'NONE', 'NONE',  #234 ) ;
#37 = AXIS2_PLACEMENT_3D ( 'NONE', #198, #373, #86 ) ;
#38 = CIRCLE ( 'NONE', #366, 0.1562499999999998612 ) ;
#39 = DIRECTION ( 'NONE',  ( -0.000000000000000000, -1.000000000000000000, -0.000000000000000000 ) ) ;
#40 = SURFACE_SIDE_STYLE ('',( #177 ) ) ;
#41 =( LENGTH_UNIT ( ) NAMED_UNIT ( * ) SI_UNIT ( $, .METRE. ) );
#42 = CIRCLE ( 'NONE', #246, 0.1562499999999998612 ) ;
#43 =( NAMED_UNIT ( * ) PLANE_ANGLE_UNIT ( ) SI_UNIT ( $, .RADIAN. ) );
#44 = AXIS2_PLACEMENT_3D ( 'NONE', #221, #129, #209 ) ;
#45 =( NAMED_UNIT ( * ) SI_UNIT ( $, .STERADIAN. ) SOLID_ANGLE_UNIT ( ) );
#46 = CARTESIAN_POINT ( 'NONE',  ( -0.1562500000000000000, 3.000000000000000444, 0.000000000000000000 ) ) ;
#47 = CARTESIAN_POINT ( 'NONE',  ( 1.913510623667738539E-17, 0.1562500000000000000, 0.1562499999999999445 ) ) ;
#48 =( CONVERSION_BASED_UNIT ( 'INCH', #110 ) LENGTH_UNIT ( ) NAMED_UNIT ( #343 ) );
#49 = MECHANICAL_DESIGN_GEOMETRIC_PRESENTATION_REPRESENTATION (  '', ( #167 ), #240 ) ;
#50 = CARTESIAN_POINT ( 'NONE',  ( 1.836970198721030427E-16, 1.000000000000000000, 0.000000000000000000 ) ) ;
#51 = DIRECTION ( 'NONE',  ( -1.224646799147353700E-16, 1.000000000000000000, -0.000000000000000000 ) ) ;
#52 = ORIENTED_EDGE ( 'NONE', *, *, #166, .T. ) ;
#53 = FACE_OUTER_BOUND ( 'NONE', #278, .T. ) ;
#54 = CARTESIAN_POINT ( 'NONE',  ( -0.1562499999999995282, 1.000000000000000000, 0.000000000000000000 ) ) ;
#55 = PRESENTATION_LAYER_ASSIGNMENT (  '', '', ( #211 ) ) ;
#56 = ORIENTED_EDGE ( 'NONE', *, *, #341, .F. ) ;
#57 = SURFACE_STYLE_FILL_AREA ( #113 ) ;
#58 = DIRECTION ( 'NONE',  ( 0.000000000000000000, 0.000000000000000000, -1.000000000000000000 ) ) ;
#59 = LENGTH_MEASURE_WITH_UNIT ( LENGTH_MEASURE( 0.02539999999999999897 ), #285 );
#60 =( NAMED_UNIT ( * ) SI_UNIT ( $, .STERADIAN. ) SOLID_ANGLE_UNIT ( ) );
#61 = ORIENTED_EDGE ( 'NONE', *, *, #225, .T. ) ;
#62 = STYLED_ITEM ( 'NONE', ( #208 ), #276 ) ;
#63 = ADVANCED_FACE ( 'NONE', ( #253 ), #115, .T. ) ;
#64 = PRODUCT_DEFINITION_FORMATION_WITH_SPECIFIED_SOURCE ( 'ANY', '', #180, .NOT_KNOWN. ) ;
#65 = LINE ( 'NONE', #138, #262 ) ;
#66 = SURFACE_STYLE_USAGE ( .BOTH. , #40 ) ;
#67 = DIRECTION ( 'NONE',  ( 0.000000000000000000, 0.000000000000000000, -1.000000000000000000 ) ) ;
#68 = FILL_AREA_STYLE ('',( #327 ) ) ;
#69 = DIRECTION ( 'NONE',  ( -1.000000000000000000, 0.000000000000000000, 0.000000000000000000 ) ) ;
#70 = ADVANCED_FACE ( 'NONE', ( #329 ), #290, .T. ) ;
#71 = PRESENTATION_LAYER_ASSIGNMENT (  '', '', ( #143 ) ) ;
#72 =( NAMED_UNIT ( * ) PLANE_ANGLE_UNIT ( ) SI_UNIT ( $, .RADIAN. ) );
#73 = PLANE ( 'NONE',  #106 ) ;
#74 = CARTESIAN_POINT ( 'NONE',  ( -6.123233995736772199E-17, 3.000000000000000444, 0.000000000000000000 ) ) ;
#75 = VERTEX_POINT ( 'NONE', #360 ) ;
#76 = DIRECTION ( 'NONE',  ( -1.000000000000000000, 0.000000000000000000, 0.000000000000000000 ) ) ;
#77 = PRESENTATION_LAYER_ASSIGNMENT (  '', '', ( #299 ) ) ;
#78 =( LENGTH_UNIT ( ) NAMED_UNIT ( * ) SI_UNIT ( $, .METRE. ) );
#79 = AXIS2_PLACEMENT_3D ( 'NONE', #18, #184, #301 ) ;
#80 = FILL_AREA_STYLE_COLOUR ( '', #200 ) ;
#81 = DIRECTION ( 'NONE',  ( 1.000000000000000000, 0.000000000000000000, -1.224646799147353207E-16 ) ) ;
#82 = EDGE_LOOP ( 'NONE', ( #275, #284, #23, #173, #171 ) ) ;
#83 = UNCERTAINTY_MEASURE_WITH_UNIT (LENGTH_MEASURE( 1.000000000000000082E-05 ), #4, 'distance_accuracy_value', 'NONE');
#84 =( NAMED_UNIT ( * ) PLANE_ANGLE_UNIT ( ) SI_UNIT ( $, .RADIAN. ) );
#85 = ORIENTED_EDGE ( 'NONE', *, *, #108, .T. ) ;
#86 = DIRECTION ( 'NONE',  ( -1.000000000000000000, 0.000000000000000000, 0.000000000000000000 ) ) ;
#87 = AXIS2_PLACEMENT_3D ( 'NONE', #139, #252, #367 ) ;
#88 = UNCERTAINTY_MEASURE_WITH_UNIT (LENGTH_MEASURE( 1.000000000000000082E-05 ), #230, 'distance_accuracy_value', 'NONE');
#89 = COLOUR_RGB ( '',0.7921568627450980005, 0.8196078431372548767, 0.9333333333333333481 ) ;
#90 =( GEOMETRIC_REPRESENTATION_CONTEXT ( 3 ) GLOBAL_UNCERTAINTY_ASSIGNED_CONTEXT ( ( #186 ) ) GLOBAL_UNIT_ASSIGNED_CONTEXT ( ( #48, #72, #332 ) ) REPRESENTATION_CONTEXT ( 'NONE', 'WORKASPACE' ) );
#91 = ORIENTED_EDGE ( 'NONE', *, *, #341, .T. ) ;
#92 = ADVANCED_FACE ( 'NONE', ( #53 ), #111, .T. ) ;
#93 = DIMENSIONAL_EXPONENTS ( 1.000000000000000000, 0.000000000000000000, 0.000000000000000000, 0.000000000000000000, 0.000000000000000000, 0.000000000000000000, 0.000000000000000000 ) ;
#94 = DIRECTION ( 'NONE',  ( 0.000000000000000000, 1.000000000000000000, 0.000000000000000000 ) ) ;
#95 = PRODUCT_DEFINITION_CONTEXT ( 'detailed design', #248, 'design' ) ;
#96 = LENGTH_MEASURE_WITH_UNIT ( LENGTH_MEASURE( 0.02539999999999999897 ), #153 );
#97 =( NAMED_UNIT ( * ) SI_UNIT ( $, .STERADIAN. ) SOLID_ANGLE_UNIT ( ) );
#98 = MECHANICAL_DESIGN_GEOMETRIC_PRESENTATION_REPRESENTATION (  '', ( #105 ), #14 ) ;
#99 = CIRCLE ( 'NONE', #361, 0.1562500000000000000 ) ;
#100 = CARTESIAN_POINT ( 'NONE',  ( -1.913510623667739463E-17, 0.1562500000000000000, 0.000000000000000000 ) ) ;
#101 = DIRECTION ( 'NONE',  ( -1.224646799147353700E-16, 1.000000000000000000, -0.000000000000000000 ) ) ;
#102 = EDGE_CURVE ( 'NONE', #75, #161, #215, .T. ) ;
#103 = DIRECTION ( 'NONE',  ( 0.000000000000000000, -0.000000000000000000, 1.000000000000000000 ) ) ;
#104 = ADVANCED_BREP_SHAPE_REPRESENTATION ( '83366', ( #268, #276, #79 ), #90 ) ;
#105 = STYLED_ITEM ( 'NONE', ( #181 ), #70 ) ;
#106 = AXIS2_PLACEMENT_3D ( 'NONE', #269, #280, #133 ) ;
#107 = CARTESIAN_POINT ( 'NONE',  ( 0.000000000000000000, 0.1562500000000000000, -0.1562499999999999445 ) ) ;
#108 = EDGE_CURVE ( 'NONE', #364, #316, #2, .T. ) ;
#109 = DIRECTION ( 'NONE',  ( -1.000000000000000000, 0.000000000000000000, 0.000000000000000000 ) ) ;
#110 = LENGTH_MEASURE_WITH_UNIT ( LENGTH_MEASURE( 0.02539999999999999897 ), #242 );
#111 = CYLINDRICAL_SURFACE ( 'NONE', #116, 0.1562499999999998057 ) ;
#112 = PRESENTATION_LAYER_ASSIGNMENT (  '', '', ( #324 ) ) ;
#113 = FILL_AREA_STYLE ('',( #197 ) ) ;
#114 = CYLINDRICAL_SURFACE ( 'NONE', #37, 0.1562499999999998057 ) ;
#115 = PLANE ( 'NONE',  #318 ) ;
#116 = AXIS2_PLACEMENT_3D ( 'NONE', #74, #164, #109 ) ;
#117 = AXIS2_PLACEMENT_3D ( 'NONE', #195, #315, #319 ) ;
#118 = ORIENTED_EDGE ( 'NONE', *, *, #205, .F. ) ;
#119 = PRESENTATION_STYLE_ASSIGNMENT (( #338 ) ) ;
#120 = ORIENTED_EDGE ( 'NONE', *, *, #20, .T. ) ;
#121 = FILL_AREA_STYLE_COLOUR ( '', #347 ) ;
#122 = ORIENTED_EDGE ( 'NONE', *, *, #300, .F. ) ;
#123 = CIRCLE ( 'NONE', #44, 0.1562499999999999445 ) ;
#124 = SURFACE_STYLE_USAGE ( .BOTH. , #141 ) ;
#125 =( NAMED_UNIT ( * ) SI_UNIT ( $, .STERADIAN. ) SOLID_ANGLE_UNIT ( ) );
#126 = AXIS2_PLACEMENT_3D ( 'NONE', #169, #26, #58 ) ;
#127 = AXIS2_PLACEMENT_3D ( 'NONE', #50, #51, #160 ) ;
#128 = SURFACE_STYLE_FILL_AREA ( #68 ) ;
#129 = DIRECTION ( 'NONE',  ( -1.224646799147353700E-16, 1.000000000000000000, -0.000000000000000000 ) ) ;
#130 = DIRECTION ( 'NONE',  ( 0.000000000000000000, 0.000000000000000000, -1.000000000000000000 ) ) ;
#131 = ADVANCED_FACE ( 'NONE', ( #135 ), #73, .F. ) ;
#132 = CIRCLE ( 'NONE', #126, 0.1562499999999999445 ) ;
#133 = DIRECTION ( 'NONE',  ( -1.000000000000000000, -1.224646799147353700E-16, 0.000000000000000000 ) ) ;
#134 = VERTEX_POINT ( 'NONE', #335 ) ;
#135 = FACE_OUTER_BOUND ( 'NONE', #191, .T. ) ;
#136 = ORIENTED_EDGE ( 'NONE', *, *, #274, .T. ) ;
#137 = LENGTH_MEASURE_WITH_UNIT ( LENGTH_MEASURE( 0.02539999999999999897 ), #78 );
#138 = CARTESIAN_POINT ( 'NONE',  ( -0.1562499999999998612, 3.000000000000000444, 0.000000000000000000 ) ) ;
#139 = CARTESIAN_POINT ( 'NONE',  ( 0.000000000000000000, 0.1562500000000000000, 0.000000000000000000 ) ) ;
#140 = SURFACE_STYLE_FILL_AREA ( #168 ) ;
#141 = SURFACE_SIDE_STYLE ('',( #28 ) ) ;
#142 =( LENGTH_UNIT ( ) NAMED_UNIT ( * ) SI_UNIT ( $, .METRE. ) );
#143 = STYLED_ITEM ( 'NONE', ( #365 ), #152 ) ;
#144 = EDGE_LOOP ( 'NONE', ( #235, #52, #317, #345, #362 ) ) ;
#145 = LENGTH_MEASURE_WITH_UNIT ( LENGTH_MEASURE( 0.02539999999999999897 ), #142 );
#146 = EDGE_LOOP ( 'NONE', ( #136, #61, #118, #120 ) ) ;
#147 = PRESENTATION_LAYER_ASSIGNMENT (  '', '', ( #105 ) ) ;
#148 = CIRCLE ( 'NONE', #206, 0.1562499999999999445 ) ;
#149 = FACE_OUTER_BOUND ( 'NONE', #146, .T. ) ;
#150 = DIMENSIONAL_EXPONENTS ( 1.000000000000000000, 0.000000000000000000, 0.000000000000000000, 0.000000000000000000, 0.000000000000000000, 0.000000000000000000, 0.000000000000000000 ) ;
#151 =( NAMED_UNIT ( * ) PLANE_ANGLE_UNIT ( ) SI_UNIT ( $, .RADIAN. ) );
#152 = ADVANCED_FACE ( 'NONE', ( #185 ), #305, .T. ) ;
#153 =( LENGTH_UNIT ( ) NAMED_UNIT ( * ) SI_UNIT ( $, .METRE. ) );
#154 = VECTOR ( 'NONE', #337, 39.37007874015748143 ) ;
#155 =( LENGTH_UNIT ( ) NAMED_UNIT ( * ) SI_UNIT ( $, .METRE. ) );
#156 = UNCERTAINTY_MEASURE_WITH_UNIT (LENGTH_MEASURE( 1.000000000000000082E-05 ), #265, 'distance_accuracy_value', 'NONE');
#157 = PRODUCT_CONTEXT ( 'NONE', #243, 'mechanical' ) ;
#158 = DIRECTION ( 'NONE',  ( 0.000000000000000000, 0.000000000000000000, -1.000000000000000000 ) ) ;
#159 = CARTESIAN_POINT ( 'NONE',  ( 0.000000000000000000, 0.1562500000000000000, 0.000000000000000000 ) ) ;
#160 = DIRECTION ( 'NONE',  ( -1.000000000000000000, 0.000000000000000000, 0.000000000000000000 ) ) ;
#161 = VERTEX_POINT ( 'NONE', #107 ) ;
#162 = DIRECTION ( 'NONE',  ( 1.000000000000000000, 0.000000000000000000, 0.000000000000000000 ) ) ;
#163 = EDGE_CURVE ( 'NONE', #134, #219, #31, .T. ) ;
#164 = DIRECTION ( 'NONE',  ( -1.224646799147353700E-16, 1.000000000000000000, -0.000000000000000000 ) ) ;
#165 = ORIENTED_EDGE ( 'NONE', *, *, #370, .F. ) ;
#166 = EDGE_CURVE ( 'NONE', #310, #201, #333, .T. ) ;
#167 = STYLED_ITEM ( 'NONE', ( #119 ), #268 ) ;
#168 = FILL_AREA_STYLE ('',( #29 ) ) ;
#169 = CARTESIAN_POINT ( 'NONE',  ( 0.000000000000000000, 0.1562500000000000000, 0.000000000000000000 ) ) ;
#170 = FILL_AREA_STYLE ('',( #314 ) ) ;
#171 = ORIENTED_EDGE ( 'NONE', *, *, #274, .F. ) ;
#172 = UNCERTAINTY_MEASURE_WITH_UNIT (LENGTH_MEASURE( 1.000000000000000082E-05 ), #190, 'distance_accuracy_value', 'NONE');
#173 = ORIENTED_EDGE ( 'NONE', *, *, #25, .F. ) ;
#174 = SURFACE_SIDE_STYLE ('',( #140 ) ) ;
#175 = ORIENTED_EDGE ( 'NONE', *, *, #202, .T. ) ;
#176 = UNCERTAINTY_MEASURE_WITH_UNIT (LENGTH_MEASURE( 1.000000000000000082E-05 ), #298, 'distance_accuracy_value', 'NONE');
#177 = SURFACE_STYLE_FILL_AREA ( #238 ) ;
#178 =( GEOMETRIC_REPRESENTATION_CONTEXT ( 3 ) GLOBAL_UNCERTAINTY_ASSIGNED_CONTEXT ( ( #83 ) ) GLOBAL_UNIT_ASSIGNED_CONTEXT ( ( #4, #352, #97 ) ) REPRESENTATION_CONTEXT ( 'NONE', 'WORKASPACE' ) );
#179 = COLOUR_RGB ( '',0.7921568627450980005, 0.8196078431372548767, 0.9333333333333333481 ) ;
#180 = PRODUCT ( '83366', '83366', '', ( #157 ) ) ;
#181 = PRESENTATION_STYLE_ASSIGNMENT (( #11 ) ) ;
#182 = MECHANICAL_DESIGN_GEOMETRIC_PRESENTATION_REPRESENTATION (  '', ( #211 ), #178 ) ;
#183 = MECHANICAL_DESIGN_GEOMETRIC_PRESENTATION_REPRESENTATION (  '', ( #62 ), #22 ) ;
#184 = DIRECTION ( 'NONE',  ( 0.000000000000000000, 0.000000000000000000, 1.000000000000000000 ) ) ;
#185 = FACE_OUTER_BOUND ( 'NONE', #368, .T. ) ;
#186 = UNCERTAINTY_MEASURE_WITH_UNIT (LENGTH_MEASURE( 1.000000000000000082E-05 ), #48, 'distance_accuracy_value', 'NONE');
#187 = VERTEX_POINT ( 'NONE', #330 ) ;
#188 = SURFACE_STYLE_USAGE ( .BOTH. , #334 ) ;
#189 =( CONVERSION_BASED_UNIT ( 'INCH', #137 ) LENGTH_UNIT ( ) NAMED_UNIT ( #267 ) );
#190 =( CONVERSION_BASED_UNIT ( 'INCH', #59 ) LENGTH_UNIT ( ) NAMED_UNIT ( #150 ) );
#191 = EDGE_LOOP ( 'NONE', ( #122, #257 ) ) ;
#192 = MECHANICAL_DESIGN_GEOMETRIC_PRESENTATION_REPRESENTATION (  '', ( #143 ), #254 ) ;
#193 = EDGE_CURVE ( 'NONE', #310, #75, #42, .T. ) ;
#194 = COLOUR_RGB ( '',1.000000000000000000, 0.000000000000000000, 0.000000000000000000 ) ;
#195 = CARTESIAN_POINT ( 'NONE',  ( -1.913510623667739463E-17, 0.1562500000000000000, 0.000000000000000000 ) ) ;
#196 = ORIENTED_EDGE ( 'NONE', *, *, #217, .T. ) ;
#197 = FILL_AREA_STYLE_COLOUR ( '', #194 ) ;
#198 = CARTESIAN_POINT ( 'NONE',  ( -6.123233995736772199E-17, 3.000000000000000444, 0.000000000000000000 ) ) ;
#199 = CLOSED_SHELL ( 'NONE', ( #304, #70, #63, #270, #152 ) ) ;
#200 = COLOUR_RGB ( '',1.000000000000000000, 0.000000000000000000, 0.000000000000000000 ) ;
#201 = VERTEX_POINT ( 'NONE', #47 ) ;
#202 = EDGE_CURVE ( 'NONE', #161, #224, #148, .T. ) ;
#203 = DIRECTION ( 'NONE',  ( -1.224646799147353700E-16, 1.000000000000000000, -0.000000000000000000 ) ) ;
#204 = EDGE_CURVE ( 'NONE', #75, #310, #38, .T. ) ;
#205 = EDGE_CURVE ( 'NONE', #224, #187, #250, .T. ) ;
#206 = AXIS2_PLACEMENT_3D ( 'NONE', #159, #271, #16 ) ;
#207 = DIRECTION ( 'NONE',  ( 1.000000000000000000, 0.000000000000000000, 0.000000000000000000 ) ) ;
#208 = PRESENTATION_STYLE_ASSIGNMENT (( #3 ) ) ;
#209 = DIRECTION ( 'NONE',  ( -1.000000000000000000, 0.000000000000000000, 0.000000000000000000 ) ) ;
#210 = CARTESIAN_POINT ( 'NONE',  ( 1.913510623667738231E-17, 0.000000000000000000, 0.1562499999999999167 ) ) ;
#211 = STYLED_ITEM ( 'NONE', ( #355 ), #63 ) ;
#212 = AXIS2_PLACEMENT_3D ( 'NONE', #306, #222, #162 ) ;
#213 = DIRECTION ( 'NONE',  ( 1.224646799147353700E-16, -1.000000000000000000, 0.000000000000000000 ) ) ;
#214 = APPLICATION_PROTOCOL_DEFINITION ( 'draft international standard', 'automotive_design', 1998, #243 ) ;
#215 = LINE ( 'NONE', #279, #272 ) ;
#216 = DIRECTION ( 'NONE',  ( 1.000000000000000000, 1.224646799147353700E-16, 0.000000000000000000 ) ) ;
#217 = EDGE_CURVE ( 'NONE', #219, #364, #65, .T. ) ;
#218 = FILL_AREA_STYLE ('',( #80 ) ) ;
#219 = VERTEX_POINT ( 'NONE', #54 ) ;
#220 =( GEOMETRIC_REPRESENTATION_CONTEXT ( 3 ) GLOBAL_UNCERTAINTY_ASSIGNED_CONTEXT ( ( #321 ) ) GLOBAL_UNIT_ASSIGNED_CONTEXT ( ( #350, #43, #293 ) ) REPRESENTATION_CONTEXT ( 'NONE', 'WORKASPACE' ) );
#221 = CARTESIAN_POINT ( 'NONE',  ( -6.123233995736772199E-17, 3.000000000000000444, 0.000000000000000000 ) ) ;
#222 = DIRECTION ( 'NONE',  ( 0.000000000000000000, 0.000000000000000000, 1.000000000000000000 ) ) ;
#223 = SURFACE_STYLE_USAGE ( .BOTH. , #342 ) ;
#224 = VERTEX_POINT ( 'NONE', #27 ) ;
#225 = EDGE_CURVE ( 'NONE', #17, #187, #99, .T. ) ;
#226 = CIRCLE ( 'NONE', #340, 0.1562499999999999445 ) ;
#227 = DIRECTION ( 'NONE',  ( 0.000000000000000000, 0.000000000000000000, -1.000000000000000000 ) ) ;
#228 = DIMENSIONAL_EXPONENTS ( 1.000000000000000000, 0.000000000000000000, 0.000000000000000000, 0.000000000000000000, 0.000000000000000000, 0.000000000000000000, 0.000000000000000000 ) ;
#229 = DIRECTION ( 'NONE',  ( -1.224646799147353700E-16, 1.000000000000000000, -0.000000000000000000 ) ) ;
#230 =( CONVERSION_BASED_UNIT ( 'INCH', #145 ) LENGTH_UNIT ( ) NAMED_UNIT ( #303 ) );
#231 = ADVANCED_FACE ( 'NONE', ( #256 ), #114, .T. ) ;
#232 = UNCERTAINTY_MEASURE_WITH_UNIT (LENGTH_MEASURE( 1.000000000000000082E-05 ), #189, 'distance_accuracy_value', 'NONE');
#233 = FILL_AREA_STYLE ('',( #236 ) ) ;
#234 = PRODUCT_DEFINITION ( 'UNKNOWN', '', #64, #95 ) ;
#235 = ORIENTED_EDGE ( 'NONE', *, *, #204, .T. ) ;
#236 = FILL_AREA_STYLE_COLOUR ( '', #179 ) ;
#237 = DIRECTION ( 'NONE',  ( -0.000000000000000000, -1.000000000000000000, -0.000000000000000000 ) ) ;
#238 = FILL_AREA_STYLE ('',( #121 ) ) ;
#239 = SPHERICAL_SURFACE ( 'NONE', #282, 0.1562500000000000000 ) ;
#240 =( GEOMETRIC_REPRESENTATION_CONTEXT ( 3 ) GLOBAL_UNCERTAINTY_ASSIGNED_CONTEXT ( ( #88 ) ) GLOBAL_UNIT_ASSIGNED_CONTEXT ( ( #230, #251, #313 ) ) REPRESENTATION_CONTEXT ( 'NONE', 'WORKASPACE' ) );
#241 = CARTESIAN_POINT ( 'NONE',  ( 1.913510623667738231E-17, 1.000000000000000000, 0.1562499999999998612 ) ) ;
#242 =( LENGTH_UNIT ( ) NAMED_UNIT ( * ) SI_UNIT ( $, .METRE. ) );
#243 = APPLICATION_CONTEXT ( 'automotive_design' ) ;
#244 = CARTESIAN_POINT ( 'NONE',  ( -6.123233995736772199E-17, 3.000000000000000444, 0.000000000000000000 ) ) ;
#245 = AXIS2_PLACEMENT_3D ( 'NONE', #35, #237, #158 ) ;
#246 = AXIS2_PLACEMENT_3D ( 'NONE', #302, #12, #130 ) ;
#247 = DIRECTION ( 'NONE',  ( -0.000000000000000000, -1.000000000000000000, -0.000000000000000000 ) ) ;
#248 = APPLICATION_CONTEXT ( 'automotive_design' ) ;
#249 =( NAMED_UNIT ( * ) PLANE_ANGLE_UNIT ( ) SI_UNIT ( $, .RADIAN. ) );
#250 = CIRCLE ( 'NONE', #117, 0.1562500000000000000 ) ;
#251 =( NAMED_UNIT ( * ) PLANE_ANGLE_UNIT ( ) SI_UNIT ( $, .RADIAN. ) );
#252 = DIRECTION ( 'NONE',  ( -0.000000000000000000, -1.000000000000000000, -0.000000000000000000 ) ) ;
#253 = FACE_OUTER_BOUND ( 'NONE', #348, .T. ) ;
#254 =( GEOMETRIC_REPRESENTATION_CONTEXT ( 3 ) GLOBAL_UNCERTAINTY_ASSIGNED_CONTEXT ( ( #232 ) ) GLOBAL_UNIT_ASSIGNED_CONTEXT ( ( #189, #249, #363 ) ) REPRESENTATION_CONTEXT ( 'NONE', 'WORKASPACE' ) );
#255 = ORIENTED_EDGE ( 'NONE', *, *, #370, .T. ) ;
#256 = FACE_OUTER_BOUND ( 'NONE', #33, .T. ) ;
#257 = ORIENTED_EDGE ( 'NONE', *, *, #163, .F. ) ;
#258 = CYLINDRICAL_SURFACE ( 'NONE', #331, 0.1562499999999999167 ) ;
#259 = ORIENTED_EDGE ( 'NONE', *, *, #25, .T. ) ;
#260 = COLOUR_RGB ( '',1.000000000000000000, 0.000000000000000000, 0.000000000000000000 ) ;
#261 = CARTESIAN_POINT ( 'NONE',  ( 0.1562499999999998612, 3.000000000000000444, 1.913510623667737923E-17 ) ) ;
#262 = VECTOR ( 'NONE', #229, 39.37007874015748143 ) ;
#263 = DIRECTION ( 'NONE',  ( 0.000000000000000000, 0.000000000000000000, -1.000000000000000000 ) ) ;
#264 = LENGTH_MEASURE_WITH_UNIT ( LENGTH_MEASURE( 0.02539999999999999897 ), #155 );
#265 =( CONVERSION_BASED_UNIT ( 'INCH', #96 ) LENGTH_UNIT ( ) NAMED_UNIT ( #228 ) );
#266 = APPLICATION_PROTOCOL_DEFINITION ( 'draft international standard', 'automotive_design', 1998, #248 ) ;
#267 = DIMENSIONAL_EXPONENTS ( 1.000000000000000000, 0.000000000000000000, 0.000000000000000000, 0.000000000000000000, 0.000000000000000000, 0.000000000000000000, 0.000000000000000000 ) ;
#268 = MANIFOLD_SOLID_BREP ( 'Revolve - Cutting Edge', #199 ) ;
#269 = CARTESIAN_POINT ( 'NONE',  ( 1.836970198721030181E-16, 1.000000000000000000, 0.000000000000000000 ) ) ;
#270 = ADVANCED_FACE ( 'NONE', ( #371 ), #258, .T. ) ;
#271 = DIRECTION ( 'NONE',  ( -0.000000000000000000, -1.000000000000000000, -0.000000000000000000 ) ) ;
#272 = VECTOR ( 'NONE', #247, 39.37007874015748143 ) ;
#273 = AXIS2_PLACEMENT_3D ( 'NONE', #294, #101, #69 ) ;
#274 = EDGE_CURVE ( 'NONE', #201, #17, #226, .T. ) ;
#275 = ORIENTED_EDGE ( 'NONE', *, *, #166, .F. ) ;
#276 = MANIFOLD_SOLID_BREP ( 'Revolve - Tool Body (Straight Shanked)', #1 ) ;
#277 = CARTESIAN_POINT ( 'NONE',  ( 0.000000000000000000, 1.000000000000000000, 0.000000000000000000 ) ) ;
#278 = EDGE_LOOP ( 'NONE', ( #13, #91, #288, #286 ) ) ;
#279 = CARTESIAN_POINT ( 'NONE',  ( 0.000000000000000000, 0.000000000000000000, -0.1562499999999999167 ) ) ;
#280 = DIRECTION ( 'NONE',  ( -1.224646799147353700E-16, 1.000000000000000000, 0.000000000000000000 ) ) ;
#281 = MECHANICAL_DESIGN_GEOMETRIC_PRESENTATION_REPRESENTATION (  '', ( #324 ), #220 ) ;
#282 = AXIS2_PLACEMENT_3D ( 'NONE', #100, #34, #207 ) ;
#283 = PRODUCT_RELATED_PRODUCT_CATEGORY ( 'part', '', ( #180 ) ) ;
#284 = ORIENTED_EDGE ( 'NONE', *, *, #193, .T. ) ;
#285 =( LENGTH_UNIT ( ) NAMED_UNIT ( * ) SI_UNIT ( $, .METRE. ) );
#286 = ORIENTED_EDGE ( 'NONE', *, *, #217, .F. ) ;
#287 = DIRECTION ( 'NONE',  ( 1.224646799147353207E-16, -0.000000000000000000, 1.000000000000000000 ) ) ;
#288 = ORIENTED_EDGE ( 'NONE', *, *, #108, .F. ) ;
#289 = LENGTH_MEASURE_WITH_UNIT ( LENGTH_MEASURE( 0.02539999999999999897 ), #325 );
#290 = CYLINDRICAL_SURFACE ( 'NONE', #245, 0.1562499999999999167 ) ;
#291 =( GEOMETRIC_REPRESENTATION_CONTEXT ( 3 ) GLOBAL_UNCERTAINTY_ASSIGNED_CONTEXT ( ( #172 ) ) GLOBAL_UNIT_ASSIGNED_CONTEXT ( ( #190, #84, #60 ) ) REPRESENTATION_CONTEXT ( 'NONE', 'WORKASPACE' ) );
#292 = CARTESIAN_POINT ( 'NONE',  ( 0.000000000000000000, 0.1562500000000000000, 0.000000000000000000 ) ) ;
#293 =( NAMED_UNIT ( * ) SI_UNIT ( $, .STERADIAN. ) SOLID_ANGLE_UNIT ( ) );
#294 = CARTESIAN_POINT ( 'NONE',  ( 1.836970198721030427E-16, 1.000000000000000000, 0.000000000000000000 ) ) ;
#295 = LENGTH_MEASURE_WITH_UNIT ( LENGTH_MEASURE( 0.02539999999999999897 ), #41 );
#296 = CARTESIAN_POINT ( 'NONE',  ( 0.1562499999999997224, 3.000000000000000444, 1.913510623667736998E-17 ) ) ;
#297 = COLOUR_RGB ( '',1.000000000000000000, 0.000000000000000000, 0.000000000000000000 ) ;
#298 =( CONVERSION_BASED_UNIT ( 'INCH', #295 ) LENGTH_UNIT ( ) NAMED_UNIT ( #93 ) );
#299 = STYLED_ITEM ( 'NONE', ( #344 ), #270 ) ;
#300 = EDGE_CURVE ( 'NONE', #219, #134, #15, .T. ) ;
#301 = DIRECTION ( 'NONE',  ( 1.000000000000000000, 0.000000000000000000, 0.000000000000000000 ) ) ;
#302 = CARTESIAN_POINT ( 'NONE',  ( 0.000000000000000000, 1.000000000000000000, 0.000000000000000000 ) ) ;
#303 = DIMENSIONAL_EXPONENTS ( 1.000000000000000000, 0.000000000000000000, 0.000000000000000000, 0.000000000000000000, 0.000000000000000000, 0.000000000000000000, 0.000000000000000000 ) ;
#304 = ADVANCED_FACE ( 'NONE', ( #149 ), #239, .T. ) ;
#305 = SPHERICAL_SURFACE ( 'NONE', #212, 0.1562500000000000000 ) ;
#306 = CARTESIAN_POINT ( 'NONE',  ( -1.913510623667739463E-17, 0.1562500000000000000, 0.000000000000000000 ) ) ;
#307 = PRESENTATION_LAYER_ASSIGNMENT (  '', '', ( #167 ) ) ;
#308 = ORIENTED_EDGE ( 'NONE', *, *, #225, .F. ) ;
#309 = VECTOR ( 'NONE', #203, 39.37007874015748143 ) ;
#310 = VERTEX_POINT ( 'NONE', #241 ) ;
#311 = DIRECTION ( 'NONE',  ( -1.224646799147353700E-16, 1.000000000000000000, -0.000000000000000000 ) ) ;
#312 = AXIS2_PLACEMENT_3D ( 'NONE', #358, #213, #216 ) ;
#313 =( NAMED_UNIT ( * ) SI_UNIT ( $, .STERADIAN. ) SOLID_ANGLE_UNIT ( ) );
#314 = FILL_AREA_STYLE_COLOUR ( '', #297 ) ;
#315 = DIRECTION ( 'NONE',  ( 0.000000000000000000, 0.000000000000000000, -1.000000000000000000 ) ) ;
#316 = VERTEX_POINT ( 'NONE', #261 ) ;
#317 = ORIENTED_EDGE ( 'NONE', *, *, #20, .F. ) ;
#318 = AXIS2_PLACEMENT_3D ( 'NONE', #9, #94, #103 ) ;
#319 = DIRECTION ( 'NONE',  ( -1.000000000000000000, 0.000000000000000000, 0.000000000000000000 ) ) ;
#320 = CARTESIAN_POINT ( 'NONE',  ( -0.1562500000000000000, 0.1562500000000000000, 1.913510623667738539E-17 ) ) ;
#321 = UNCERTAINTY_MEASURE_WITH_UNIT (LENGTH_MEASURE( 1.000000000000000082E-05 ), #350, 'distance_accuracy_value', 'NONE');
#322 = SURFACE_SIDE_STYLE ('',( #328 ) ) ;
#323 = DIMENSIONAL_EXPONENTS ( 1.000000000000000000, 0.000000000000000000, 0.000000000000000000, 0.000000000000000000, 0.000000000000000000, 0.000000000000000000, 0.000000000000000000 ) ;
#324 = STYLED_ITEM ( 'NONE', ( #351 ), #304 ) ;
#325 =( LENGTH_UNIT ( ) NAMED_UNIT ( * ) SI_UNIT ( $, .METRE. ) );
#326 = LINE ( 'NONE', #296, #309 ) ;
#327 = FILL_AREA_STYLE_COLOUR ( '', #260 ) ;
#328 = SURFACE_STYLE_FILL_AREA ( #233 ) ;
#329 = FACE_OUTER_BOUND ( 'NONE', #144, .T. ) ;
#330 = CARTESIAN_POINT ( 'NONE',  ( -9.567553118338697316E-18, 0.000000000000000000, 0.000000000000000000 ) ) ;
#331 = AXIS2_PLACEMENT_3D ( 'NONE', #24, #5, #67 ) ;
#332 =( NAMED_UNIT ( * ) SI_UNIT ( $, .STERADIAN. ) SOLID_ANGLE_UNIT ( ) );
#333 = LINE ( 'NONE', #210, #154 ) ;
#334 = SURFACE_SIDE_STYLE ('',( #21 ) ) ;
#335 = CARTESIAN_POINT ( 'NONE',  ( 0.1562499999999998612, 1.000000000000000000, 1.913510623667737923E-17 ) ) ;
#336 = ORIENTED_EDGE ( 'NONE', *, *, #204, .F. ) ;
#337 = DIRECTION ( 'NONE',  ( -0.000000000000000000, -1.000000000000000000, -0.000000000000000000 ) ) ;
#338 = SURFACE_STYLE_USAGE ( .BOTH. , #174 ) ;
#339 = ORIENTED_EDGE ( 'NONE', *, *, #205, .T. ) ;
#340 = AXIS2_PLACEMENT_3D ( 'NONE', #292, #39, #263 ) ;
#341 = EDGE_CURVE ( 'NONE', #134, #316, #326, .T. ) ;
#342 = SURFACE_SIDE_STYLE ('',( #57 ) ) ;
#343 = DIMENSIONAL_EXPONENTS ( 1.000000000000000000, 0.000000000000000000, 0.000000000000000000, 0.000000000000000000, 0.000000000000000000, 0.000000000000000000, 0.000000000000000000 ) ;
#344 = PRESENTATION_STYLE_ASSIGNMENT (( #223 ) ) ;
#345 = ORIENTED_EDGE ( 'NONE', *, *, #202, .F. ) ;
#346 = CARTESIAN_POINT ( 'NONE',  ( -1.913510623667739463E-17, 0.1562500000000000000, 0.000000000000000000 ) ) ;
#347 = COLOUR_RGB ( '',1.000000000000000000, 0.000000000000000000, 0.000000000000000000 ) ;
#348 = EDGE_LOOP ( 'NONE', ( #336, #30 ) ) ;
#349 = DIMENSIONAL_EXPONENTS ( 1.000000000000000000, 0.000000000000000000, 0.000000000000000000, 0.000000000000000000, 0.000000000000000000, 0.000000000000000000, 0.000000000000000000 ) ;
#350 =( CONVERSION_BASED_UNIT ( 'INCH', #289 ) LENGTH_UNIT ( ) NAMED_UNIT ( #349 ) );
#351 = PRESENTATION_STYLE_ASSIGNMENT (( #66 ) ) ;
#352 =( NAMED_UNIT ( * ) PLANE_ANGLE_UNIT ( ) SI_UNIT ( $, .RADIAN. ) );
#353 = AXIS2_PLACEMENT_3D ( 'NONE', #244, #311, #76 ) ;
#354 = ADVANCED_FACE ( 'NONE', ( #356 ), #10, .F. ) ;
#355 = PRESENTATION_STYLE_ASSIGNMENT (( #124 ) ) ;
#356 = FACE_OUTER_BOUND ( 'NONE', #372, .T. ) ;
#357 =( NAMED_UNIT ( * ) PLANE_ANGLE_UNIT ( ) SI_UNIT ( $, .RADIAN. ) );
#358 = CARTESIAN_POINT ( 'NONE',  ( 0.1562499999999998612, 3.000000000000000444, 0.000000000000000000 ) ) ;
#359 = SHAPE_DEFINITION_REPRESENTATION ( #36, #104 ) ;
#360 = CARTESIAN_POINT ( 'NONE',  ( 0.000000000000000000, 1.000000000000000000, -0.1562499999999998612 ) ) ;
#361 = AXIS2_PLACEMENT_3D ( 'NONE', #346, #287, #81 ) ;
#362 = ORIENTED_EDGE ( 'NONE', *, *, #102, .F. ) ;
#363 =( NAMED_UNIT ( * ) SI_UNIT ( $, .STERADIAN. ) SOLID_ANGLE_UNIT ( ) );
#364 = VERTEX_POINT ( 'NONE', #46 ) ;
#365 = PRESENTATION_STYLE_ASSIGNMENT (( #188 ) ) ;
#366 = AXIS2_PLACEMENT_3D ( 'NONE', #277, #19, #227 ) ;
#367 = DIRECTION ( 'NONE',  ( 0.000000000000000000, 0.000000000000000000, -1.000000000000000000 ) ) ;
#368 = EDGE_LOOP ( 'NONE', ( #308, #259, #175, #339 ) ) ;
#369 = MECHANICAL_DESIGN_GEOMETRIC_PRESENTATION_REPRESENTATION (  '', ( #299 ), #291 ) ;
#370 = EDGE_CURVE ( 'NONE', #316, #364, #123, .T. ) ;
#371 = FACE_OUTER_BOUND ( 'NONE', #82, .T. ) ;
#372 = EDGE_LOOP ( 'NONE', ( #85, #255 ) ) ;
#373 = DIRECTION ( 'NONE',  ( -1.224646799147353700E-16, 1.000000000000000000, -0.000000000000000000 ) ) ;
ENDSEC;
END-ISO-10303-21;
