ISO-10303-21;
HEADER;
FILE_DESCRIPTION (( 'STEP AP214' ),
    '1' );
FILE_NAME ('Micro_AECM-1215-3X.STEP',
    '2021-09-03T16:59:39',
    ( '' ),
    ( '' ),
    'SwSTEP 2.0',
    'SolidWorks 2020',
    '' );
FILE_SCHEMA (( 'AUTOMOTIVE_DESIGN' ));
ENDSEC;

DATA;
#1 = EDGE_CURVE ( 'NONE', #200, #341, #60, .T. ) ;
#2 =( CONVERSION_BASED_UNIT ( 'INCH', #330 ) LENGTH_UNIT ( ) NAMED_UNIT ( #123 ) );
#3 = DIRECTION ( 'NONE',  ( -1.000000000000000000, 0.0000000000000000000, 0.0000000000000000000 ) ) ;
#4 = ORIENTED_EDGE ( 'NONE', *, *, #29, .F. ) ;
#5 = CIRCLE ( 'NONE', #241, 0.1769292794999999530 ) ;
#6 = CYLINDRICAL_SURFACE ( 'NONE', #161, 0.2362204999999999999 ) ;
#7 = AXIS2_PLACEMENT_3D ( 'NONE', #300, #47, #297 ) ;
#8 = ORIENTED_EDGE ( 'NONE', *, *, #52, .T. ) ;
#9 = DIRECTION ( 'NONE',  ( -1.000000000000000000, 0.0000000000000000000, 0.0000000000000000000 ) ) ;
#10 = ORIENTED_EDGE ( 'NONE', *, *, #301, .T. ) ;
#11 = ADVANCED_FACE ( 'NONE', ( #293 ), #138, .T. ) ;
#12 = FACE_OUTER_BOUND ( 'NONE', #59, .T. ) ;
#13 = VERTEX_POINT ( 'NONE', #69 ) ;
#14 = EDGE_CURVE ( 'NONE', #311, #36, #318, .T. ) ;
#15 = LINE ( 'NONE', #338, #316 ) ;
#16 = ORIENTED_EDGE ( 'NONE', *, *, #246, .F. ) ;
#17 = DIRECTION ( 'NONE',  ( 1.000000000000000000, 0.0000000000000000000, 0.0000000000000000000 ) ) ;
#18 = CARTESIAN_POINT ( 'NONE',  ( 0.2359842794999999771, 2.889973925387693713E-17, 0.05905500000000001720 ) ) ;
#19 = SURFACE_STYLE_FILL_AREA ( #65 ) ;
#20 = DIRECTION ( 'NONE',  ( 0.0000000000000000000, 0.0000000000000000000, 1.000000000000000000 ) ) ;
#21 = DIRECTION ( 'NONE',  ( 0.0000000000000000000, -1.000000000000000000, 0.0000000000000000000 ) ) ;
#22 = LINE ( 'NONE', #208, #323 ) ;
#23 = CARTESIAN_POINT ( 'NONE',  ( 0.0000000000000000000, 0.0000000000000000000, 3.267717000000000649 ) ) ;
#24 = AXIS2_PLACEMENT_3D ( 'NONE', #332, #225, #283 ) ;
#25 = EDGE_CURVE ( 'NONE', #13, #176, #124, .T. ) ;
#26 = LINE ( 'NONE', #212, #281 ) ;
#27 = SURFACE_STYLE_FILL_AREA ( #103 ) ;
#28 = DIRECTION ( 'NONE',  ( -0.0000000000000000000, -0.0000000000000000000, -1.000000000000000000 ) ) ;
#29 = EDGE_CURVE ( 'NONE', #291, #116, #185, .T. ) ;
#30 = AXIS2_PLACEMENT_3D ( 'NONE', #346, #100, #128 ) ;
#31 =( NAMED_UNIT ( * ) SI_UNIT ( $, .STERADIAN. ) SOLID_ANGLE_UNIT ( ) );
#32 = CARTESIAN_POINT ( 'NONE',  ( 0.2212205000000019295, 2.709169772307794108E-17, 3.267717000000000649 ) ) ;
#33 = FACE_OUTER_BOUND ( 'NONE', #44, .T. ) ;
#34 = ORIENTED_EDGE ( 'NONE', *, *, #296, .T. ) ;
#35 = MECHANICAL_DESIGN_GEOMETRIC_PRESENTATION_REPRESENTATION (  '', ( #151 ), #192 ) ;
#36 = VERTEX_POINT ( 'NONE', #295 ) ;
#37 = ORIENTED_EDGE ( 'NONE', *, *, #120, .F. ) ;
#38 = PLANE ( 'NONE',  #217 ) ;
#39 = ORIENTED_EDGE ( 'NONE', *, *, #75, .T. ) ;
#40 = EDGE_LOOP ( 'NONE', ( #206, #144, #178, #88 ) ) ;
#41 = CIRCLE ( 'NONE', #114, 0.2362204999999999999 ) ;
#42 = ADVANCED_FACE ( 'NONE', ( #67 ), #49, .T. ) ;
#43 = DIRECTION ( 'NONE',  ( 0.0000000000000000000, 0.0000000000000000000, 1.000000000000000000 ) ) ;
#44 = EDGE_LOOP ( 'NONE', ( #286, #339, #266, #4 ) ) ;
#45 = DIRECTION ( 'NONE',  ( -1.224646799147353454E-16, -0.0000000000000000000, -1.000000000000000000 ) ) ;
#46 = DIRECTION ( 'NONE',  ( 1.000000000000000000, 0.0000000000000000000, 0.0000000000000000000 ) ) ;
#47 = DIRECTION ( 'NONE',  ( 0.0000000000000000000, 0.0000000000000000000, 1.000000000000000000 ) ) ;
#48 = AXIS2_PLACEMENT_3D ( 'NONE', #249, #57, #3 ) ;
#49 = CONICAL_SURFACE ( 'NONE', #30, 0.2212205000000019295, 0.7853981633974482790 ) ;
#50 =( GEOMETRIC_REPRESENTATION_CONTEXT ( 3 ) GLOBAL_UNCERTAINTY_ASSIGNED_CONTEXT ( ( #150 ) ) GLOBAL_UNIT_ASSIGNED_CONTEXT ( ( #199, #167, #194 ) ) REPRESENTATION_CONTEXT ( 'NONE', 'WORKASPACE' ) );
#51 = CARTESIAN_POINT ( 'NONE',  ( -0.1769292794999999530, 2.166758758151223863E-17, 0.05905500000000000332 ) ) ;
#52 = EDGE_CURVE ( 'NONE', #311, #116, #22, .T. ) ;
#53 = DIRECTION ( 'NONE',  ( -1.224646799147353454E-16, -0.0000000000000000000, -1.000000000000000000 ) ) ;
#54 = AXIS2_PLACEMENT_3D ( 'NONE', #23, #105, #351 ) ;
#55 = PRESENTATION_LAYER_ASSIGNMENT (  '', '', ( #209 ) ) ;
#56 = APPLICATION_CONTEXT ( 'automotive_design' ) ;
#57 = DIRECTION ( 'NONE',  ( -0.0000000000000000000, -0.0000000000000000000, -1.000000000000000000 ) ) ;
#58 = ORIENTED_EDGE ( 'NONE', *, *, #168, .T. ) ;
#59 = EDGE_LOOP ( 'NONE', ( #257, #223 ) ) ;
#60 = CIRCLE ( 'NONE', #329, 0.1769292794999999530 ) ;
#61 = CARTESIAN_POINT ( 'NONE',  ( 0.2362205000000001665, 2.892866792179874496E-17, 1.182441673027071261 ) ) ;
#62 = VERTEX_POINT ( 'NONE', #18 ) ;
#63 = ORIENTED_EDGE ( 'NONE', *, *, #117, .F. ) ;
#64 = ORIENTED_EDGE ( 'NONE', *, *, #231, .F. ) ;
#65 = FILL_AREA_STYLE ('',( #292 ) ) ;
#66 = VECTOR ( 'NONE', #294, 39.37007874015748143 ) ;
#67 = FACE_OUTER_BOUND ( 'NONE', #201, .T. ) ;
#68 = DIRECTION ( 'NONE',  ( 0.0000000000000000000, 0.0000000000000000000, 1.000000000000000000 ) ) ;
#69 = CARTESIAN_POINT ( 'NONE',  ( 0.2212205000000019295, 2.801018282243833685E-17, 3.267717000000000649 ) ) ;
#70 = SHAPE_DEFINITION_REPRESENTATION ( #270, #72 ) ;
#71 = DIRECTION ( 'NONE',  ( -0.1736481776669311083, 2.126576849575782084E-17, 0.9848077530122080203 ) ) ;
#72 = ADVANCED_BREP_SHAPE_REPRESENTATION ( 'Micro_AECM-1215-3X', ( #142, #333 ), #50 ) ;
#73 = CARTESIAN_POINT ( 'NONE',  ( -0.2362204999999998611, 0.0000000000000000000, 1.182441673027071261 ) ) ;
#74 = EDGE_LOOP ( 'NONE', ( #218, #319, #284, #156 ) ) ;
#75 = EDGE_CURVE ( 'NONE', #176, #195, #97, .T. ) ;
#76 = CARTESIAN_POINT ( 'NONE',  ( 7.232151672364696963E-18, 0.0000000000000000000, 0.05905500000000000332 ) ) ;
#77 = FACE_OUTER_BOUND ( 'NONE', #256, .T. ) ;
#78 = CONICAL_SURFACE ( 'NONE', #54, 0.2212205000000019295, 0.7853981633974482790 ) ;
#79 = FACE_OUTER_BOUND ( 'NONE', #94, .T. ) ;
#80 = DIMENSIONAL_EXPONENTS ( 1.000000000000000000, 0.0000000000000000000, 0.0000000000000000000, 0.0000000000000000000, 0.0000000000000000000, 0.0000000000000000000, 0.0000000000000000000 ) ;
#81 = CARTESIAN_POINT ( 'NONE',  ( 1.446432783766537492E-16, 0.0000000000000000000, 1.181102000000000096 ) ) ;
#82 = SURFACE_SIDE_STYLE ('',( #27 ) ) ;
#83 = COLOUR_RGB ( '',0.7921568627450980005, 0.8196078431372548767, 0.9333333333333333481 ) ;
#84 = AXIS2_PLACEMENT_3D ( 'NONE', #173, #335, #87 ) ;
#85 = LENGTH_MEASURE_WITH_UNIT ( LENGTH_MEASURE( 0.02539999999999999897 ), #146 );
#86 = ORIENTED_EDGE ( 'NONE', *, *, #296, .F. ) ;
#87 = DIRECTION ( 'NONE',  ( -1.000000000000000000, 0.0000000000000000000, 1.224646799147353454E-16 ) ) ;
#88 = ORIENTED_EDGE ( 'NONE', *, *, #130, .F. ) ;
#89 = CARTESIAN_POINT ( 'NONE',  ( 0.1769292794999999530, 0.0000000000000000000, 0.0000000000000000000 ) ) ;
#90 = ORIENTED_EDGE ( 'NONE', *, *, #1, .F. ) ;
#91 = EDGE_CURVE ( 'NONE', #311, #308, #254, .T. ) ;
#92 = ORIENTED_EDGE ( 'NONE', *, *, #75, .F. ) ;
#93 = CARTESIAN_POINT ( 'NONE',  ( 0.2359842795000001159, 0.0000000000000000000, 1.181102000000000096 ) ) ;
#94 = EDGE_LOOP ( 'NONE', ( #197, #10, #58, #239 ) ) ;
#95 =( LENGTH_UNIT ( ) NAMED_UNIT ( * ) SI_UNIT ( $, .METRE. ) );
#96 = ORIENTED_EDGE ( 'NONE', *, *, #109, .F. ) ;
#97 = LINE ( 'NONE', #240, #205 ) ;
#98 = DIRECTION ( 'NONE',  ( 1.000000000000000000, 0.0000000000000000000, 0.0000000000000000000 ) ) ;
#99 = APPLICATION_PROTOCOL_DEFINITION ( 'draft international standard', 'automotive_design', 1998, #221 ) ;
#100 = DIRECTION ( 'NONE',  ( 0.0000000000000000000, 0.0000000000000000000, -1.000000000000000000 ) ) ;
#101 = CARTESIAN_POINT ( 'NONE',  ( 0.1769292794999999530, 0.0000000000000000000, 0.05905500000000000332 ) ) ;
#102 = PRODUCT_DEFINITION_FORMATION_WITH_SPECIFIED_SOURCE ( 'ANY', '', #181, .NOT_KNOWN. ) ;
#103 = FILL_AREA_STYLE ('',( #245 ) ) ;
#104 = ADVANCED_FACE ( 'NONE', ( #262 ), #232, .F. ) ;
#105 = DIRECTION ( 'NONE',  ( 0.0000000000000000000, 0.0000000000000000000, -1.000000000000000000 ) ) ;
#106 = CARTESIAN_POINT ( 'NONE',  ( 7.232151672364698504E-18, 0.0000000000000000000, 0.05905500000000001720 ) ) ;
#107 = COLOUR_RGB ( '',0.7921568627450980005, 0.8196078431372548767, 0.9333333333333333481 ) ;
#108 = FACE_OUTER_BOUND ( 'NONE', #279, .T. ) ;
#109 = EDGE_CURVE ( 'NONE', #36, #62, #235, .T. ) ;
#110 = DIRECTION ( 'NONE',  ( -1.000000000000000000, 1.224646799147352468E-16, 0.0000000000000000000 ) ) ;
#111 = LINE ( 'NONE', #32, #242 ) ;
#112 = ORIENTED_EDGE ( 'NONE', *, *, #120, .T. ) ;
#113 = AXIS2_PLACEMENT_3D ( 'NONE', #261, #321, #159 ) ;
#114 = AXIS2_PLACEMENT_3D ( 'NONE', #149, #278, #222 ) ;
#115 = DIRECTION ( 'NONE',  ( -0.0000000000000000000, -0.0000000000000000000, -1.000000000000000000 ) ) ;
#116 = VERTEX_POINT ( 'NONE', #73 ) ;
#117 = EDGE_CURVE ( 'NONE', #308, #311, #145, .T. ) ;
#118 = CYLINDRICAL_SURFACE ( 'NONE', #48, 0.2362204999999999999 ) ;
#119 = ORIENTED_EDGE ( 'NONE', *, *, #348, .F. ) ;
#120 = EDGE_CURVE ( 'NONE', #341, #62, #347, .T. ) ;
#121 = DIRECTION ( 'NONE',  ( -1.224646799147353454E-16, -0.0000000000000000000, -1.000000000000000000 ) ) ;
#122 = ORIENTED_EDGE ( 'NONE', *, *, #1, .T. ) ;
#123 = DIMENSIONAL_EXPONENTS ( 1.000000000000000000, 0.0000000000000000000, 0.0000000000000000000, 0.0000000000000000000, 0.0000000000000000000, 0.0000000000000000000, 0.0000000000000000000 ) ;
#124 = CIRCLE ( 'NONE', #271, 0.2212205000000019295 ) ;
#125 = CARTESIAN_POINT ( 'NONE',  ( 0.2359842795000001159, 0.0000000000000000000, 1.181102000000000096 ) ) ;
#126 = EDGE_LOOP ( 'NONE', ( #86, #16, #39, #134 ) ) ;
#127 =( NAMED_UNIT ( * ) PLANE_ANGLE_UNIT ( ) SI_UNIT ( $, .RADIAN. ) );
#128 = DIRECTION ( 'NONE',  ( -1.000000000000000000, 0.0000000000000000000, 0.0000000000000000000 ) ) ;
#129 = DIRECTION ( 'NONE',  ( 1.224646799147353454E-16, 0.0000000000000000000, 1.000000000000000000 ) ) ;
#130 = EDGE_CURVE ( 'NONE', #195, #116, #345, .T. ) ;
#131 =( CONVERSION_BASED_UNIT ( 'INCH', #153 ) LENGTH_UNIT ( ) NAMED_UNIT ( #274 ) );
#132 = ORIENTED_EDGE ( 'NONE', *, *, #168, .F. ) ;
#133 = FACE_OUTER_BOUND ( 'NONE', #126, .T. ) ;
#134 = ORIENTED_EDGE ( 'NONE', *, *, #277, .F. ) ;
#135 = ADVANCED_FACE ( 'NONE', ( #133 ), #78, .T. ) ;
#136 = AXIS2_PLACEMENT_3D ( 'NONE', #51, #244, #110 ) ;
#137 = CARTESIAN_POINT ( 'NONE',  ( -0.2212205000000019295, 0.0000000000000000000, 3.267717000000000649 ) ) ;
#138 = CONICAL_SURFACE ( 'NONE', #334, 0.2359842794999999771, 0.1745329251994338082 ) ;
#139 = CARTESIAN_POINT ( 'NONE',  ( -0.1769292794999999530, 2.528366341769458480E-17, 0.0000000000000000000 ) ) ;
#140 = EDGE_CURVE ( 'NONE', #259, #291, #26, .T. ) ;
#141 = CYLINDRICAL_SURFACE ( 'NONE', #272, 0.2359842794999999771 ) ;
#142 = MANIFOLD_SOLID_BREP ( 'Fillet1', #219 ) ;
#143 = DIRECTION ( 'NONE',  ( 1.224646799147353454E-16, 0.0000000000000000000, 1.000000000000000000 ) ) ;
#144 = ORIENTED_EDGE ( 'NONE', *, *, #140, .T. ) ;
#145 = CIRCLE ( 'NONE', #213, 0.2359842794999999771 ) ;
#146 =( LENGTH_UNIT ( ) NAMED_UNIT ( * ) SI_UNIT ( $, .METRE. ) );
#147 = ORIENTED_EDGE ( 'NONE', *, *, #348, .T. ) ;
#148 = ORIENTED_EDGE ( 'NONE', *, *, #25, .F. ) ;
#149 = CARTESIAN_POINT ( 'NONE',  ( 0.0000000000000000000, 0.0000000000000000000, 3.252717000000002301 ) ) ;
#150 = UNCERTAINTY_MEASURE_WITH_UNIT (LENGTH_MEASURE( 1.000000000000000082E-05 ), #199, 'distance_accuracy_value', 'NONE');
#151 = STYLED_ITEM ( 'NONE', ( #155 ), #72 ) ;
#152 = DIRECTION ( 'NONE',  ( 0.0000000000000000000, 0.0000000000000000000, 1.000000000000000000 ) ) ;
#153 = LENGTH_MEASURE_WITH_UNIT ( LENGTH_MEASURE( 0.02539999999999999897 ), #95 );
#154 = CARTESIAN_POINT ( 'NONE',  ( 7.232151672364698504E-18, 0.0000000000000000000, 0.05905500000000001720 ) ) ;
#155 = PRESENTATION_STYLE_ASSIGNMENT (( #320 ) ) ;
#156 = ORIENTED_EDGE ( 'NONE', *, *, #109, .T. ) ;
#157 = DIRECTION ( 'NONE',  ( -0.7071067811865474617, 0.0000000000000000000, -0.7071067811865474617 ) ) ;
#158 = ADVANCED_FACE ( 'NONE', ( #77 ), #306, .T. ) ;
#159 = DIRECTION ( 'NONE',  ( 1.000000000000000000, 0.0000000000000000000, 0.0000000000000000000 ) ) ;
#160 = TOROIDAL_SURFACE ( 'NONE', #314, 0.1769292794999999530, 0.05905500000000000332 ) ;
#161 = AXIS2_PLACEMENT_3D ( 'NONE', #342, #115, #9 ) ;
#162 = CARTESIAN_POINT ( 'NONE',  ( 7.232151672364696963E-18, 0.0000000000000000000, 0.0000000000000000000 ) ) ;
#163 = DIRECTION ( 'NONE',  ( -0.0000000000000000000, -0.0000000000000000000, -1.000000000000000000 ) ) ;
#164 = DIRECTION ( 'NONE',  ( 1.000000000000000000, 0.0000000000000000000, 0.0000000000000000000 ) ) ;
#165 = VECTOR ( 'NONE', #290, 39.37007874015748143 ) ;
#166 = CIRCLE ( 'NONE', #136, 0.05905500000000001720 ) ;
#167 =( NAMED_UNIT ( * ) PLANE_ANGLE_UNIT ( ) SI_UNIT ( $, .RADIAN. ) );
#168 = EDGE_CURVE ( 'NONE', #62, #36, #288, .T. ) ;
#169 = DIRECTION ( 'NONE',  ( 1.000000000000000000, 0.0000000000000000000, -0.0000000000000000000 ) ) ;
#170 = EDGE_LOOP ( 'NONE', ( #253, #122 ) ) ;
#171 = FACE_OUTER_BOUND ( 'NONE', #74, .T. ) ;
#172 = ORIENTED_EDGE ( 'NONE', *, *, #29, .T. ) ;
#173 = CARTESIAN_POINT ( 'NONE',  ( 0.0000000000000000000, 0.0000000000000000000, 0.0000000000000000000 ) ) ;
#174 = ORIENTED_EDGE ( 'NONE', *, *, #224, .F. ) ;
#175 = APPLICATION_PROTOCOL_DEFINITION ( 'draft international standard', 'automotive_design', 1998, #56 ) ;
#176 = VERTEX_POINT ( 'NONE', #137 ) ;
#177 = PRODUCT_CONTEXT ( 'NONE', #56, 'mechanical' ) ;
#178 = ORIENTED_EDGE ( 'NONE', *, *, #287, .F. ) ;
#179 = TOROIDAL_SURFACE ( 'NONE', #7, 0.1769292794999999530, 0.05905500000000000332 ) ;
#180 = DIRECTION ( 'NONE',  ( 0.0000000000000000000, 0.0000000000000000000, -1.000000000000000000 ) ) ;
#181 = PRODUCT ( 'Micro_AECM-1215-3X', 'Micro_AECM-1215-3X', '', ( #177 ) ) ;
#182 = DIRECTION ( 'NONE',  ( -1.224646799147353454E-16, -0.0000000000000000000, -1.000000000000000000 ) ) ;
#183 = ADVANCED_FACE ( 'NONE', ( #108 ), #160, .T. ) ;
#184 = DIRECTION ( 'NONE',  ( -1.000000000000000000, 0.0000000000000000000, 0.0000000000000000000 ) ) ;
#185 = CIRCLE ( 'NONE', #113, 0.2362204999999999999 ) ;
#186 = CARTESIAN_POINT ( 'NONE',  ( -0.2359842794999999771, 0.0000000000000000000, 2.889973925387693713E-17 ) ) ;
#187 = DIRECTION ( 'NONE',  ( -0.0000000000000000000, -0.0000000000000000000, -1.000000000000000000 ) ) ;
#188 = DIRECTION ( 'NONE',  ( 1.000000000000000000, 0.0000000000000000000, 0.0000000000000000000 ) ) ;
#189 = DIRECTION ( 'NONE',  ( 1.000000000000000000, 0.0000000000000000000, 0.0000000000000000000 ) ) ;
#190 = AXIS2_PLACEMENT_3D ( 'NONE', #101, #21, #180 ) ;
#191 = CARTESIAN_POINT ( 'NONE',  ( 0.0000000000000000000, 0.0000000000000000000, 0.0000000000000000000 ) ) ;
#192 =( GEOMETRIC_REPRESENTATION_CONTEXT ( 3 ) GLOBAL_UNCERTAINTY_ASSIGNED_CONTEXT ( ( #282 ) ) GLOBAL_UNIT_ASSIGNED_CONTEXT ( ( #131, #127, #236 ) ) REPRESENTATION_CONTEXT ( 'NONE', 'WORKASPACE' ) );
#193 = CIRCLE ( 'NONE', #251, 0.2362204999999999999 ) ;
#194 =( NAMED_UNIT ( * ) SI_UNIT ( $, .STERADIAN. ) SOLID_ANGLE_UNIT ( ) );
#195 = VERTEX_POINT ( 'NONE', #215 ) ;
#196 = EDGE_CURVE ( 'NONE', #341, #200, #5, .T. ) ;
#197 = ORIENTED_EDGE ( 'NONE', *, *, #91, .T. ) ;
#198 = PRODUCT_DEFINITION ( 'UNKNOWN', '', #102, #331 ) ;
#199 =( CONVERSION_BASED_UNIT ( 'INCH', #85 ) LENGTH_UNIT ( ) NAMED_UNIT ( #80 ) );
#200 = VERTEX_POINT ( 'NONE', #139 ) ;
#201 = EDGE_LOOP ( 'NONE', ( #148, #34, #174, #92 ) ) ;
#202 = ORIENTED_EDGE ( 'NONE', *, *, #231, .T. ) ;
#203 = PRODUCT_RELATED_PRODUCT_CATEGORY ( 'part', '', ( #181 ) ) ;
#204 = MECHANICAL_DESIGN_GEOMETRIC_PRESENTATION_REPRESENTATION (  '', ( #209 ), #234 ) ;
#205 = VECTOR ( 'NONE', #157, 39.37007874015748854 ) ;
#206 = ORIENTED_EDGE ( 'NONE', *, *, #224, .T. ) ;
#207 = CARTESIAN_POINT ( 'NONE',  ( 1.446432783766537492E-16, 0.0000000000000000000, 1.181102000000000096 ) ) ;
#208 = CARTESIAN_POINT ( 'NONE',  ( -0.2359842794999998383, 2.889973925387693713E-17, 1.181102000000000096 ) ) ;
#209 = STYLED_ITEM ( 'NONE', ( #326 ), #142 ) ;
#210 = CARTESIAN_POINT ( 'NONE',  ( 1.446432783766537492E-16, 0.0000000000000000000, 1.181102000000000096 ) ) ;
#211 =( NAMED_UNIT ( * ) PLANE_ANGLE_UNIT ( ) SI_UNIT ( $, .RADIAN. ) );
#212 = CARTESIAN_POINT ( 'NONE',  ( 0.2362204999999999999, 2.892866792179872647E-17, 3.267717000000000649 ) ) ;
#213 = AXIS2_PLACEMENT_3D ( 'NONE', #207, #45, #315 ) ;
#214 = ADVANCED_FACE ( 'NONE', ( #79 ), #141, .T. ) ;
#215 = CARTESIAN_POINT ( 'NONE',  ( -0.2362204999999999999, 0.0000000000000000000, 3.252717000000002301 ) ) ;
#216 = DIRECTION ( 'NONE',  ( 0.1736481776669313026, 0.0000000000000000000, 0.9848077530122077983 ) ) ;
#217 = AXIS2_PLACEMENT_3D ( 'NONE', #250, #258, #169 ) ;
#218 = ORIENTED_EDGE ( 'NONE', *, *, #301, .F. ) ;
#219 = CLOSED_SHELL ( 'NONE', ( #183, #214, #158, #42, #252, #309, #267, #135, #11, #328, #104, #238 ) ) ;
#220 = AXIS2_PLACEMENT_3D ( 'NONE', #81, #143, #164 ) ;
#221 = APPLICATION_CONTEXT ( 'automotive_design' ) ;
#222 = DIRECTION ( 'NONE',  ( 1.000000000000000000, 0.0000000000000000000, 0.0000000000000000000 ) ) ;
#223 = ORIENTED_EDGE ( 'NONE', *, *, #25, .T. ) ;
#224 = EDGE_CURVE ( 'NONE', #195, #259, #269, .T. ) ;
#225 = DIRECTION ( 'NONE',  ( 0.0000000000000000000, 0.0000000000000000000, 1.000000000000000000 ) ) ;
#226 = ORIENTED_EDGE ( 'NONE', *, *, #52, .F. ) ;
#227 = CARTESIAN_POINT ( 'NONE',  ( 0.2362204999999999999, 2.892866792179872647E-17, 3.252717000000002301 ) ) ;
#228 = CARTESIAN_POINT ( 'NONE',  ( -0.2359842794999998383, 2.891420358783783796E-17, 1.181102000000000096 ) ) ;
#229 = ORIENTED_EDGE ( 'NONE', *, *, #196, .F. ) ;
#230 = SURFACE_SIDE_STYLE ('',( #19 ) ) ;
#231 = EDGE_CURVE ( 'NONE', #200, #36, #166, .T. ) ;
#232 = PLANE ( 'NONE',  #263 ) ;
#233 = CARTESIAN_POINT ( 'NONE',  ( 0.0000000000000000000, 0.0000000000000000000, 3.267717000000000649 ) ) ;
#234 =( GEOMETRIC_REPRESENTATION_CONTEXT ( 3 ) GLOBAL_UNCERTAINTY_ASSIGNED_CONTEXT ( ( #304 ) ) GLOBAL_UNIT_ASSIGNED_CONTEXT ( ( #2, #211, #31 ) ) REPRESENTATION_CONTEXT ( 'NONE', 'WORKASPACE' ) );
#235 = CIRCLE ( 'NONE', #298, 0.2359842794999999771 ) ;
#236 =( NAMED_UNIT ( * ) SI_UNIT ( $, .STERADIAN. ) SOLID_ANGLE_UNIT ( ) );
#237 = DIRECTION ( 'NONE',  ( 1.000000000000000000, 0.0000000000000000000, -0.0000000000000000000 ) ) ;
#238 = ADVANCED_FACE ( 'NONE', ( #247 ), #179, .T. ) ;
#239 = ORIENTED_EDGE ( 'NONE', *, *, #14, .F. ) ;
#240 = CARTESIAN_POINT ( 'NONE',  ( -0.2212205000000019295, 0.0000000000000000000, 3.267717000000000649 ) ) ;
#241 = AXIS2_PLACEMENT_3D ( 'NONE', #162, #28, #273 ) ;
#242 = VECTOR ( 'NONE', #340, 39.37007874015748854 ) ;
#243 = DIRECTION ( 'NONE',  ( -1.000000000000000000, 0.0000000000000000000, 1.224646799147353454E-16 ) ) ;
#244 = DIRECTION ( 'NONE',  ( 1.224646799147353207E-16, 1.000000000000000000, -0.0000000000000000000 ) ) ;
#245 = FILL_AREA_STYLE_COLOUR ( '', #107 ) ;
#246 = EDGE_CURVE ( 'NONE', #176, #13, #327, .T. ) ;
#247 = FACE_OUTER_BOUND ( 'NONE', #312, .T. ) ;
#248 = DIRECTION ( 'NONE',  ( 1.000000000000000000, 0.0000000000000000000, 0.0000000000000000000 ) ) ;
#249 = CARTESIAN_POINT ( 'NONE',  ( 0.0000000000000000000, 0.0000000000000000000, 3.267717000000000649 ) ) ;
#250 = CARTESIAN_POINT ( 'NONE',  ( 0.0000000000000000000, 0.0000000000000000000, 3.267717000000000649 ) ) ;
#251 = AXIS2_PLACEMENT_3D ( 'NONE', #285, #280, #305 ) ;
#252 = ADVANCED_FACE ( 'NONE', ( #307 ), #118, .T. ) ;
#253 = ORIENTED_EDGE ( 'NONE', *, *, #196, .T. ) ;
#254 = CIRCLE ( 'NONE', #322, 0.2359842794999999771 ) ;
#255 = AXIS2_PLACEMENT_3D ( 'NONE', #106, #325, #248 ) ;
#256 = EDGE_LOOP ( 'NONE', ( #313, #8, #337, #119 ) ) ;
#257 = ORIENTED_EDGE ( 'NONE', *, *, #246, .T. ) ;
#258 = DIRECTION ( 'NONE',  ( 0.0000000000000000000, 0.0000000000000000000, 1.000000000000000000 ) ) ;
#259 = VERTEX_POINT ( 'NONE', #227 ) ;
#260 = DIRECTION ( 'NONE',  ( 1.000000000000000000, 0.0000000000000000000, 0.0000000000000000000 ) ) ;
#261 = CARTESIAN_POINT ( 'NONE',  ( 1.448073410051044337E-16, 0.0000000000000000000, 1.182441673027071261 ) ) ;
#262 = FACE_OUTER_BOUND ( 'NONE', #170, .T. ) ;
#263 = AXIS2_PLACEMENT_3D ( 'NONE', #265, #20, #237 ) ;
#264 = DIRECTION ( 'NONE',  ( 1.000000000000000000, 0.0000000000000000000, 0.0000000000000000000 ) ) ;
#265 = CARTESIAN_POINT ( 'NONE',  ( 0.0000000000000000000, 0.0000000000000000000, 0.0000000000000000000 ) ) ;
#266 = ORIENTED_EDGE ( 'NONE', *, *, #130, .T. ) ;
#267 = ADVANCED_FACE ( 'NONE', ( #12 ), #38, .T. ) ;
#268 =( LENGTH_UNIT ( ) NAMED_UNIT ( * ) SI_UNIT ( $, .METRE. ) );
#269 = CIRCLE ( 'NONE', #336, 0.2362204999999999999 ) ;
#270 = PRODUCT_DEFINITION_SHAPE ( 'NONE', 'NONE',  #198 ) ;
#271 = AXIS2_PLACEMENT_3D ( 'NONE', #233, #152, #17 ) ;
#272 = AXIS2_PLACEMENT_3D ( 'NONE', #191, #53, #243 ) ;
#273 = DIRECTION ( 'NONE',  ( 1.000000000000000000, 0.0000000000000000000, 0.0000000000000000000 ) ) ;
#274 = DIMENSIONAL_EXPONENTS ( 1.000000000000000000, 0.0000000000000000000, 0.0000000000000000000, 0.0000000000000000000, 0.0000000000000000000, 0.0000000000000000000, 0.0000000000000000000 ) ;
#275 = SURFACE_STYLE_USAGE ( .BOTH. , #82 ) ;
#276 = DIRECTION ( 'NONE',  ( 0.0000000000000000000, 0.0000000000000000000, -1.000000000000000000 ) ) ;
#277 = EDGE_CURVE ( 'NONE', #259, #195, #41, .T. ) ;
#278 = DIRECTION ( 'NONE',  ( 0.0000000000000000000, 0.0000000000000000000, -1.000000000000000000 ) ) ;
#279 = EDGE_LOOP ( 'NONE', ( #90, #202, #132, #37 ) ) ;
#280 = DIRECTION ( 'NONE',  ( -1.224646799147353454E-16, -0.0000000000000000000, -1.000000000000000000 ) ) ;
#281 = VECTOR ( 'NONE', #163, 39.37007874015748143 ) ;
#282 = UNCERTAINTY_MEASURE_WITH_UNIT (LENGTH_MEASURE( 1.000000000000000082E-05 ), #131, 'distance_accuracy_value', 'NONE');
#283 = DIRECTION ( 'NONE',  ( 1.000000000000000000, 0.0000000000000000000, 0.0000000000000000000 ) ) ;
#284 = ORIENTED_EDGE ( 'NONE', *, *, #14, .T. ) ;
#285 = CARTESIAN_POINT ( 'NONE',  ( 1.448073410051044337E-16, 0.0000000000000000000, 1.182441673027071261 ) ) ;
#286 = ORIENTED_EDGE ( 'NONE', *, *, #140, .F. ) ;
#287 = EDGE_CURVE ( 'NONE', #116, #291, #193, .T. ) ;
#288 = CIRCLE ( 'NONE', #255, 0.2359842794999999771 ) ;
#289 = VECTOR ( 'NONE', #216, 39.37007874015748143 ) ;
#290 = DIRECTION ( 'NONE',  ( -0.0000000000000000000, -0.0000000000000000000, -1.000000000000000000 ) ) ;
#291 = VERTEX_POINT ( 'NONE', #61 ) ;
#292 = FILL_AREA_STYLE_COLOUR ( '', #83 ) ;
#293 = FACE_OUTER_BOUND ( 'NONE', #343, .T. ) ;
#294 = DIRECTION ( 'NONE',  ( -1.224646799147353454E-16, -0.0000000000000000000, -1.000000000000000000 ) ) ;
#295 = CARTESIAN_POINT ( 'NONE',  ( -0.2359842794999999771, 0.0000000000000000000, 0.05905500000000001720 ) ) ;
#296 = EDGE_CURVE ( 'NONE', #13, #259, #111, .T. ) ;
#297 = DIRECTION ( 'NONE',  ( 1.000000000000000000, 0.0000000000000000000, 0.0000000000000000000 ) ) ;
#298 = AXIS2_PLACEMENT_3D ( 'NONE', #154, #43, #98 ) ;
#299 = PRESENTATION_LAYER_ASSIGNMENT (  '', '', ( #151 ) ) ;
#300 = CARTESIAN_POINT ( 'NONE',  ( 7.232151672364696963E-18, 0.0000000000000000000, 0.05905500000000000332 ) ) ;
#301 = EDGE_CURVE ( 'NONE', #308, #62, #15, .T. ) ;
#302 = CARTESIAN_POINT ( 'NONE',  ( 0.0000000000000000000, 0.0000000000000000000, 3.252717000000002301 ) ) ;
#303 = DIRECTION ( 'NONE',  ( 0.0000000000000000000, 0.0000000000000000000, 1.000000000000000000 ) ) ;
#304 = UNCERTAINTY_MEASURE_WITH_UNIT (LENGTH_MEASURE( 1.000000000000000082E-05 ), #2, 'distance_accuracy_value', 'NONE');
#305 = DIRECTION ( 'NONE',  ( 1.000000000000000000, 0.0000000000000000000, 0.0000000000000000000 ) ) ;
#306 = CONICAL_SURFACE ( 'NONE', #220, 0.2359842794999999771, 0.1745329251994338082 ) ;
#307 = FACE_OUTER_BOUND ( 'NONE', #40, .T. ) ;
#308 = VERTEX_POINT ( 'NONE', #125 ) ;
#309 = ADVANCED_FACE ( 'NONE', ( #33 ), #6, .T. ) ;
#310 = LINE ( 'NONE', #93, #289 ) ;
#311 = VERTEX_POINT ( 'NONE', #228 ) ;
#312 = EDGE_LOOP ( 'NONE', ( #64, #229, #112, #96 ) ) ;
#313 = ORIENTED_EDGE ( 'NONE', *, *, #91, .F. ) ;
#314 = AXIS2_PLACEMENT_3D ( 'NONE', #76, #303, #189 ) ;
#315 = DIRECTION ( 'NONE',  ( -1.000000000000000000, 0.0000000000000000000, 0.0000000000000000000 ) ) ;
#316 = VECTOR ( 'NONE', #121, 39.37007874015748143 ) ;
#317 = CARTESIAN_POINT ( 'NONE',  ( 0.0000000000000000000, 0.0000000000000000000, 0.0000000000000000000 ) ) ;
#318 = LINE ( 'NONE', #186, #66 ) ;
#319 = ORIENTED_EDGE ( 'NONE', *, *, #117, .T. ) ;
#320 = SURFACE_STYLE_USAGE ( .BOTH. , #230 ) ;
#321 = DIRECTION ( 'NONE',  ( -1.224646799147353454E-16, -0.0000000000000000000, -1.000000000000000000 ) ) ;
#322 = AXIS2_PLACEMENT_3D ( 'NONE', #350, #182, #184 ) ;
#323 = VECTOR ( 'NONE', #71, 39.37007874015747433 ) ;
#324 = CARTESIAN_POINT ( 'NONE',  ( -0.2362204999999999999, 0.0000000000000000000, 3.267717000000000649 ) ) ;
#325 = DIRECTION ( 'NONE',  ( 0.0000000000000000000, 0.0000000000000000000, 1.000000000000000000 ) ) ;
#326 = PRESENTATION_STYLE_ASSIGNMENT (( #275 ) ) ;
#327 = CIRCLE ( 'NONE', #24, 0.2212205000000019295 ) ;
#328 = ADVANCED_FACE ( 'NONE', ( #171 ), #344, .T. ) ;
#329 = AXIS2_PLACEMENT_3D ( 'NONE', #349, #187, #260 ) ;
#330 = LENGTH_MEASURE_WITH_UNIT ( LENGTH_MEASURE( 0.02539999999999999897 ), #268 );
#331 = PRODUCT_DEFINITION_CONTEXT ( 'detailed design', #221, 'design' ) ;
#332 = CARTESIAN_POINT ( 'NONE',  ( 0.0000000000000000000, 0.0000000000000000000, 3.267717000000000649 ) ) ;
#333 = AXIS2_PLACEMENT_3D ( 'NONE', #317, #68, #264 ) ;
#334 = AXIS2_PLACEMENT_3D ( 'NONE', #210, #129, #46 ) ;
#335 = DIRECTION ( 'NONE',  ( -1.224646799147353454E-16, -0.0000000000000000000, -1.000000000000000000 ) ) ;
#336 = AXIS2_PLACEMENT_3D ( 'NONE', #302, #276, #188 ) ;
#337 = ORIENTED_EDGE ( 'NONE', *, *, #287, .T. ) ;
#338 = CARTESIAN_POINT ( 'NONE',  ( 0.2359842794999999771, 2.889973925387693713E-17, -2.889973925387693713E-17 ) ) ;
#339 = ORIENTED_EDGE ( 'NONE', *, *, #277, .T. ) ;
#340 = DIRECTION ( 'NONE',  ( 0.7071067811865474617, 8.659560562354932858E-17, -0.7071067811865474617 ) ) ;
#341 = VERTEX_POINT ( 'NONE', #89 ) ;
#342 = CARTESIAN_POINT ( 'NONE',  ( 0.0000000000000000000, 0.0000000000000000000, 3.267717000000000649 ) ) ;
#343 = EDGE_LOOP ( 'NONE', ( #226, #63, #147, #172 ) ) ;
#344 = CYLINDRICAL_SURFACE ( 'NONE', #84, 0.2359842794999999771 ) ;
#345 = LINE ( 'NONE', #324, #165 ) ;
#346 = CARTESIAN_POINT ( 'NONE',  ( 0.0000000000000000000, 0.0000000000000000000, 3.267717000000000649 ) ) ;
#347 = CIRCLE ( 'NONE', #190, 0.05905500000000000332 ) ;
#348 = EDGE_CURVE ( 'NONE', #308, #291, #310, .T. ) ;
#349 = CARTESIAN_POINT ( 'NONE',  ( 7.232151672364696963E-18, 0.0000000000000000000, 0.0000000000000000000 ) ) ;
#350 = CARTESIAN_POINT ( 'NONE',  ( 1.446432783766537492E-16, 0.0000000000000000000, 1.181102000000000096 ) ) ;
#351 = DIRECTION ( 'NONE',  ( -1.000000000000000000, 0.0000000000000000000, 0.0000000000000000000 ) ) ;
ENDSEC;
END-ISO-10303-21;
