ISO-10303-21;
HEADER;
FILE_DESCRIPTION (( 'STEP AP214' ),
    '1' );
FILE_NAME ('Micro_SFA-125-22.STEP',
    '2021-09-02T03:36:50',
    ( '' ),
    ( '' ),
    'SwSTEP 2.0',
    'SolidWorks 2020',
    '' );
FILE_SCHEMA (( 'AUTOMOTIVE_DESIGN' ));
ENDSEC;

DATA;
#1 = DIRECTION ( 'NONE',  ( 0.1736481776669312471, 0.0000000000000000000, 0.9848077530122077983 ) ) ;
#2 = ORIENTED_EDGE ( 'NONE', *, *, #218, .F. ) ;
#3 = AXIS2_PLACEMENT_3D ( 'NONE', #229, #238, #170 ) ;
#4 =( NAMED_UNIT ( * ) SI_UNIT ( $, .STERADIAN. ) SOLID_ANGLE_UNIT ( ) );
#5 = DIRECTION ( 'NONE',  ( 0.0000000000000000000, 0.0000000000000000000, 1.000000000000000000 ) ) ;
#6 = AXIS2_PLACEMENT_3D ( 'NONE', #88, #252, #272 ) ;
#7 =( NAMED_UNIT ( * ) SI_UNIT ( $, .STERADIAN. ) SOLID_ANGLE_UNIT ( ) );
#8 = DIRECTION ( 'NONE',  ( 0.0000000000000000000, 0.0000000000000000000, 1.000000000000000000 ) ) ;
#9 = VERTEX_POINT ( 'NONE', #21 ) ;
#10 = EDGE_CURVE ( 'NONE', #243, #33, #151, .T. ) ;
#11 =( LENGTH_UNIT ( ) NAMED_UNIT ( * ) SI_UNIT ( $, .METRE. ) );
#12 = ORIENTED_EDGE ( 'NONE', *, *, #10, .T. ) ;
#13 = UNCERTAINTY_MEASURE_WITH_UNIT (LENGTH_MEASURE( 1.000000000000000082E-05 ), #278, 'distance_accuracy_value', 'NONE');
#14 = LINE ( 'NONE', #85, #239 ) ;
#15 = EDGE_LOOP ( 'NONE', ( #31, #203, #138, #12 ) ) ;
#16 = VECTOR ( 'NONE', #1, 39.37007874015748143 ) ;
#17 = CYLINDRICAL_SURFACE ( 'NONE', #230, 0.06243749999999999994 ) ;
#18 = ADVANCED_FACE ( 'NONE', ( #226 ), #275, .T. ) ;
#19 = DIRECTION ( 'NONE',  ( 1.224646799147353454E-16, 0.0000000000000000000, 1.000000000000000000 ) ) ;
#20 = DIRECTION ( 'NONE',  ( -1.224646799147353454E-16, -0.0000000000000000000, -1.000000000000000000 ) ) ;
#21 = CARTESIAN_POINT ( 'NONE',  ( 0.06243750000000001382, 7.646388452176287375E-18, 0.0000000000000000000 ) ) ;
#22 = FILL_AREA_STYLE_COLOUR ( '', #215 ) ;
#23 = SURFACE_STYLE_USAGE ( .BOTH. , #92 ) ;
#24 = DIRECTION ( 'NONE',  ( 1.000000000000000000, 0.0000000000000000000, 0.0000000000000000000 ) ) ;
#25 = AXIS2_PLACEMENT_3D ( 'NONE', #128, #5, #196 ) ;
#26 = CARTESIAN_POINT ( 'NONE',  ( 9.364125142994979186E-34, 0.0000000000000000000, 7.646388452176288915E-18 ) ) ;
#27 = CARTESIAN_POINT ( 'NONE',  ( 0.04750000000000064587, 6.735557395310482421E-18, 1.500000000000000222 ) ) ;
#28 =( LENGTH_UNIT ( ) NAMED_UNIT ( * ) SI_UNIT ( $, .METRE. ) );
#29 = SURFACE_STYLE_FILL_AREA ( #219 ) ;
#30 = ADVANCED_FACE ( 'NONE', ( #42 ), #296, .F. ) ;
#31 = ORIENTED_EDGE ( 'NONE', *, *, #91, .F. ) ;
#32 = EDGE_CURVE ( 'NONE', #9, #110, #142, .T. ) ;
#33 = VERTEX_POINT ( 'NONE', #116 ) ;
#34 = AXIS2_PLACEMENT_3D ( 'NONE', #93, #44, #174 ) ;
#35 = MANIFOLD_SOLID_BREP ( 'Cut-Revolve1', #98 ) ;
#36 = DIMENSIONAL_EXPONENTS ( 1.000000000000000000, 0.0000000000000000000, 0.0000000000000000000, 0.0000000000000000000, 0.0000000000000000000, 0.0000000000000000000, 0.0000000000000000000 ) ;
#37 = ORIENTED_EDGE ( 'NONE', *, *, #179, .T. ) ;
#38 = AXIS2_PLACEMENT_3D ( 'NONE', #188, #137, #63 ) ;
#39 = VERTEX_POINT ( 'NONE', #280 ) ;
#40 = DIRECTION ( 'NONE',  ( 1.000000000000000000, 0.0000000000000000000, 0.0000000000000000000 ) ) ;
#41 = VECTOR ( 'NONE', #55, 39.37007874015748854 ) ;
#42 = FACE_OUTER_BOUND ( 'NONE', #75, .T. ) ;
#43 = FACE_OUTER_BOUND ( 'NONE', #269, .T. ) ;
#44 = DIRECTION ( 'NONE',  ( -1.224646799147353454E-16, -0.0000000000000000000, -1.000000000000000000 ) ) ;
#45 = EDGE_CURVE ( 'NONE', #33, #243, #197, .T. ) ;
#46 = DIRECTION ( 'NONE',  ( -1.224646799147353454E-16, -0.0000000000000000000, -1.000000000000000000 ) ) ;
#47 = VECTOR ( 'NONE', #102, 39.37007874015748143 ) ;
#48 =( GEOMETRIC_REPRESENTATION_CONTEXT ( 3 ) GLOBAL_UNCERTAINTY_ASSIGNED_CONTEXT ( ( #290 ) ) GLOBAL_UNIT_ASSIGNED_CONTEXT ( ( #129, #181, #7 ) ) REPRESENTATION_CONTEXT ( 'NONE', 'WORKASPACE' ) );
#49 = FACE_OUTER_BOUND ( 'NONE', #112, .T. ) ;
#50 = ORIENTED_EDGE ( 'NONE', *, *, #228, .T. ) ;
#51 = APPLICATION_PROTOCOL_DEFINITION ( 'draft international standard', 'automotive_design', 1998, #71 ) ;
#52 = ORIENTED_EDGE ( 'NONE', *, *, #124, .F. ) ;
#53 = VERTEX_POINT ( 'NONE', #258 ) ;
#54 = CONICAL_SURFACE ( 'NONE', #177, 0.06243749999999999301, 0.1745329251994337527 ) ;
#55 = DIRECTION ( 'NONE',  ( -0.1736481776669310251, 2.126576849575781468E-17, 0.9848077530122080203 ) ) ;
#56 = CARTESIAN_POINT ( 'NONE',  ( 0.0000000000000000000, 0.0000000000000000000, 1.485000000000000764 ) ) ;
#57 = ADVANCED_FACE ( 'NONE', ( #43 ), #103, .T. ) ;
#58 = DIRECTION ( 'NONE',  ( -1.000000000000000000, 0.0000000000000000000, 0.0000000000000000000 ) ) ;
#59 =( GEOMETRIC_REPRESENTATION_CONTEXT ( 3 ) GLOBAL_UNCERTAINTY_ASSIGNED_CONTEXT ( ( #78 ) ) GLOBAL_UNIT_ASSIGNED_CONTEXT ( ( #284, #70, #4 ) ) REPRESENTATION_CONTEXT ( 'NONE', 'WORKASPACE' ) );
#60 = DIRECTION ( 'NONE',  ( 0.0000000000000000000, 0.0000000000000000000, 1.000000000000000000 ) ) ;
#61 = DIRECTION ( 'NONE',  ( 0.0000000000000000000, 0.0000000000000000000, -1.000000000000000000 ) ) ;
#62 = ORIENTED_EDGE ( 'NONE', *, *, #237, .T. ) ;
#63 = DIRECTION ( 'NONE',  ( -1.000000000000000000, 0.0000000000000000000, 0.0000000000000000000 ) ) ;
#64 = ORIENTED_EDGE ( 'NONE', *, *, #234, .F. ) ;
#65 =( GEOMETRIC_REPRESENTATION_CONTEXT ( 3 ) GLOBAL_UNCERTAINTY_ASSIGNED_CONTEXT ( ( #13 ) ) GLOBAL_UNIT_ASSIGNED_CONTEXT ( ( #278, #255, #96 ) ) REPRESENTATION_CONTEXT ( 'NONE', 'WORKASPACE' ) );
#66 = CIRCLE ( 'NONE', #195, 0.06250000000000000000 ) ;
#67 = DIRECTION ( 'NONE',  ( -1.224646799147353454E-16, -0.0000000000000000000, -1.000000000000000000 ) ) ;
#68 = ADVANCED_FACE ( 'NONE', ( #164 ), #180, .T. ) ;
#69 = EDGE_CURVE ( 'NONE', #189, #292, #117, .T. ) ;
#70 =( NAMED_UNIT ( * ) PLANE_ANGLE_UNIT ( ) SI_UNIT ( $, .RADIAN. ) );
#71 = APPLICATION_CONTEXT ( 'automotive_design' ) ;
#72 = FACE_OUTER_BOUND ( 'NONE', #222, .T. ) ;
#73 = AXIS2_PLACEMENT_3D ( 'NONE', #206, #168, #291 ) ;
#74 = LENGTH_MEASURE_WITH_UNIT ( LENGTH_MEASURE( 0.02539999999999999897 ), #11 );
#75 = EDGE_LOOP ( 'NONE', ( #133, #191 ) ) ;
#76 = EDGE_CURVE ( 'NONE', #292, #189, #66, .T. ) ;
#77 = ORIENTED_EDGE ( 'NONE', *, *, #45, .T. ) ;
#78 = UNCERTAINTY_MEASURE_WITH_UNIT (LENGTH_MEASURE( 1.000000000000000082E-05 ), #284, 'distance_accuracy_value', 'NONE');
#79 = PRESENTATION_STYLE_ASSIGNMENT (( #147 ) ) ;
#80 = VERTEX_POINT ( 'NONE', #166 ) ;
#81 = DIRECTION ( 'NONE',  ( -1.224646799147353454E-16, -0.0000000000000000000, -1.000000000000000000 ) ) ;
#82 = CARTESIAN_POINT ( 'NONE',  ( 0.0000000000000000000, 0.0000000000000000000, 0.0000000000000000000 ) ) ;
#83 = ORIENTED_EDGE ( 'NONE', *, *, #228, .F. ) ;
#84 = AXIS2_PLACEMENT_3D ( 'NONE', #126, #286, #263 ) ;
#85 = CARTESIAN_POINT ( 'NONE',  ( -0.06250000000000000000, 0.0000000000000000000, 1.500000000000000222 ) ) ;
#86 = EDGE_LOOP ( 'NONE', ( #2, #200, #289, #52 ) ) ;
#87 = CARTESIAN_POINT ( 'NONE',  ( 9.364125142994979186E-34, 0.0000000000000000000, 7.646388452176288915E-18 ) ) ;
#88 = CARTESIAN_POINT ( 'NONE',  ( 0.0000000000000000000, 0.0000000000000000000, 1.485000000000000764 ) ) ;
#89 = DIRECTION ( 'NONE',  ( 1.000000000000000000, 0.0000000000000000000, 0.0000000000000000000 ) ) ;
#90 = CIRCLE ( 'NONE', #154, 0.06243749999999999301 ) ;
#91 = EDGE_CURVE ( 'NONE', #39, #33, #249, .T. ) ;
#92 = SURFACE_SIDE_STYLE ('',( #169 ) ) ;
#93 = CARTESIAN_POINT ( 'NONE',  ( 3.061616997868383634E-17, 0.0000000000000000000, 0.2500000000000000000 ) ) ;
#94 = EDGE_CURVE ( 'NONE', #53, #39, #90, .T. ) ;
#95 = DIRECTION ( 'NONE',  ( 1.000000000000000000, 0.0000000000000000000, 0.0000000000000000000 ) ) ;
#96 =( NAMED_UNIT ( * ) SI_UNIT ( $, .STERADIAN. ) SOLID_ANGLE_UNIT ( ) );
#97 = CIRCLE ( 'NONE', #135, 0.06243750000000001382 ) ;
#98 = CLOSED_SHELL ( 'NONE', ( #172, #57, #68, #175, #18, #132, #143, #121, #211, #30 ) ) ;
#99 = CARTESIAN_POINT ( 'NONE',  ( 0.06243749999999999994, 7.646388452176287375E-18, -7.646388452176288915E-18 ) ) ;
#100 = EDGE_CURVE ( 'NONE', #292, #33, #14, .T. ) ;
#101 = AXIS2_PLACEMENT_3D ( 'NONE', #167, #294, #227 ) ;
#102 = DIRECTION ( 'NONE',  ( -1.224646799147353454E-16, -0.0000000000000000000, -1.000000000000000000 ) ) ;
#103 = CONICAL_SURFACE ( 'NONE', #212, 0.06243749999999999301, 0.1745329251994337527 ) ;
#104 = ORIENTED_EDGE ( 'NONE', *, *, #152, .F. ) ;
#105 = ORIENTED_EDGE ( 'NONE', *, *, #76, .T. ) ;
#106 = SHAPE_DEFINITION_REPRESENTATION ( #136, #246 ) ;
#107 = ORIENTED_EDGE ( 'NONE', *, *, #218, .T. ) ;
#108 = EDGE_CURVE ( 'NONE', #182, #189, #233, .T. ) ;
#109 = CARTESIAN_POINT ( 'NONE',  ( 0.06250000000000000000, 7.654042494670956004E-18, 1.500000000000000222 ) ) ;
#110 = VERTEX_POINT ( 'NONE', #123 ) ;
#111 = CARTESIAN_POINT ( 'NONE',  ( 0.0000000000000000000, 0.0000000000000000000, 0.0000000000000000000 ) ) ;
#112 = EDGE_LOOP ( 'NONE', ( #83, #242, #248, #273 ) ) ;
#113 = DIRECTION ( 'NONE',  ( -1.000000000000000000, 0.0000000000000000000, 1.224646799147353207E-16 ) ) ;
#114 = EDGE_CURVE ( 'NONE', #53, #243, #194, .T. ) ;
#115 = CARTESIAN_POINT ( 'NONE',  ( 0.0000000000000000000, 0.0000000000000000000, 1.500000000000000222 ) ) ;
#116 = CARTESIAN_POINT ( 'NONE',  ( -0.06249999999999996531, 0.0000000000000000000, 0.2503544551137261154 ) ) ;
#117 = CIRCLE ( 'NONE', #6, 0.06250000000000000000 ) ;
#118 = LENGTH_MEASURE_WITH_UNIT ( LENGTH_MEASURE( 0.02539999999999999897 ), #141 );
#119 = CARTESIAN_POINT ( 'NONE',  ( 0.04750000000000064587, 5.817072295950006528E-18, 1.500000000000000222 ) ) ;
#120 = DIRECTION ( 'NONE',  ( -1.224646799147353454E-16, -0.0000000000000000000, -1.000000000000000000 ) ) ;
#121 = ADVANCED_FACE ( 'NONE', ( #122 ), #54, .T. ) ;
#122 = FACE_OUTER_BOUND ( 'NONE', #15, .T. ) ;
#123 = CARTESIAN_POINT ( 'NONE',  ( -0.06243750000000001382, 0.0000000000000000000, 1.529277690435257783E-17 ) ) ;
#124 = EDGE_CURVE ( 'NONE', #80, #292, #193, .T. ) ;
#125 = CARTESIAN_POINT ( 'NONE',  ( 0.06250000000000000000, 7.654042494670956004E-18, 1.485000000000000764 ) ) ;
#126 = CARTESIAN_POINT ( 'NONE',  ( 0.0000000000000000000, 0.0000000000000000000, 1.500000000000000222 ) ) ;
#127 = PRESENTATION_LAYER_ASSIGNMENT (  '', '', ( #293 ) ) ;
#128 = CARTESIAN_POINT ( 'NONE',  ( 0.0000000000000000000, 0.0000000000000000000, 1.500000000000000222 ) ) ;
#129 =( CONVERSION_BASED_UNIT ( 'INCH', #74 ) LENGTH_UNIT ( ) NAMED_UNIT ( #276 ) );
#130 = SURFACE_SIDE_STYLE ('',( #29 ) ) ;
#131 = ORIENTED_EDGE ( 'NONE', *, *, #91, .T. ) ;
#132 = ADVANCED_FACE ( 'NONE', ( #225 ), #204, .T. ) ;
#133 = ORIENTED_EDGE ( 'NONE', *, *, #234, .T. ) ;
#134 = CARTESIAN_POINT ( 'NONE',  ( -0.06243749999999999994, 0.0000000000000000000, 7.646388452176288915E-18 ) ) ;
#135 = AXIS2_PLACEMENT_3D ( 'NONE', #26, #46, #236 ) ;
#136 = PRODUCT_DEFINITION_SHAPE ( 'NONE', 'NONE',  #271 ) ;
#137 = DIRECTION ( 'NONE',  ( 0.0000000000000000000, 0.0000000000000000000, -1.000000000000000000 ) ) ;
#138 = ORIENTED_EDGE ( 'NONE', *, *, #114, .T. ) ;
#139 = LINE ( 'NONE', #134, #148 ) ;
#140 = CARTESIAN_POINT ( 'NONE',  ( -0.06243749999999995831, 7.646388452176285834E-18, 0.2500000000000000000 ) ) ;
#141 =( LENGTH_UNIT ( ) NAMED_UNIT ( * ) SI_UNIT ( $, .METRE. ) );
#142 = CIRCLE ( 'NONE', #163, 0.06243750000000001382 ) ;
#143 = ADVANCED_FACE ( 'NONE', ( #295 ), #202, .T. ) ;
#144 = AXIS2_PLACEMENT_3D ( 'NONE', #82, #8, #217 ) ;
#145 = CYLINDRICAL_SURFACE ( 'NONE', #84, 0.06250000000000000000 ) ;
#146 = CARTESIAN_POINT ( 'NONE',  ( 3.061616997868383634E-17, 0.0000000000000000000, 0.2500000000000000000 ) ) ;
#147 = SURFACE_STYLE_USAGE ( .BOTH. , #130 ) ;
#148 = VECTOR ( 'NONE', #81, 39.37007874015748143 ) ;
#149 = DIRECTION ( 'NONE',  ( -1.224646799147353454E-16, -0.0000000000000000000, -1.000000000000000000 ) ) ;
#150 = DIRECTION ( 'NONE',  ( -1.224646799147353454E-16, -0.0000000000000000000, -1.000000000000000000 ) ) ;
#151 = CIRCLE ( 'NONE', #162, 0.06250000000000000000 ) ;
#152 = EDGE_CURVE ( 'NONE', #189, #243, #270, .T. ) ;
#153 = DIRECTION ( 'NONE',  ( -1.000000000000000000, 0.0000000000000000000, 1.224646799147353700E-16 ) ) ;
#154 = AXIS2_PLACEMENT_3D ( 'NONE', #158, #245, #161 ) ;
#155 = ORIENTED_EDGE ( 'NONE', *, *, #108, .F. ) ;
#156 = EDGE_CURVE ( 'NONE', #39, #110, #139, .T. ) ;
#157 = ORIENTED_EDGE ( 'NONE', *, *, #100, .F. ) ;
#158 = CARTESIAN_POINT ( 'NONE',  ( 3.061616997868383634E-17, 0.0000000000000000000, 0.2500000000000000000 ) ) ;
#159 = ORIENTED_EDGE ( 'NONE', *, *, #156, .F. ) ;
#160 = DIRECTION ( 'NONE',  ( 1.000000000000000000, 0.0000000000000000000, -0.0000000000000000000 ) ) ;
#161 = DIRECTION ( 'NONE',  ( -1.000000000000000000, 0.0000000000000000000, 0.0000000000000000000 ) ) ;
#162 = AXIS2_PLACEMENT_3D ( 'NONE', #208, #20, #89 ) ;
#163 = AXIS2_PLACEMENT_3D ( 'NONE', #87, #120, #113 ) ;
#164 = FACE_OUTER_BOUND ( 'NONE', #86, .T. ) ;
#165 = DIRECTION ( 'NONE',  ( 1.000000000000000000, 0.0000000000000000000, 0.0000000000000000000 ) ) ;
#166 = CARTESIAN_POINT ( 'NONE',  ( -0.04750000000000064587, 0.0000000000000000000, 1.500000000000000222 ) ) ;
#167 = CARTESIAN_POINT ( 'NONE',  ( 0.0000000000000000000, 0.0000000000000000000, 0.0000000000000000000 ) ) ;
#168 = DIRECTION ( 'NONE',  ( 0.0000000000000000000, 0.0000000000000000000, -1.000000000000000000 ) ) ;
#169 = SURFACE_STYLE_FILL_AREA ( #297 ) ;
#170 = DIRECTION ( 'NONE',  ( 1.000000000000000000, 0.0000000000000000000, 0.0000000000000000000 ) ) ;
#171 = CARTESIAN_POINT ( 'NONE',  ( 3.061616997868383634E-17, 0.0000000000000000000, 0.2500000000000000000 ) ) ;
#172 = ADVANCED_FACE ( 'NONE', ( #224 ), #17, .T. ) ;
#173 = VECTOR ( 'NONE', #285, 39.37007874015748143 ) ;
#174 = DIRECTION ( 'NONE',  ( -1.000000000000000000, 0.0000000000000000000, 0.0000000000000000000 ) ) ;
#175 = ADVANCED_FACE ( 'NONE', ( #72 ), #145, .T. ) ;
#176 = CYLINDRICAL_SURFACE ( 'NONE', #207, 0.06243749999999999994 ) ;
#177 = AXIS2_PLACEMENT_3D ( 'NONE', #171, #190, #95 ) ;
#178 = ORIENTED_EDGE ( 'NONE', *, *, #100, .T. ) ;
#179 = EDGE_CURVE ( 'NONE', #39, #53, #247, .T. ) ;
#180 = CONICAL_SURFACE ( 'NONE', #38, 0.04750000000000064587, 0.7853981633974457255 ) ;
#181 =( NAMED_UNIT ( * ) PLANE_ANGLE_UNIT ( ) SI_UNIT ( $, .RADIAN. ) );
#182 = VERTEX_POINT ( 'NONE', #27 ) ;
#183 = DIMENSIONAL_EXPONENTS ( 1.000000000000000000, 0.0000000000000000000, 0.0000000000000000000, 0.0000000000000000000, 0.0000000000000000000, 0.0000000000000000000, 0.0000000000000000000 ) ;
#184 = EDGE_LOOP ( 'NONE', ( #62, #107 ) ) ;
#185 = ORIENTED_EDGE ( 'NONE', *, *, #237, .F. ) ;
#186 = VECTOR ( 'NONE', #259, 39.37007874015748143 ) ;
#187 = EDGE_LOOP ( 'NONE', ( #104, #277, #178, #221 ) ) ;
#188 = CARTESIAN_POINT ( 'NONE',  ( 0.0000000000000000000, 0.0000000000000000000, 1.500000000000000222 ) ) ;
#189 = VERTEX_POINT ( 'NONE', #125 ) ;
#190 = DIRECTION ( 'NONE',  ( 1.224646799147353454E-16, 0.0000000000000000000, 1.000000000000000000 ) ) ;
#191 = ORIENTED_EDGE ( 'NONE', *, *, #32, .T. ) ;
#192 = AXIS2_PLACEMENT_3D ( 'NONE', #115, #60, #160 ) ;
#193 = LINE ( 'NONE', #281, #173 ) ;
#194 = LINE ( 'NONE', #262, #16 ) ;
#195 = AXIS2_PLACEMENT_3D ( 'NONE', #56, #61, #40 ) ;
#196 = DIRECTION ( 'NONE',  ( 1.000000000000000000, 0.0000000000000000000, 0.0000000000000000000 ) ) ;
#197 = CIRCLE ( 'NONE', #282, 0.06250000000000000000 ) ;
#198 = ORIENTED_EDGE ( 'NONE', *, *, #152, .T. ) ;
#199 = PRODUCT_DEFINITION_CONTEXT ( 'detailed design', #71, 'design' ) ;
#200 = ORIENTED_EDGE ( 'NONE', *, *, #108, .T. ) ;
#201 = PRODUCT ( 'Micro_SFA-125-22', 'Micro_SFA-125-22', '', ( #268 ) ) ;
#202 = CONICAL_SURFACE ( 'NONE', #73, 0.04750000000000064587, 0.7853981633974457255 ) ;
#203 = ORIENTED_EDGE ( 'NONE', *, *, #94, .F. ) ;
#204 = PLANE ( 'NONE',  #192 ) ;
#205 = CARTESIAN_POINT ( 'NONE',  ( 0.0000000000000000000, 0.0000000000000000000, 1.500000000000000222 ) ) ;
#206 = CARTESIAN_POINT ( 'NONE',  ( 0.0000000000000000000, 0.0000000000000000000, 1.500000000000000222 ) ) ;
#207 = AXIS2_PLACEMENT_3D ( 'NONE', #214, #150, #266 ) ;
#208 = CARTESIAN_POINT ( 'NONE',  ( 3.065957821073044867E-17, 0.0000000000000000000, 0.2503544551137261154 ) ) ;
#209 = PRESENTATION_STYLE_ASSIGNMENT (( #23 ) ) ;
#210 = ORIENTED_EDGE ( 'NONE', *, *, #45, .F. ) ;
#211 = ADVANCED_FACE ( 'NONE', ( #49 ), #176, .T. ) ;
#212 = AXIS2_PLACEMENT_3D ( 'NONE', #146, #19, #24 ) ;
#213 = STYLED_ITEM ( 'NONE', ( #79 ), #246 ) ;
#214 = CARTESIAN_POINT ( 'NONE',  ( 0.0000000000000000000, 0.0000000000000000000, 0.0000000000000000000 ) ) ;
#215 = COLOUR_RGB ( '',0.7921568627450980005, 0.8196078431372548767, 0.9333333333333333481 ) ;
#216 = LENGTH_MEASURE_WITH_UNIT ( LENGTH_MEASURE( 0.02539999999999999897 ), #28 );
#217 = DIRECTION ( 'NONE',  ( 1.000000000000000000, 0.0000000000000000000, 0.0000000000000000000 ) ) ;
#218 = EDGE_CURVE ( 'NONE', #182, #80, #279, .T. ) ;
#219 = FILL_AREA_STYLE ('',( #241 ) ) ;
#220 = ORIENTED_EDGE ( 'NONE', *, *, #179, .F. ) ;
#221 = ORIENTED_EDGE ( 'NONE', *, *, #10, .F. ) ;
#222 = EDGE_LOOP ( 'NONE', ( #105, #198, #210, #157 ) ) ;
#223 = MECHANICAL_DESIGN_GEOMETRIC_PRESENTATION_REPRESENTATION (  '', ( #293 ), #65 ) ;
#224 = FACE_OUTER_BOUND ( 'NONE', #287, .T. ) ;
#225 = FACE_OUTER_BOUND ( 'NONE', #184, .T. ) ;
#226 = FACE_OUTER_BOUND ( 'NONE', #187, .T. ) ;
#227 = DIRECTION ( 'NONE',  ( 1.000000000000000000, 0.0000000000000000000, -0.0000000000000000000 ) ) ;
#228 = EDGE_CURVE ( 'NONE', #53, #9, #264, .T. ) ;
#229 = CARTESIAN_POINT ( 'NONE',  ( 0.0000000000000000000, 0.0000000000000000000, 1.500000000000000222 ) ) ;
#230 = AXIS2_PLACEMENT_3D ( 'NONE', #111, #149, #153 ) ;
#231 = CARTESIAN_POINT ( 'NONE',  ( 3.065957821073044867E-17, 0.0000000000000000000, 0.2503544551137261154 ) ) ;
#232 = PRESENTATION_LAYER_ASSIGNMENT (  '', '', ( #213 ) ) ;
#233 = LINE ( 'NONE', #119, #186 ) ;
#234 = EDGE_CURVE ( 'NONE', #110, #9, #97, .T. ) ;
#235 = PRODUCT_DEFINITION_FORMATION_WITH_SPECIFIED_SOURCE ( 'ANY', '', #201, .NOT_KNOWN. ) ;
#236 = DIRECTION ( 'NONE',  ( -1.000000000000000000, 0.0000000000000000000, 1.224646799147353207E-16 ) ) ;
#237 = EDGE_CURVE ( 'NONE', #80, #182, #244, .T. ) ;
#238 = DIRECTION ( 'NONE',  ( 0.0000000000000000000, 0.0000000000000000000, 1.000000000000000000 ) ) ;
#239 = VECTOR ( 'NONE', #257, 39.37007874015748143 ) ;
#240 = CARTESIAN_POINT ( 'NONE',  ( -0.06250000000000000000, 0.0000000000000000000, 1.485000000000000764 ) ) ;
#241 = FILL_AREA_STYLE_COLOUR ( '', #274 ) ;
#242 = ORIENTED_EDGE ( 'NONE', *, *, #94, .T. ) ;
#243 = VERTEX_POINT ( 'NONE', #283 ) ;
#244 = CIRCLE ( 'NONE', #3, 0.04750000000000064587 ) ;
#245 = DIRECTION ( 'NONE',  ( -1.224646799147353454E-16, -0.0000000000000000000, -1.000000000000000000 ) ) ;
#246 = ADVANCED_BREP_SHAPE_REPRESENTATION ( 'Micro_SFA-125-22', ( #35, #144 ), #59 ) ;
#247 = CIRCLE ( 'NONE', #34, 0.06243749999999999301 ) ;
#248 = ORIENTED_EDGE ( 'NONE', *, *, #156, .T. ) ;
#249 = LINE ( 'NONE', #140, #41 ) ;
#250 = EDGE_LOOP ( 'NONE', ( #155, #185, #267, #288 ) ) ;
#251 = DIRECTION ( 'NONE',  ( -0.0000000000000000000, -0.0000000000000000000, -1.000000000000000000 ) ) ;
#252 = DIRECTION ( 'NONE',  ( 0.0000000000000000000, 0.0000000000000000000, -1.000000000000000000 ) ) ;
#253 = DIRECTION ( 'NONE',  ( -0.0000000000000000000, -0.0000000000000000000, -1.000000000000000000 ) ) ;
#254 = AXIS2_PLACEMENT_3D ( 'NONE', #205, #253, #58 ) ;
#255 =( NAMED_UNIT ( * ) PLANE_ANGLE_UNIT ( ) SI_UNIT ( $, .RADIAN. ) );
#256 = MECHANICAL_DESIGN_GEOMETRIC_PRESENTATION_REPRESENTATION (  '', ( #213 ), #48 ) ;
#257 = DIRECTION ( 'NONE',  ( -0.0000000000000000000, -0.0000000000000000000, -1.000000000000000000 ) ) ;
#258 = CARTESIAN_POINT ( 'NONE',  ( 0.06243750000000002770, 0.0000000000000000000, 0.2500000000000000000 ) ) ;
#259 = DIRECTION ( 'NONE',  ( 0.7071067811865456854, 8.659560562354911904E-17, -0.7071067811865493491 ) ) ;
#260 = VECTOR ( 'NONE', #251, 39.37007874015748143 ) ;
#261 = PRODUCT_RELATED_PRODUCT_CATEGORY ( 'part', '', ( #201 ) ) ;
#262 = CARTESIAN_POINT ( 'NONE',  ( 0.06243750000000002770, 0.0000000000000000000, 0.2500000000000000000 ) ) ;
#263 = DIRECTION ( 'NONE',  ( -1.000000000000000000, 0.0000000000000000000, 0.0000000000000000000 ) ) ;
#264 = LINE ( 'NONE', #99, #47 ) ;
#265 = APPLICATION_CONTEXT ( 'automotive_design' ) ;
#266 = DIRECTION ( 'NONE',  ( -1.000000000000000000, 0.0000000000000000000, 1.224646799147353700E-16 ) ) ;
#267 = ORIENTED_EDGE ( 'NONE', *, *, #124, .T. ) ;
#268 = PRODUCT_CONTEXT ( 'NONE', #265, 'mechanical' ) ;
#269 = EDGE_LOOP ( 'NONE', ( #220, #131, #77, #299 ) ) ;
#270 = LINE ( 'NONE', #109, #260 ) ;
#271 = PRODUCT_DEFINITION ( 'UNKNOWN', '', #235, #199 ) ;
#272 = DIRECTION ( 'NONE',  ( 1.000000000000000000, 0.0000000000000000000, 0.0000000000000000000 ) ) ;
#273 = ORIENTED_EDGE ( 'NONE', *, *, #32, .F. ) ;
#274 = COLOUR_RGB ( '',0.7921568627450980005, 0.8196078431372548767, 0.9333333333333333481 ) ;
#275 = CYLINDRICAL_SURFACE ( 'NONE', #254, 0.06250000000000000000 ) ;
#276 = DIMENSIONAL_EXPONENTS ( 1.000000000000000000, 0.0000000000000000000, 0.0000000000000000000, 0.0000000000000000000, 0.0000000000000000000, 0.0000000000000000000, 0.0000000000000000000 ) ;
#277 = ORIENTED_EDGE ( 'NONE', *, *, #69, .T. ) ;
#278 =( CONVERSION_BASED_UNIT ( 'INCH', #118 ) LENGTH_UNIT ( ) NAMED_UNIT ( #183 ) );
#279 = CIRCLE ( 'NONE', #25, 0.04750000000000064587 ) ;
#280 = CARTESIAN_POINT ( 'NONE',  ( -0.06243749999999995831, 7.650215473423621689E-18, 0.2500000000000000000 ) ) ;
#281 = CARTESIAN_POINT ( 'NONE',  ( -0.04750000000000064587, 0.0000000000000000000, 1.500000000000000222 ) ) ;
#282 = AXIS2_PLACEMENT_3D ( 'NONE', #231, #67, #165 ) ;
#283 = CARTESIAN_POINT ( 'NONE',  ( 0.06250000000000002776, 7.654042494670959086E-18, 0.2503544551137261154 ) ) ;
#284 =( CONVERSION_BASED_UNIT ( 'INCH', #216 ) LENGTH_UNIT ( ) NAMED_UNIT ( #36 ) );
#285 = DIRECTION ( 'NONE',  ( -0.7071067811865456854, 0.0000000000000000000, -0.7071067811865493491 ) ) ;
#286 = DIRECTION ( 'NONE',  ( -0.0000000000000000000, -0.0000000000000000000, -1.000000000000000000 ) ) ;
#287 = EDGE_LOOP ( 'NONE', ( #37, #50, #64, #159 ) ) ;
#288 = ORIENTED_EDGE ( 'NONE', *, *, #69, .F. ) ;
#289 = ORIENTED_EDGE ( 'NONE', *, *, #76, .F. ) ;
#290 = UNCERTAINTY_MEASURE_WITH_UNIT (LENGTH_MEASURE( 1.000000000000000082E-05 ), #129, 'distance_accuracy_value', 'NONE');
#291 = DIRECTION ( 'NONE',  ( -1.000000000000000000, 0.0000000000000000000, 0.0000000000000000000 ) ) ;
#292 = VERTEX_POINT ( 'NONE', #240 ) ;
#293 = STYLED_ITEM ( 'NONE', ( #209 ), #35 ) ;
#294 = DIRECTION ( 'NONE',  ( 0.0000000000000000000, 0.0000000000000000000, 1.000000000000000000 ) ) ;
#295 = FACE_OUTER_BOUND ( 'NONE', #250, .T. ) ;
#296 = PLANE ( 'NONE',  #101 ) ;
#297 = FILL_AREA_STYLE ('',( #22 ) ) ;
#298 = APPLICATION_PROTOCOL_DEFINITION ( 'draft international standard', 'automotive_design', 1998, #265 ) ;
#299 = ORIENTED_EDGE ( 'NONE', *, *, #114, .F. ) ;
ENDSEC;
END-ISO-10303-21;
