ISO-10303-21;
HEADER;
FILE_DESCRIPTION (( 'STEP AP214' ),
    '1' );
FILE_NAME ('Micro_BMR-045-2.STEP',
    '2021-09-03T14:11:13',
    ( '' ),
    ( '' ),
    'SwSTEP 2.0',
    'SolidWorks 2020',
    '' );
FILE_SCHEMA (( 'AUTOMOTIVE_DESIGN' ));
ENDSEC;

DATA;
#1 = DIRECTION ( 'NONE',  ( 1.000000000000000000, 0.0000000000000000000, 0.0000000000000000000 ) ) ;
#2 = FACE_OUTER_BOUND ( 'NONE', #97, .T. ) ;
#3 = ADVANCED_FACE ( 'NONE', ( #2 ), #65, .T. ) ;
#4 = VECTOR ( 'NONE', #301, 39.37007874015748143 ) ;
#5 = ORIENTED_EDGE ( 'NONE', *, *, #71, .F. ) ;
#6 = EDGE_CURVE ( 'NONE', #192, #138, #28, .T. ) ;
#7 = FILL_AREA_STYLE ('',( #178 ) ) ;
#8 = DIRECTION ( 'NONE',  ( 1.000000000000000000, 0.0000000000000000000, 0.0000000000000000000 ) ) ;
#9 =( CONVERSION_BASED_UNIT ( 'INCH', #107 ) LENGTH_UNIT ( ) NAMED_UNIT ( #281 ) );
#10 = CARTESIAN_POINT ( 'NONE',  ( 4.129049764175195028E-18, 0.0000000000000000000, 0.0000000000000000000 ) ) ;
#11 = DIRECTION ( 'NONE',  ( 0.0000000000000000000, 0.0000000000000000000, -1.000000000000000000 ) ) ;
#12 = ADVANCED_FACE ( 'NONE', ( #128 ), #265, .T. ) ;
#13 = FACE_OUTER_BOUND ( 'NONE', #222, .T. ) ;
#14 = CARTESIAN_POINT ( 'NONE',  ( 0.0000000000000000000, 0.0000000000000000000, 0.0000000000000000000 ) ) ;
#15 = EDGE_CURVE ( 'NONE', #89, #298, #116, .T. ) ;
#16 = CIRCLE ( 'NONE', #241, 0.02247750000000000095 ) ;
#17 = APPLICATION_PROTOCOL_DEFINITION ( 'draft international standard', 'automotive_design', 1998, #63 ) ;
#18 = ADVANCED_FACE ( 'NONE', ( #261 ), #83, .T. ) ;
#19 = UNCERTAINTY_MEASURE_WITH_UNIT (LENGTH_MEASURE( 1.000000000000000082E-05 ), #9, 'distance_accuracy_value', 'NONE');
#20 = LINE ( 'NONE', #221, #216 ) ;
#21 =( GEOMETRIC_REPRESENTATION_CONTEXT ( 3 ) GLOBAL_UNCERTAINTY_ASSIGNED_CONTEXT ( ( #220 ) ) GLOBAL_UNIT_ASSIGNED_CONTEXT ( ( #106, #188, #67 ) ) REPRESENTATION_CONTEXT ( 'NONE', 'WORKASPACE' ) );
#22 = EDGE_LOOP ( 'NONE', ( #232, #307, #185, #187 ) ) ;
#23 = FACE_OUTER_BOUND ( 'NONE', #272, .T. ) ;
#24 = ORIENTED_EDGE ( 'NONE', *, *, #245, .T. ) ;
#25 = CARTESIAN_POINT ( 'NONE',  ( 0.02247750000000000442, 2.752699842783463224E-18, 0.02247749999999999748 ) ) ;
#26 = ORIENTED_EDGE ( 'NONE', *, *, #86, .T. ) ;
#27 = CARTESIAN_POINT ( 'NONE',  ( 1.653273178848927175E-17, 0.0000000000000000000, 0.1350000000000000089 ) ) ;
#28 = CIRCLE ( 'NONE', #184, 0.02247750000000000095 ) ;
#29 = VECTOR ( 'NONE', #39, 39.37007874015748143 ) ;
#30 = ORIENTED_EDGE ( 'NONE', *, *, #324, .T. ) ;
#31 = CARTESIAN_POINT ( 'NONE',  ( -0.02247749999999998360, 2.752699842783463224E-18, 0.1350000000000000089 ) ) ;
#32 = ORIENTED_EDGE ( 'NONE', *, *, #129, .F. ) ;
#33 = ADVANCED_FACE ( 'NONE', ( #104 ), #255, .T. ) ;
#34 = APPLICATION_PROTOCOL_DEFINITION ( 'draft international standard', 'automotive_design', 1998, #152 ) ;
#35 = DIRECTION ( 'NONE',  ( -1.224646799147353454E-16, -0.0000000000000000000, -1.000000000000000000 ) ) ;
#36 = DIRECTION ( 'NONE',  ( -1.000000000000000000, 0.0000000000000000000, 0.0000000000000000000 ) ) ;
#37 = AXIS2_PLACEMENT_3D ( 'NONE', #319, #98, #193 ) ;
#38 = DIMENSIONAL_EXPONENTS ( 1.000000000000000000, 0.0000000000000000000, 0.0000000000000000000, 0.0000000000000000000, 0.0000000000000000000, 0.0000000000000000000, 0.0000000000000000000 ) ;
#39 = DIRECTION ( 'NONE',  ( -0.0000000000000000000, -0.0000000000000000000, -1.000000000000000000 ) ) ;
#40 = CARTESIAN_POINT ( 'NONE',  ( 2.752699842783463994E-18, 0.0000000000000000000, 0.02247750000000000095 ) ) ;
#41 = DIRECTION ( 'NONE',  ( 1.000000000000000000, 0.0000000000000000000, 0.0000000000000000000 ) ) ;
#42 = MANIFOLD_SOLID_BREP ( 'Fillet1', #170 ) ;
#43 =( NAMED_UNIT ( * ) PLANE_ANGLE_UNIT ( ) SI_UNIT ( $, .RADIAN. ) );
#44 = EDGE_CURVE ( 'NONE', #121, #204, #323, .T. ) ;
#45 = AXIS2_PLACEMENT_3D ( 'NONE', #250, #127, #146 ) ;
#46 = CARTESIAN_POINT ( 'NONE',  ( 0.0000000000000000000, 0.0000000000000000000, 0.0000000000000000000 ) ) ;
#47 = PRODUCT_CONTEXT ( 'NONE', #152, 'mechanical' ) ;
#48 = EDGE_LOOP ( 'NONE', ( #219, #274, #5 ) ) ;
#49 = CARTESIAN_POINT ( 'NONE',  ( -0.04750000000000064587, 0.0000000000000000000, 1.500000000000000222 ) ) ;
#50 = CONICAL_SURFACE ( 'NONE', #205, 0.02247750000000000095, 0.1745329251994338637 ) ;
#51 = ORIENTED_EDGE ( 'NONE', *, *, #268, .F. ) ;
#52 = LINE ( 'NONE', #262, #29 ) ;
#53 = ADVANCED_BREP_SHAPE_REPRESENTATION ( 'Micro_BMR-045-2', ( #42, #284 ), #21 ) ;
#54 = DIRECTION ( 'NONE',  ( -0.0000000000000000000, -0.0000000000000000000, -1.000000000000000000 ) ) ;
#55 = DIRECTION ( 'NONE',  ( 0.7071067811865462405, 8.659560562354916834E-17, -0.7071067811865486830 ) ) ;
#56 = CONICAL_SURFACE ( 'NONE', #252, 0.04750000000000064587, 0.7853981633974466137 ) ;
#57 = CARTESIAN_POINT ( 'NONE',  ( 0.04750000000000064587, 6.735557395310483192E-18, 1.500000000000000222 ) ) ;
#58 = ADVANCED_FACE ( 'NONE', ( #214 ), #140, .T. ) ;
#59 = ORIENTED_EDGE ( 'NONE', *, *, #245, .F. ) ;
#60 = DIRECTION ( 'NONE',  ( 0.0000000000000000000, 0.0000000000000000000, -1.000000000000000000 ) ) ;
#61 = PRODUCT_DEFINITION_SHAPE ( 'NONE', 'NONE',  #227 ) ;
#62 = AXIS2_PLACEMENT_3D ( 'NONE', #131, #112, #207 ) ;
#63 = APPLICATION_CONTEXT ( 'automotive_design' ) ;
#64 = ORIENTED_EDGE ( 'NONE', *, *, #86, .F. ) ;
#65 = CYLINDRICAL_SURFACE ( 'NONE', #196, 0.06250000000000002776 ) ;
#66 = CARTESIAN_POINT ( 'NONE',  ( 0.0000000000000000000, 0.0000000000000000000, 1.500000000000000222 ) ) ;
#67 =( NAMED_UNIT ( * ) SI_UNIT ( $, .STERADIAN. ) SOLID_ANGLE_UNIT ( ) );
#68 = CIRCLE ( 'NONE', #95, 0.04750000000000064587 ) ;
#69 = AXIS2_PLACEMENT_3D ( 'NONE', #321, #225, #102 ) ;
#70 = DIRECTION ( 'NONE',  ( 0.0000000000000000000, 0.0000000000000000000, 1.000000000000000000 ) ) ;
#71 = EDGE_CURVE ( 'NONE', #298, #89, #228, .T. ) ;
#72 = ORIENTED_EDGE ( 'NONE', *, *, #278, .F. ) ;
#73 = CARTESIAN_POINT ( 'NONE',  ( -0.04750000000000064587, 0.0000000000000000000, 1.500000000000000222 ) ) ;
#74 = AXIS2_PLACEMENT_3D ( 'NONE', #91, #35, #236 ) ;
#75 = AXIS2_PLACEMENT_3D ( 'NONE', #223, #195, #294 ) ;
#76 = DIRECTION ( 'NONE',  ( -0.0000000000000000000, -0.0000000000000000000, -1.000000000000000000 ) ) ;
#77 = EDGE_CURVE ( 'NONE', #121, #198, #100, .T. ) ;
#78 = CARTESIAN_POINT ( 'NONE',  ( 0.04750000000000064587, 5.817072295950006528E-18, 1.500000000000000222 ) ) ;
#79 = ORIENTED_EDGE ( 'NONE', *, *, #6, .F. ) ;
#80 = CARTESIAN_POINT ( 'NONE',  ( 0.0000000000000000000, 0.0000000000000000000, 1.500000000000000222 ) ) ;
#81 = DIRECTION ( 'NONE',  ( 1.000000000000000000, 0.0000000000000000000, 0.0000000000000000000 ) ) ;
#82 = VECTOR ( 'NONE', #55, 39.37007874015748854 ) ;
#83 = CYLINDRICAL_SURFACE ( 'NONE', #74, 0.02247750000000000095 ) ;
#84 = ORIENTED_EDGE ( 'NONE', *, *, #267, .F. ) ;
#85 = VERTEX_POINT ( 'NONE', #230 ) ;
#86 = EDGE_CURVE ( 'NONE', #138, #269, #199, .T. ) ;
#87 = DIRECTION ( 'NONE',  ( 1.000000000000000000, 0.0000000000000000000, -0.0000000000000000000 ) ) ;
#88 = VECTOR ( 'NONE', #54, 39.37007874015748143 ) ;
#89 = VERTEX_POINT ( 'NONE', #25 ) ;
#90 = DIRECTION ( 'NONE',  ( 0.0000000000000000000, 0.0000000000000000000, 1.000000000000000000 ) ) ;
#91 = CARTESIAN_POINT ( 'NONE',  ( 0.0000000000000000000, 0.0000000000000000000, 0.0000000000000000000 ) ) ;
#92 =( LENGTH_UNIT ( ) NAMED_UNIT ( * ) SI_UNIT ( $, .METRE. ) );
#93 = DIRECTION ( 'NONE',  ( 1.000000000000000000, 0.0000000000000000000, 0.0000000000000000000 ) ) ;
#94 = EDGE_CURVE ( 'NONE', #320, #85, #297, .T. ) ;
#95 = AXIS2_PLACEMENT_3D ( 'NONE', #258, #90, #213 ) ;
#96 = EDGE_CURVE ( 'NONE', #204, #320, #169, .T. ) ;
#97 = EDGE_LOOP ( 'NONE', ( #292, #118, #59, #72 ) ) ;
#98 = DIRECTION ( 'NONE',  ( -1.224646799147353454E-16, -0.0000000000000000000, -1.000000000000000000 ) ) ;
#99 = DIRECTION ( 'NONE',  ( 0.1736481776669313581, 0.0000000000000000000, 0.9848077530122077983 ) ) ;
#100 = LINE ( 'NONE', #73, #115 ) ;
#101 = DIRECTION ( 'NONE',  ( -0.7071067811865462405, 0.0000000000000000000, -0.7071067811865486830 ) ) ;
#102 = DIRECTION ( 'NONE',  ( 0.0000000000000000000, 0.0000000000000000000, -1.000000000000000000 ) ) ;
#103 = ORIENTED_EDGE ( 'NONE', *, *, #316, .F. ) ;
#104 = FACE_OUTER_BOUND ( 'NONE', #194, .T. ) ;
#106 =( CONVERSION_BASED_UNIT ( 'INCH', #286 ) LENGTH_UNIT ( ) NAMED_UNIT ( #38 ) );
#105 = PRODUCT ( 'Micro_BMR-045-2', 'Micro_BMR-045-2', '', ( #47 ) ) ;
#107 = LENGTH_MEASURE_WITH_UNIT ( LENGTH_MEASURE( 0.02539999999999999897 ), #237 );
#108 = CARTESIAN_POINT ( 'NONE',  ( 0.0000000000000000000, 0.0000000000000000000, 1.500000000000000222 ) ) ;
#109 = CARTESIAN_POINT ( 'NONE',  ( -0.02247749999999999748, 0.0000000000000000000, 0.02247750000000000442 ) ) ;
#110 = AXIS2_PLACEMENT_3D ( 'NONE', #66, #11, #161 ) ;
#111 = AXIS2_PLACEMENT_3D ( 'NONE', #154, #208, #186 ) ;
#112 = DIRECTION ( 'NONE',  ( 0.0000000000000000000, 1.000000000000000000, 0.0000000000000000000 ) ) ;
#113 = SURFACE_STYLE_USAGE ( .BOTH. , #158 ) ;
#114 = EDGE_CURVE ( 'NONE', #85, #269, #162, .T. ) ;
#115 = VECTOR ( 'NONE', #101, 39.37007874015748854 ) ;
#116 = CIRCLE ( 'NONE', #171, 0.02247750000000000095 ) ;
#117 = DIRECTION ( 'NONE',  ( -1.224646799147353454E-16, -0.0000000000000000000, -1.000000000000000000 ) ) ;
#118 = ORIENTED_EDGE ( 'NONE', *, *, #94, .T. ) ;
#119 = CARTESIAN_POINT ( 'NONE',  ( 0.02247750000000001830, 0.0000000000000000000, 0.1350000000000000089 ) ) ;
#120 = ADVANCED_FACE ( 'NONE', ( #173 ), #50, .T. ) ;
#121 = VERTEX_POINT ( 'NONE', #49 ) ;
#122 = CARTESIAN_POINT ( 'NONE',  ( 4.432962726185554212E-17, 0.0000000000000000000, 0.3619788766256487045 ) ) ;
#123 = ORIENTED_EDGE ( 'NONE', *, *, #44, .F. ) ;
#124 = AXIS2_PLACEMENT_3D ( 'NONE', #80, #76, #275 ) ;
#125 = DIRECTION ( 'NONE',  ( 1.224646799147353454E-16, 0.0000000000000000000, 1.000000000000000000 ) ) ;
#126 = EDGE_LOOP ( 'NONE', ( #202, #254 ) ) ;
#127 = DIRECTION ( 'NONE',  ( 1.224646799147353454E-16, 0.0000000000000000000, 1.000000000000000000 ) ) ;
#128 = FACE_OUTER_BOUND ( 'NONE', #209, .T. ) ;
#129 = EDGE_CURVE ( 'NONE', #296, #89, #271, .T. ) ;
#130 = PRESENTATION_STYLE_ASSIGNMENT (( #113 ) ) ;
#131 = CARTESIAN_POINT ( 'NONE',  ( 2.752699842783463994E-18, 0.0000000000000000000, 0.02247750000000000095 ) ) ;
#132 = PLANE ( 'NONE',  #243 ) ;
#133 = CIRCLE ( 'NONE', #111, 0.02247750000000000095 ) ;
#134 = CARTESIAN_POINT ( 'NONE',  ( 1.653273178848927175E-17, 0.0000000000000000000, 0.1350000000000000089 ) ) ;
#135 = PRODUCT_RELATED_PRODUCT_CATEGORY ( 'part', '', ( #105 ) ) ;
#136 = ORIENTED_EDGE ( 'NONE', *, *, #316, .T. ) ;
#137 = FILL_AREA_STYLE_COLOUR ( '', #317 ) ;
#138 = VERTEX_POINT ( 'NONE', #322 ) ;
#139 = DIRECTION ( 'NONE',  ( 1.224646799147353454E-16, 0.0000000000000000000, 1.000000000000000000 ) ) ;
#140 = CYLINDRICAL_SURFACE ( 'NONE', #218, 0.02247750000000000095 ) ;
#141 = EDGE_CURVE ( 'NONE', #138, #298, #203, .T. ) ;
#142 = COLOUR_RGB ( '',0.7921568627450980005, 0.8196078431372548767, 0.9333333333333333481 ) ;
#143 = ORIENTED_EDGE ( 'NONE', *, *, #77, .F. ) ;
#144 = CARTESIAN_POINT ( 'NONE',  ( 1.653273178848927175E-17, 0.0000000000000000000, 0.1350000000000000089 ) ) ;
#145 = ORIENTED_EDGE ( 'NONE', *, *, #141, .T. ) ;
#146 = DIRECTION ( 'NONE',  ( -1.000000000000000000, 0.0000000000000000000, 1.899015677944794124E-16 ) ) ;
#147 = ORIENTED_EDGE ( 'NONE', *, *, #189, .F. ) ;
#148 = EDGE_LOOP ( 'NONE', ( #147, #26, #24, #84 ) ) ;
#149 = MECHANICAL_DESIGN_GEOMETRIC_PRESENTATION_REPRESENTATION (  '', ( #217 ), #191 ) ;
#150 = DIRECTION ( 'NONE',  ( 0.0000000000000000000, 1.000000000000000000, 0.0000000000000000000 ) ) ;
#151 = DIRECTION ( 'NONE',  ( -1.000000000000000000, 0.0000000000000000000, 0.0000000000000000000 ) ) ;
#152 = APPLICATION_CONTEXT ( 'automotive_design' ) ;
#153 = ORIENTED_EDGE ( 'NONE', *, *, #244, .F. ) ;
#154 = CARTESIAN_POINT ( 'NONE',  ( 2.752699842783463994E-18, 0.0000000000000000000, 0.02247750000000000095 ) ) ;
#155 =( CONVERSION_BASED_UNIT ( 'INCH', #311 ) LENGTH_UNIT ( ) NAMED_UNIT ( #306 ) );
#156 = AXIS2_PLACEMENT_3D ( 'NONE', #312, #139, #8 ) ;
#157 = DIRECTION ( 'NONE',  ( -1.224646799147353454E-16, -0.0000000000000000000, -1.000000000000000000 ) ) ;
#158 = SURFACE_SIDE_STYLE ('',( #181 ) ) ;
#159 = DIRECTION ( 'NONE',  ( -1.000000000000000000, 0.0000000000000000000, 0.0000000000000000000 ) ) ;
#160 = CARTESIAN_POINT ( 'NONE',  ( 0.0000000000000000000, 0.0000000000000000000, 1.500000000000000222 ) ) ;
#161 = DIRECTION ( 'NONE',  ( -1.000000000000000000, 0.0000000000000000000, 0.0000000000000000000 ) ) ;
#162 = CIRCLE ( 'NONE', #257, 0.06250000000000002776 ) ;
#163 =( NAMED_UNIT ( * ) SI_UNIT ( $, .STERADIAN. ) SOLID_ANGLE_UNIT ( ) );
#164 = ADVANCED_FACE ( 'NONE', ( #23 ), #299, .T. ) ;
#165 = MECHANICAL_DESIGN_GEOMETRIC_PRESENTATION_REPRESENTATION (  '', ( #226 ), #309 ) ;
#166 = VECTOR ( 'NONE', #99, 39.37007874015748143 ) ;
#167 = ORIENTED_EDGE ( 'NONE', *, *, #287, .F. ) ;
#168 = UNCERTAINTY_MEASURE_WITH_UNIT (LENGTH_MEASURE( 1.000000000000000082E-05 ), #155, 'distance_accuracy_value', 'NONE');
#169 = LINE ( 'NONE', #78, #82 ) ;
#170 = CLOSED_SHELL ( 'NONE', ( #33, #18, #120, #303, #3, #164, #315, #12, #300, #58, #177 ) ) ;
#171 = AXIS2_PLACEMENT_3D ( 'NONE', #40, #288, #289 ) ;
#172 = CARTESIAN_POINT ( 'NONE',  ( -0.06250000000000002776, 0.0000000000000000000, 1.485000000000000764 ) ) ;
#173 = FACE_OUTER_BOUND ( 'NONE', #148, .T. ) ;
#174 = SPHERICAL_SURFACE ( 'NONE', #264, 0.02247750000000000095 ) ;
#175 = AXIS2_PLACEMENT_3D ( 'NONE', #108, #290, #93 ) ;
#176 = CARTESIAN_POINT ( 'NONE',  ( 0.02247750000000001830, 0.0000000000000000000, 0.1350000000000000089 ) ) ;
#177 = ADVANCED_FACE ( 'NONE', ( #280 ), #174, .T. ) ;
#178 = FILL_AREA_STYLE_COLOUR ( '', #142 ) ;
#179 = CARTESIAN_POINT ( 'NONE',  ( 0.0000000000000000000, 0.0000000000000000000, 1.500000000000000222 ) ) ;
#180 = SURFACE_STYLE_USAGE ( .BOTH. , #210 ) ;
#181 = SURFACE_STYLE_FILL_AREA ( #238 ) ;
#182 = PRODUCT_DEFINITION_CONTEXT ( 'detailed design', #63, 'design' ) ;
#183 = ORIENTED_EDGE ( 'NONE', *, *, #267, .T. ) ;
#184 = AXIS2_PLACEMENT_3D ( 'NONE', #134, #157, #259 ) ;
#185 = ORIENTED_EDGE ( 'NONE', *, *, #15, .T. ) ;
#186 = DIRECTION ( 'NONE',  ( -1.000000000000000000, 1.224646799147353207E-16, 0.0000000000000000000 ) ) ;
#187 = ORIENTED_EDGE ( 'NONE', *, *, #141, .F. ) ;
#188 =( NAMED_UNIT ( * ) PLANE_ANGLE_UNIT ( ) SI_UNIT ( $, .RADIAN. ) );
#189 = EDGE_CURVE ( 'NONE', #138, #192, #16, .T. ) ;
#190 = DIRECTION ( 'NONE',  ( -1.224646799147353454E-16, -0.0000000000000000000, -1.000000000000000000 ) ) ;
#191 =( GEOMETRIC_REPRESENTATION_CONTEXT ( 3 ) GLOBAL_UNCERTAINTY_ASSIGNED_CONTEXT ( ( #168 ) ) GLOBAL_UNIT_ASSIGNED_CONTEXT ( ( #155, #43, #163 ) ) REPRESENTATION_CONTEXT ( 'NONE', 'WORKASPACE' ) );
#192 = VERTEX_POINT ( 'NONE', #176 ) ;
#193 = DIRECTION ( 'NONE',  ( 1.000000000000000000, 0.0000000000000000000, 0.0000000000000000000 ) ) ;
#194 = EDGE_LOOP ( 'NONE', ( #32, #30, #224 ) ) ;
#195 = DIRECTION ( 'NONE',  ( 0.0000000000000000000, 0.0000000000000000000, -1.000000000000000000 ) ) ;
#196 = AXIS2_PLACEMENT_3D ( 'NONE', #263, #302, #159 ) ;
#197 = PRESENTATION_LAYER_ASSIGNMENT (  '', '', ( #217 ) ) ;
#198 = VERTEX_POINT ( 'NONE', #172 ) ;
#199 = LINE ( 'NONE', #31, #266 ) ;
#200 = ORIENTED_EDGE ( 'NONE', *, *, #114, .F. ) ;
#201 = CARTESIAN_POINT ( 'NONE',  ( -0.02247750000000000095, 0.0000000000000000000, 2.752699842783463994E-18 ) ) ;
#202 = ORIENTED_EDGE ( 'NONE', *, *, #44, .T. ) ;
#203 = LINE ( 'NONE', #201, #4 ) ;
#204 = VERTEX_POINT ( 'NONE', #57 ) ;
#205 = AXIS2_PLACEMENT_3D ( 'NONE', #144, #125, #1 ) ;
#206 =( LENGTH_UNIT ( ) NAMED_UNIT ( * ) SI_UNIT ( $, .METRE. ) );
#207 = DIRECTION ( 'NONE',  ( 1.000000000000000000, 0.0000000000000000000, 0.0000000000000000000 ) ) ;
#208 = DIRECTION ( 'NONE',  ( 1.224646799147353207E-16, 1.000000000000000000, -0.0000000000000000000 ) ) ;
#209 = EDGE_LOOP ( 'NONE', ( #239, #123, #279, #103 ) ) ;
#210 = SURFACE_SIDE_STYLE ('',( #304 ) ) ;
#211 = FACE_OUTER_BOUND ( 'NONE', #229, .T. ) ;
#212 = AXIS2_PLACEMENT_3D ( 'NONE', #240, #60, #41 ) ;
#213 = DIRECTION ( 'NONE',  ( 1.000000000000000000, 0.0000000000000000000, 0.0000000000000000000 ) ) ;
#214 = FACE_OUTER_BOUND ( 'NONE', #285, .T. ) ;
#215 = DIRECTION ( 'NONE',  ( 1.000000000000000000, 0.0000000000000000000, 0.0000000000000000000 ) ) ;
#216 = VECTOR ( 'NONE', #117, 39.37007874015748143 ) ;
#217 = STYLED_ITEM ( 'NONE', ( #130 ), #53 ) ;
#218 = AXIS2_PLACEMENT_3D ( 'NONE', #14, #190, #248 ) ;
#219 = ORIENTED_EDGE ( 'NONE', *, *, #324, .F. ) ;
#220 = UNCERTAINTY_MEASURE_WITH_UNIT (LENGTH_MEASURE( 1.000000000000000082E-05 ), #106, 'distance_accuracy_value', 'NONE');
#221 = CARTESIAN_POINT ( 'NONE',  ( 0.02247750000000000095, 2.752699842783463224E-18, -2.752699842783463994E-18 ) ) ;
#222 = EDGE_LOOP ( 'NONE', ( #167, #234, #51, #143 ) ) ;
#223 = CARTESIAN_POINT ( 'NONE',  ( 0.0000000000000000000, 0.0000000000000000000, 1.485000000000000764 ) ) ;
#224 = ORIENTED_EDGE ( 'NONE', *, *, #15, .F. ) ;
#225 = DIRECTION ( 'NONE',  ( 0.0000000000000000000, -1.000000000000000000, 0.0000000000000000000 ) ) ;
#226 = STYLED_ITEM ( 'NONE', ( #283 ), #42 ) ;
#227 = PRODUCT_DEFINITION ( 'UNKNOWN', '', #291, #182 ) ;
#228 = CIRCLE ( 'NONE', #45, 0.02247750000000000095 ) ;
#229 = EDGE_LOOP ( 'NONE', ( #64, #79, #183, #276 ) ) ;
#230 = CARTESIAN_POINT ( 'NONE',  ( 0.06250000000000006939, 7.654042494670963708E-18, 0.3619788766256487045 ) ) ;
#231 = DIRECTION ( 'NONE',  ( 1.000000000000000000, 0.0000000000000000000, 0.0000000000000000000 ) ) ;
#232 = ORIENTED_EDGE ( 'NONE', *, *, #189, .T. ) ;
#233 = FACE_OUTER_BOUND ( 'NONE', #126, .T. ) ;
#234 = ORIENTED_EDGE ( 'NONE', *, *, #96, .T. ) ;
#235 = CIRCLE ( 'NONE', #75, 0.06250000000000002776 ) ;
#236 = DIRECTION ( 'NONE',  ( -1.000000000000000000, 0.0000000000000000000, 1.224646799147353454E-16 ) ) ;
#237 =( LENGTH_UNIT ( ) NAMED_UNIT ( * ) SI_UNIT ( $, .METRE. ) );
#238 = FILL_AREA_STYLE ('',( #137 ) ) ;
#239 = ORIENTED_EDGE ( 'NONE', *, *, #96, .F. ) ;
#240 = CARTESIAN_POINT ( 'NONE',  ( 0.0000000000000000000, 0.0000000000000000000, 1.485000000000000764 ) ) ;
#241 = AXIS2_PLACEMENT_3D ( 'NONE', #27, #253, #151 ) ;
#242 = SHAPE_DEFINITION_REPRESENTATION ( #61, #53 ) ;
#243 = AXIS2_PLACEMENT_3D ( 'NONE', #160, #305, #87 ) ;
#244 = EDGE_CURVE ( 'NONE', #192, #89, #20, .T. ) ;
#245 = EDGE_CURVE ( 'NONE', #269, #85, #314, .T. ) ;
#246 = CIRCLE ( 'NONE', #212, 0.06250000000000002776 ) ;
#247 = ORIENTED_EDGE ( 'NONE', *, *, #6, .T. ) ;
#248 = DIRECTION ( 'NONE',  ( -1.000000000000000000, 0.0000000000000000000, 1.224646799147353454E-16 ) ) ;
#249 = ORIENTED_EDGE ( 'NONE', *, *, #71, .T. ) ;
#250 = CARTESIAN_POINT ( 'NONE',  ( 2.752699842783463994E-18, 0.0000000000000000000, 0.02247750000000000095 ) ) ;
#251 = DIRECTION ( 'NONE',  ( -1.224646799147353454E-16, -0.0000000000000000000, -1.000000000000000000 ) ) ;
#252 = AXIS2_PLACEMENT_3D ( 'NONE', #179, #260, #36 ) ;
#253 = DIRECTION ( 'NONE',  ( -1.224646799147353454E-16, -0.0000000000000000000, -1.000000000000000000 ) ) ;
#254 = ORIENTED_EDGE ( 'NONE', *, *, #287, .T. ) ;
#255 = SPHERICAL_SURFACE ( 'NONE', #62, 0.02247750000000000095 ) ;
#256 = CARTESIAN_POINT ( 'NONE',  ( 0.06250000000000002776, 7.654042494670959086E-18, 1.485000000000000764 ) ) ;
#257 = AXIS2_PLACEMENT_3D ( 'NONE', #122, #251, #231 ) ;
#258 = CARTESIAN_POINT ( 'NONE',  ( 0.0000000000000000000, 0.0000000000000000000, 1.500000000000000222 ) ) ;
#259 = DIRECTION ( 'NONE',  ( -1.000000000000000000, 0.0000000000000000000, 0.0000000000000000000 ) ) ;
#260 = DIRECTION ( 'NONE',  ( 0.0000000000000000000, 0.0000000000000000000, -1.000000000000000000 ) ) ;
#261 = FACE_OUTER_BOUND ( 'NONE', #22, .T. ) ;
#262 = CARTESIAN_POINT ( 'NONE',  ( -0.06250000000000002776, 0.0000000000000000000, 1.500000000000000222 ) ) ;
#263 = CARTESIAN_POINT ( 'NONE',  ( 0.0000000000000000000, 0.0000000000000000000, 1.500000000000000222 ) ) ;
#264 = AXIS2_PLACEMENT_3D ( 'NONE', #277, #150, #81 ) ;
#265 = CONICAL_SURFACE ( 'NONE', #110, 0.04750000000000064587, 0.7853981633974466137 ) ;
#266 = VECTOR ( 'NONE', #270, 39.37007874015747433 ) ;
#267 = EDGE_CURVE ( 'NONE', #192, #85, #293, .T. ) ;
#268 = EDGE_CURVE ( 'NONE', #198, #320, #235, .T. ) ;
#269 = VERTEX_POINT ( 'NONE', #273 ) ;
#270 = DIRECTION ( 'NONE',  ( -0.1736481776669311639, 2.126576849575783008E-17, 0.9848077530122080203 ) ) ;
#271 = CIRCLE ( 'NONE', #69, 0.02247750000000000095 ) ;
#272 = EDGE_LOOP ( 'NONE', ( #282, #136, #318, #200 ) ) ;
#273 = CARTESIAN_POINT ( 'NONE',  ( -0.06249999999999997918, 0.0000000000000000000, 0.3619788766256487045 ) ) ;
#274 = ORIENTED_EDGE ( 'NONE', *, *, #129, .T. ) ;
#275 = DIRECTION ( 'NONE',  ( -1.000000000000000000, 0.0000000000000000000, 0.0000000000000000000 ) ) ;
#276 = ORIENTED_EDGE ( 'NONE', *, *, #114, .T. ) ;
#277 = CARTESIAN_POINT ( 'NONE',  ( 2.752699842783463994E-18, 0.0000000000000000000, 0.02247750000000000095 ) ) ;
#278 = EDGE_CURVE ( 'NONE', #198, #269, #52, .T. ) ;
#279 = ORIENTED_EDGE ( 'NONE', *, *, #77, .T. ) ;
#280 = FACE_OUTER_BOUND ( 'NONE', #48, .T. ) ;
#281 = DIMENSIONAL_EXPONENTS ( 1.000000000000000000, 0.0000000000000000000, 0.0000000000000000000, 0.0000000000000000000, 0.0000000000000000000, 0.0000000000000000000, 0.0000000000000000000 ) ;
#282 = ORIENTED_EDGE ( 'NONE', *, *, #94, .F. ) ;
#283 = PRESENTATION_STYLE_ASSIGNMENT (( #180 ) ) ;
#284 = AXIS2_PLACEMENT_3D ( 'NONE', #46, #70, #215 ) ;
#285 = EDGE_LOOP ( 'NONE', ( #153, #247, #145, #249 ) ) ;
#286 = LENGTH_MEASURE_WITH_UNIT ( LENGTH_MEASURE( 0.02539999999999999897 ), #92 );
#287 = EDGE_CURVE ( 'NONE', #204, #121, #68, .T. ) ;
#288 = DIRECTION ( 'NONE',  ( 1.224646799147353454E-16, 0.0000000000000000000, 1.000000000000000000 ) ) ;
#289 = DIRECTION ( 'NONE',  ( -1.000000000000000000, 0.0000000000000000000, 1.899015677944794124E-16 ) ) ;
#290 = DIRECTION ( 'NONE',  ( 0.0000000000000000000, 0.0000000000000000000, 1.000000000000000000 ) ) ;
#291 = PRODUCT_DEFINITION_FORMATION_WITH_SPECIFIED_SOURCE ( 'ANY', '', #105, .NOT_KNOWN. ) ;
#292 = ORIENTED_EDGE ( 'NONE', *, *, #268, .T. ) ;
#293 = LINE ( 'NONE', #119, #166 ) ;
#294 = DIRECTION ( 'NONE',  ( 1.000000000000000000, 0.0000000000000000000, 0.0000000000000000000 ) ) ;
#295 = CONICAL_SURFACE ( 'NONE', #156, 0.02247750000000000095, 0.1745329251994338637 ) ;
#296 = VERTEX_POINT ( 'NONE', #10 ) ;
#297 = LINE ( 'NONE', #325, #88 ) ;
#298 = VERTEX_POINT ( 'NONE', #109 ) ;
#299 = CYLINDRICAL_SURFACE ( 'NONE', #124, 0.06250000000000002776 ) ;
#300 = ADVANCED_FACE ( 'NONE', ( #211 ), #295, .T. ) ;
#301 = DIRECTION ( 'NONE',  ( -1.224646799147353454E-16, -0.0000000000000000000, -1.000000000000000000 ) ) ;
#302 = DIRECTION ( 'NONE',  ( -0.0000000000000000000, -0.0000000000000000000, -1.000000000000000000 ) ) ;
#303 = ADVANCED_FACE ( 'NONE', ( #13 ), #56, .T. ) ;
#304 = SURFACE_STYLE_FILL_AREA ( #7 ) ;
#305 = DIRECTION ( 'NONE',  ( 0.0000000000000000000, 0.0000000000000000000, 1.000000000000000000 ) ) ;
#306 = DIMENSIONAL_EXPONENTS ( 1.000000000000000000, 0.0000000000000000000, 0.0000000000000000000, 0.0000000000000000000, 0.0000000000000000000, 0.0000000000000000000, 0.0000000000000000000 ) ;
#307 = ORIENTED_EDGE ( 'NONE', *, *, #244, .T. ) ;
#308 = PRESENTATION_LAYER_ASSIGNMENT (  '', '', ( #226 ) ) ;
#309 =( GEOMETRIC_REPRESENTATION_CONTEXT ( 3 ) GLOBAL_UNCERTAINTY_ASSIGNED_CONTEXT ( ( #19 ) ) GLOBAL_UNIT_ASSIGNED_CONTEXT ( ( #9, #310, #313 ) ) REPRESENTATION_CONTEXT ( 'NONE', 'WORKASPACE' ) );
#310 =( NAMED_UNIT ( * ) PLANE_ANGLE_UNIT ( ) SI_UNIT ( $, .RADIAN. ) );
#311 = LENGTH_MEASURE_WITH_UNIT ( LENGTH_MEASURE( 0.02539999999999999897 ), #206 );
#312 = CARTESIAN_POINT ( 'NONE',  ( 1.653273178848927175E-17, 0.0000000000000000000, 0.1350000000000000089 ) ) ;
#313 =( NAMED_UNIT ( * ) SI_UNIT ( $, .STERADIAN. ) SOLID_ANGLE_UNIT ( ) );
#314 = CIRCLE ( 'NONE', #37, 0.06250000000000002776 ) ;
#315 = ADVANCED_FACE ( 'NONE', ( #233 ), #132, .T. ) ;
#316 = EDGE_CURVE ( 'NONE', #320, #198, #246, .T. ) ;
#317 = COLOUR_RGB ( '',0.7921568627450980005, 0.8196078431372548767, 0.9333333333333333481 ) ;
#318 = ORIENTED_EDGE ( 'NONE', *, *, #278, .T. ) ;
#319 = CARTESIAN_POINT ( 'NONE',  ( 4.432962726185554212E-17, 0.0000000000000000000, 0.3619788766256487045 ) ) ;
#320 = VERTEX_POINT ( 'NONE', #256 ) ;
#321 = CARTESIAN_POINT ( 'NONE',  ( 2.752699842783463994E-18, 0.0000000000000000000, 0.02247750000000000095 ) ) ;
#322 = CARTESIAN_POINT ( 'NONE',  ( -0.02247749999999998360, 5.203371168727211732E-18, 0.1350000000000000089 ) ) ;
#323 = CIRCLE ( 'NONE', #175, 0.04750000000000064587 ) ;
#324 = EDGE_CURVE ( 'NONE', #296, #298, #133, .T. ) ;
#325 = CARTESIAN_POINT ( 'NONE',  ( 0.06250000000000002776, 7.654042494670959086E-18, 1.500000000000000222 ) ) ;
ENDSEC;
END-ISO-10303-21;
