ISO-10303-21;
HEADER;
FILE_DESCRIPTION (( 'STEP AP214' ),
    '1' );
FILE_NAME ('Micro_GEM-281-3.STEP',
    '2021-09-01T20:24:18',
    ( '' ),
    ( '' ),
    'SwSTEP 2.0',
    'SolidWorks 2020',
    '' );
FILE_SCHEMA (( 'AUTOMOTIVE_DESIGN' ));
ENDSEC;

DATA;
#1 = AXIS2_PLACEMENT_3D ( 'NONE', #174, #62, #272 ) ;
#2 = FILL_AREA_STYLE ('',( #205 ) ) ;
#3 = DIRECTION ( 'NONE',  ( 1.000000000000000000, 0.0000000000000000000, 0.0000000000000000000 ) ) ;
#4 = DIRECTION ( 'NONE',  ( -1.000000000000000000, 0.0000000000000000000, 1.224646799147353207E-16 ) ) ;
#5 = AXIS2_PLACEMENT_3D ( 'NONE', #268, #250, #279 ) ;
#6 = DIRECTION ( 'NONE',  ( 0.0000000000000000000, 0.0000000000000000000, 1.000000000000000000 ) ) ;
#7 = PRODUCT_DEFINITION ( 'UNKNOWN', '', #244, #84 ) ;
#8 = LINE ( 'NONE', #284, #206 ) ;
#9 = PRODUCT_CONTEXT ( 'NONE', #211, 'mechanical' ) ;
#10 = CARTESIAN_POINT ( 'NONE',  ( 0.0000000000000000000, 0.0000000000000000000, 2.500000000000000000 ) ) ;
#11 = ORIENTED_EDGE ( 'NONE', *, *, #135, .F. ) ;
#12 = UNCERTAINTY_MEASURE_WITH_UNIT (LENGTH_MEASURE( 1.000000000000000082E-05 ), #66, 'distance_accuracy_value', 'NONE');
#13 = EDGE_CURVE ( 'NONE', #93, #228, #131, .T. ) ;
#14 = ORIENTED_EDGE ( 'NONE', *, *, #245, .F. ) ;
#15 = LINE ( 'NONE', #27, #81 ) ;
#16 = VERTEX_POINT ( 'NONE', #123 ) ;
#17 = EDGE_LOOP ( 'NONE', ( #181, #127, #294, #215 ) ) ;
#18 = AXIS2_PLACEMENT_3D ( 'NONE', #232, #32, #3 ) ;
#19 = DIRECTION ( 'NONE',  ( -1.224646799147353207E-16, -0.0000000000000000000, -1.000000000000000000 ) ) ;
#20 = DIRECTION ( 'NONE',  ( -1.224646799147353207E-16, -0.0000000000000000000, -1.000000000000000000 ) ) ;
#21 = DIRECTION ( 'NONE',  ( 1.224646799147353207E-16, 0.0000000000000000000, 1.000000000000000000 ) ) ;
#22 = CIRCLE ( 'NONE', #186, 0.1412499999999994871 ) ;
#23 = COLOUR_RGB ( '',0.7921568627450980005, 0.8196078431372548767, 0.9333333333333333481 ) ;
#24 = FACE_OUTER_BOUND ( 'NONE', #261, .T. ) ;
#25 = CARTESIAN_POINT ( 'NONE',  ( 0.0000000000000000000, 0.0000000000000000000, 2.500000000000000000 ) ) ;
#26 = LENGTH_MEASURE_WITH_UNIT ( LENGTH_MEASURE( 0.02539999999999999897 ), #92 );
#27 = CARTESIAN_POINT ( 'NONE',  ( -0.1562500000000000000, 0.0000000000000000000, 2.500000000000000000 ) ) ;
#28 = DIRECTION ( 'NONE',  ( 1.000000000000000000, 0.0000000000000000000, 0.0000000000000000000 ) ) ;
#29 = SURFACE_STYLE_USAGE ( .BOTH. , #190 ) ;
#30 = EDGE_LOOP ( 'NONE', ( #159, #217, #145, #262 ) ) ;
#31 = VECTOR ( 'NONE', #98, 39.37007874015748854 ) ;
#32 = DIRECTION ( 'NONE',  ( 0.0000000000000000000, 0.0000000000000000000, 1.000000000000000000 ) ) ;
#33 = CARTESIAN_POINT ( 'NONE',  ( 9.184850993605150903E-17, 0.0000000000000000000, 0.7500000000000001110 ) ) ;
#34 = EDGE_LOOP ( 'NONE', ( #289, #271 ) ) ;
#35 = ADVANCED_FACE ( 'NONE', ( #167 ), #53, .T. ) ;
#36 = DIRECTION ( 'NONE',  ( 1.000000000000000000, 0.0000000000000000000, 0.0000000000000000000 ) ) ;
#37 = AXIS2_PLACEMENT_3D ( 'NONE', #10, #144, #100 ) ;
#38 = AXIS2_PLACEMENT_3D ( 'NONE', #140, #191, #71 ) ;
#39 = ORIENTED_EDGE ( 'NONE', *, *, #280, .T. ) ;
#40 = ORIENTED_EDGE ( 'NONE', *, *, #89, .T. ) ;
#41 = PRODUCT_RELATED_PRODUCT_CATEGORY ( 'part', '', ( #264 ) ) ;
#42 =( GEOMETRIC_REPRESENTATION_CONTEXT ( 3 ) GLOBAL_UNCERTAINTY_ASSIGNED_CONTEXT ( ( #12 ) ) GLOBAL_UNIT_ASSIGNED_CONTEXT ( ( #66, #150, #230 ) ) REPRESENTATION_CONTEXT ( 'NONE', 'WORKASPACE' ) );
#43 = DIRECTION ( 'NONE',  ( -1.000000000000000000, 0.0000000000000000000, 1.224646799147353207E-16 ) ) ;
#44 = CONICAL_SURFACE ( 'NONE', #252, 0.1404594000000000120, 0.1745329251994338082 ) ;
#45 = DIRECTION ( 'NONE',  ( -1.000000000000000000, 0.0000000000000000000, 0.0000000000000000000 ) ) ;
#46 = EDGE_CURVE ( 'NONE', #124, #204, #80, .T. ) ;
#47 = EDGE_LOOP ( 'NONE', ( #105, #57, #54, #266 ) ) ;
#48 = DIRECTION ( 'NONE',  ( -0.0000000000000000000, -0.0000000000000000000, -1.000000000000000000 ) ) ;
#49 = PRESENTATION_STYLE_ASSIGNMENT (( #29 ) ) ;
#50 = CONICAL_SURFACE ( 'NONE', #1, 0.1404594000000000120, 0.1745329251994338082 ) ;
#51 =( GEOMETRIC_REPRESENTATION_CONTEXT ( 3 ) GLOBAL_UNCERTAINTY_ASSIGNED_CONTEXT ( ( #236 ) ) GLOBAL_UNIT_ASSIGNED_CONTEXT ( ( #74, #291, #225 ) ) REPRESENTATION_CONTEXT ( 'NONE', 'WORKASPACE' ) );
#52 = DIRECTION ( 'NONE',  ( -1.000000000000000000, 0.0000000000000000000, 0.0000000000000000000 ) ) ;
#53 = PLANE ( 'NONE',  #37 ) ;
#54 = ORIENTED_EDGE ( 'NONE', *, *, #101, .T. ) ;
#55 = AXIS2_PLACEMENT_3D ( 'NONE', #33, #196, #287 ) ;
#56 = FACE_OUTER_BOUND ( 'NONE', #198, .T. ) ;
#57 = ORIENTED_EDGE ( 'NONE', *, *, #13, .F. ) ;
#58 = ADVANCED_FACE ( 'NONE', ( #295 ), #298, .T. ) ;
#59 = ORIENTED_EDGE ( 'NONE', *, *, #126, .T. ) ;
#60 = AXIS2_PLACEMENT_3D ( 'NONE', #65, #267, #153 ) ;
#61 = CONICAL_SURFACE ( 'NONE', #5, 0.1412499999999994871, 0.7853981633974391752 ) ;
#62 = DIRECTION ( 'NONE',  ( 1.224646799147353207E-16, 0.0000000000000000000, 1.000000000000000000 ) ) ;
#63 = ADVANCED_FACE ( 'NONE', ( #24 ), #223, .F. ) ;
#64 = DIRECTION ( 'NONE',  ( -0.0000000000000000000, -0.0000000000000000000, -1.000000000000000000 ) ) ;
#65 = CARTESIAN_POINT ( 'NONE',  ( 0.0000000000000000000, 0.0000000000000000000, 0.0000000000000000000 ) ) ;
#66 =( CONVERSION_BASED_UNIT ( 'INCH', #26 ) LENGTH_UNIT ( ) NAMED_UNIT ( #187 ) );
#67 = CIRCLE ( 'NONE', #170, 0.1404594000000000120 ) ;
#68 = CARTESIAN_POINT ( 'NONE',  ( 1.028155823993343290E-16, 0.0000000000000000000, 0.8395529427008548984 ) ) ;
#69 = PRESENTATION_STYLE_ASSIGNMENT (( #273 ) ) ;
#70 = AXIS2_PLACEMENT_3D ( 'NONE', #224, #20, #43 ) ;
#71 = DIRECTION ( 'NONE',  ( 1.000000000000000000, 0.0000000000000000000, 0.0000000000000000000 ) ) ;
#72 = CARTESIAN_POINT ( 'NONE',  ( 0.1412499999999994871, 1.729813603795630110E-17, 2.500000000000000000 ) ) ;
#73 = DIRECTION ( 'NONE',  ( -0.1736481776669311083, 2.126576849575782084E-17, 0.9848077530122080203 ) ) ;
#74 =( CONVERSION_BASED_UNIT ( 'INCH', #152 ) LENGTH_UNIT ( ) NAMED_UNIT ( #231 ) );
#75 = EDGE_LOOP ( 'NONE', ( #277, #221, #240, #77 ) ) ;
#76 = VECTOR ( 'NONE', #290, 39.37007874015748854 ) ;
#77 = ORIENTED_EDGE ( 'NONE', *, *, #46, .F. ) ;
#78 = ORIENTED_EDGE ( 'NONE', *, *, #154, .T. ) ;
#79 = ADVANCED_FACE ( 'NONE', ( #108 ), #172, .T. ) ;
#80 = CIRCLE ( 'NONE', #251, 0.1562500000000000000 ) ;
#81 = VECTOR ( 'NONE', #136, 39.37007874015748143 ) ;
#82 = DIRECTION ( 'NONE',  ( 0.1736481776669313026, 0.0000000000000000000, 0.9848077530122077983 ) ) ;
#83 = CIRCLE ( 'NONE', #257, 0.1562500000000000000 ) ;
#84 = PRODUCT_DEFINITION_CONTEXT ( 'detailed design', #185, 'design' ) ;
#85 = STYLED_ITEM ( 'NONE', ( #49 ), #282 ) ;
#86 = CARTESIAN_POINT ( 'NONE',  ( 0.1404594000000000120, 1.720131546201577623E-17, -1.720131546201577623E-17 ) ) ;
#87 = DIRECTION ( 'NONE',  ( -1.224646799147353207E-16, -0.0000000000000000000, -1.000000000000000000 ) ) ;
#88 = DIRECTION ( 'NONE',  ( -1.224646799147353207E-16, -0.0000000000000000000, -1.000000000000000000 ) ) ;
#89 = EDGE_CURVE ( 'NONE', #93, #194, #208, .T. ) ;
#90 = CARTESIAN_POINT ( 'NONE',  ( 0.0000000000000000000, 0.0000000000000000000, 2.500000000000000000 ) ) ;
#91 = STYLED_ITEM ( 'NONE', ( #69 ), #227 ) ;
#92 =( LENGTH_UNIT ( ) NAMED_UNIT ( * ) SI_UNIT ( $, .METRE. ) );
#93 = VERTEX_POINT ( 'NONE', #109 ) ;
#94 =( NAMED_UNIT ( * ) SI_UNIT ( $, .STERADIAN. ) SOLID_ANGLE_UNIT ( ) );
#95 = UNCERTAINTY_MEASURE_WITH_UNIT (LENGTH_MEASURE( 1.000000000000000082E-05 ), #229, 'distance_accuracy_value', 'NONE');
#96 = CLOSED_SHELL ( 'NONE', ( #79, #113, #138, #218, #182, #35, #269, #195, #58, #63 ) ) ;
#97 = AXIS2_PLACEMENT_3D ( 'NONE', #25, #256, #115 ) ;
#98 = DIRECTION ( 'NONE',  ( -0.7071067811865410224, 0.0000000000000000000, -0.7071067811865539010 ) ) ;
#99 = APPLICATION_PROTOCOL_DEFINITION ( 'draft international standard', 'automotive_design', 1998, #185 ) ;
#100 = DIRECTION ( 'NONE',  ( 1.000000000000000000, 0.0000000000000000000, -0.0000000000000000000 ) ) ;
#101 = EDGE_CURVE ( 'NONE', #93, #146, #203, .T. ) ;
#102 = ORIENTED_EDGE ( 'NONE', *, *, #13, .T. ) ;
#103 = VECTOR ( 'NONE', #88, 39.37007874015748143 ) ;
#104 = VERTEX_POINT ( 'NONE', #270 ) ;
#105 = ORIENTED_EDGE ( 'NONE', *, *, #188, .F. ) ;
#106 = EDGE_LOOP ( 'NONE', ( #143, #102, #39, #199 ) ) ;
#107 = AXIS2_PLACEMENT_3D ( 'NONE', #117, #157, #183 ) ;
#108 = FACE_OUTER_BOUND ( 'NONE', #233, .T. ) ;
#109 = CARTESIAN_POINT ( 'NONE',  ( 0.1404594000000000953, 0.0000000000000000000, 0.7500000000000001110 ) ) ;
#110 = CARTESIAN_POINT ( 'NONE',  ( 0.1562500000000000000, 1.913510623667739463E-17, 2.484999999999999432 ) ) ;
#111 = FACE_OUTER_BOUND ( 'NONE', #114, .T. ) ;
#112 = DIRECTION ( 'NONE',  ( -1.000000000000000000, 0.0000000000000000000, 1.224646799147353207E-16 ) ) ;
#113 = ADVANCED_FACE ( 'NONE', ( #156 ), #50, .T. ) ;
#114 = EDGE_LOOP ( 'NONE', ( #197, #147, #14, #292 ) ) ;
#115 = DIRECTION ( 'NONE',  ( -1.000000000000000000, 0.0000000000000000000, 0.0000000000000000000 ) ) ;
#116 = AXIS2_PLACEMENT_3D ( 'NONE', #163, #48, #141 ) ;
#117 = CARTESIAN_POINT ( 'NONE',  ( 1.028155823993343290E-16, 0.0000000000000000000, 0.8395529427008548984 ) ) ;
#118 = EDGE_CURVE ( 'NONE', #204, #124, #83, .T. ) ;
#119 = CARTESIAN_POINT ( 'NONE',  ( 0.1562500000000001110, 1.913510623667740388E-17, 0.8395529427008548984 ) ) ;
#120 = AXIS2_PLACEMENT_3D ( 'NONE', #247, #19, #132 ) ;
#121 = COLOUR_RGB ( '',0.7921568627450980005, 0.8196078431372548767, 0.9333333333333333481 ) ;
#122 = FACE_OUTER_BOUND ( 'NONE', #17, .T. ) ;
#123 = CARTESIAN_POINT ( 'NONE',  ( 0.1412499999999994871, 1.821662113731684786E-17, 2.500000000000000000 ) ) ;
#124 = VERTEX_POINT ( 'NONE', #110 ) ;
#125 = CONICAL_SURFACE ( 'NONE', #97, 0.1412499999999994871, 0.7853981633974391752 ) ;
#126 = EDGE_CURVE ( 'NONE', #194, #104, #296, .T. ) ;
#127 = ORIENTED_EDGE ( 'NONE', *, *, #46, .T. ) ;
#128 = DIRECTION ( 'NONE',  ( -1.224646799147353207E-16, -0.0000000000000000000, -1.000000000000000000 ) ) ;
#129 = ORIENTED_EDGE ( 'NONE', *, *, #118, .F. ) ;
#130 = DIRECTION ( 'NONE',  ( 1.000000000000000000, 0.0000000000000000000, 0.0000000000000000000 ) ) ;
#131 = CIRCLE ( 'NONE', #55, 0.1404594000000000120 ) ;
#132 = DIRECTION ( 'NONE',  ( -1.000000000000000000, 0.0000000000000000000, 1.224646799147353207E-16 ) ) ;
#133 = DIRECTION ( 'NONE',  ( -0.0000000000000000000, -0.0000000000000000000, -1.000000000000000000 ) ) ;
#134 = PRESENTATION_LAYER_ASSIGNMENT (  '', '', ( #91 ) ) ;
#135 = EDGE_CURVE ( 'NONE', #16, #246, #22, .T. ) ;
#136 = DIRECTION ( 'NONE',  ( -0.0000000000000000000, -0.0000000000000000000, -1.000000000000000000 ) ) ;
#137 = ORIENTED_EDGE ( 'NONE', *, *, #166, .F. ) ;
#138 = ADVANCED_FACE ( 'NONE', ( #56 ), #61, .T. ) ;
#139 = CARTESIAN_POINT ( 'NONE',  ( -0.1412499999999994871, 0.0000000000000000000, 2.500000000000000000 ) ) ;
#140 = CARTESIAN_POINT ( 'NONE',  ( 0.0000000000000000000, 0.0000000000000000000, 0.0000000000000000000 ) ) ;
#141 = DIRECTION ( 'NONE',  ( -1.000000000000000000, 0.0000000000000000000, 0.0000000000000000000 ) ) ;
#142 = VECTOR ( 'NONE', #254, 39.37007874015748143 ) ;
#143 = ORIENTED_EDGE ( 'NONE', *, *, #89, .F. ) ;
#144 = DIRECTION ( 'NONE',  ( 0.0000000000000000000, 0.0000000000000000000, 1.000000000000000000 ) ) ;
#145 = ORIENTED_EDGE ( 'NONE', *, *, #245, .T. ) ;
#146 = VERTEX_POINT ( 'NONE', #119 ) ;
#147 = ORIENTED_EDGE ( 'NONE', *, *, #260, .T. ) ;
#148 = EDGE_CURVE ( 'NONE', #204, #149, #15, .T. ) ;
#149 = VERTEX_POINT ( 'NONE', #161 ) ;
#150 =( NAMED_UNIT ( * ) PLANE_ANGLE_UNIT ( ) SI_UNIT ( $, .RADIAN. ) );
#151 = CARTESIAN_POINT ( 'NONE',  ( 0.0000000000000000000, 0.0000000000000000000, 2.484999999999999432 ) ) ;
#152 = LENGTH_MEASURE_WITH_UNIT ( LENGTH_MEASURE( 0.02539999999999999897 ), #180 );
#153 = DIRECTION ( 'NONE',  ( 1.000000000000000000, 0.0000000000000000000, -0.0000000000000000000 ) ) ;
#154 = EDGE_CURVE ( 'NONE', #16, #124, #241, .T. ) ;
#155 =( NAMED_UNIT ( * ) PLANE_ANGLE_UNIT ( ) SI_UNIT ( $, .RADIAN. ) );
#156 = FACE_OUTER_BOUND ( 'NONE', #30, .T. ) ;
#157 = DIRECTION ( 'NONE',  ( -1.224646799147353207E-16, -0.0000000000000000000, -1.000000000000000000 ) ) ;
#158 = AXIS2_PLACEMENT_3D ( 'NONE', #202, #87, #112 ) ;
#159 = ORIENTED_EDGE ( 'NONE', *, *, #175, .F. ) ;
#160 = DIRECTION ( 'NONE',  ( -1.224646799147353207E-16, -0.0000000000000000000, -1.000000000000000000 ) ) ;
#161 = CARTESIAN_POINT ( 'NONE',  ( -0.1562499999999999167, 0.0000000000000000000, 0.8395529427008548984 ) ) ;
#162 = DIMENSIONAL_EXPONENTS ( 1.000000000000000000, 0.0000000000000000000, 0.0000000000000000000, 0.0000000000000000000, 0.0000000000000000000, 0.0000000000000000000, 0.0000000000000000000 ) ;
#163 = CARTESIAN_POINT ( 'NONE',  ( 0.0000000000000000000, 0.0000000000000000000, 2.500000000000000000 ) ) ;
#164 = CARTESIAN_POINT ( 'NONE',  ( 0.1404594000000000120, 1.720131546201577623E-17, 0.0000000000000000000 ) ) ;
#165 = DIRECTION ( 'NONE',  ( -1.224646799147353207E-16, -0.0000000000000000000, -1.000000000000000000 ) ) ;
#166 = EDGE_CURVE ( 'NONE', #104, #194, #248, .T. ) ;
#167 = FACE_OUTER_BOUND ( 'NONE', #34, .T. ) ;
#168 = ORIENTED_EDGE ( 'NONE', *, *, #166, .T. ) ;
#169 = ORIENTED_EDGE ( 'NONE', *, *, #171, .F. ) ;
#170 = AXIS2_PLACEMENT_3D ( 'NONE', #189, #165, #52 ) ;
#171 = EDGE_CURVE ( 'NONE', #246, #204, #193, .T. ) ;
#172 = CYLINDRICAL_SURFACE ( 'NONE', #158, 0.1404594000000000120 ) ;
#173 = FILL_AREA_STYLE ('',( #222 ) ) ;
#174 = CARTESIAN_POINT ( 'NONE',  ( 9.184850993605150903E-17, 0.0000000000000000000, 0.7500000000000001110 ) ) ;
#175 = EDGE_CURVE ( 'NONE', #228, #93, #67, .T. ) ;
#176 = SURFACE_SIDE_STYLE ('',( #297 ) ) ;
#177 = CARTESIAN_POINT ( 'NONE',  ( 0.1404594000000000953, 0.0000000000000000000, 0.7500000000000001110 ) ) ;
#178 =( LENGTH_UNIT ( ) NAMED_UNIT ( * ) SI_UNIT ( $, .METRE. ) );
#179 = CARTESIAN_POINT ( 'NONE',  ( -0.1404594000000000120, 0.0000000000000000000, 1.720131546201577623E-17 ) ) ;
#180 =( LENGTH_UNIT ( ) NAMED_UNIT ( * ) SI_UNIT ( $, .METRE. ) );
#181 = ORIENTED_EDGE ( 'NONE', *, *, #260, .F. ) ;
#182 = ADVANCED_FACE ( 'NONE', ( #122 ), #283, .T. ) ;
#183 = DIRECTION ( 'NONE',  ( 1.000000000000000000, 0.0000000000000000000, 0.0000000000000000000 ) ) ;
#184 = SURFACE_STYLE_FILL_AREA ( #173 ) ;
#185 = APPLICATION_CONTEXT ( 'automotive_design' ) ;
#186 = AXIS2_PLACEMENT_3D ( 'NONE', #214, #6, #36 ) ;
#187 = DIMENSIONAL_EXPONENTS ( 1.000000000000000000, 0.0000000000000000000, 0.0000000000000000000, 0.0000000000000000000, 0.0000000000000000000, 0.0000000000000000000, 0.0000000000000000000 ) ;
#188 = EDGE_CURVE ( 'NONE', #228, #149, #8, .T. ) ;
#189 = CARTESIAN_POINT ( 'NONE',  ( 9.184850993605150903E-17, 0.0000000000000000000, 0.7500000000000001110 ) ) ;
#190 = SURFACE_SIDE_STYLE ('',( #184 ) ) ;
#191 = DIRECTION ( 'NONE',  ( 0.0000000000000000000, 0.0000000000000000000, 1.000000000000000000 ) ) ;
#192 = CARTESIAN_POINT ( 'NONE',  ( 0.0000000000000000000, 0.0000000000000000000, 2.484999999999999432 ) ) ;
#193 = LINE ( 'NONE', #286, #31 ) ;
#194 = VERTEX_POINT ( 'NONE', #164 ) ;
#195 = ADVANCED_FACE ( 'NONE', ( #226 ), #44, .T. ) ;
#196 = DIRECTION ( 'NONE',  ( -1.224646799147353207E-16, -0.0000000000000000000, -1.000000000000000000 ) ) ;
#197 = ORIENTED_EDGE ( 'NONE', *, *, #118, .T. ) ;
#198 = EDGE_LOOP ( 'NONE', ( #11, #78, #129, #169 ) ) ;
#199 = ORIENTED_EDGE ( 'NONE', *, *, #126, .F. ) ;
#200 =( GEOMETRIC_REPRESENTATION_CONTEXT ( 3 ) GLOBAL_UNCERTAINTY_ASSIGNED_CONTEXT ( ( #95 ) ) GLOBAL_UNIT_ASSIGNED_CONTEXT ( ( #229, #155, #94 ) ) REPRESENTATION_CONTEXT ( 'NONE', 'WORKASPACE' ) );
#201 = EDGE_CURVE ( 'NONE', #146, #149, #219, .T. ) ;
#202 = CARTESIAN_POINT ( 'NONE',  ( 0.0000000000000000000, 0.0000000000000000000, 0.0000000000000000000 ) ) ;
#203 = LINE ( 'NONE', #177, #237 ) ;
#204 = VERTEX_POINT ( 'NONE', #210 ) ;
#205 = FILL_AREA_STYLE_COLOUR ( '', #121 ) ;
#206 = VECTOR ( 'NONE', #73, 39.37007874015747433 ) ;
#207 = DIRECTION ( 'NONE',  ( 1.000000000000000000, 0.0000000000000000000, 0.0000000000000000000 ) ) ;
#208 = LINE ( 'NONE', #86, #103 ) ;
#209 = LINE ( 'NONE', #179, #142 ) ;
#210 = CARTESIAN_POINT ( 'NONE',  ( -0.1562500000000000000, 0.0000000000000000000, 2.484999999999999432 ) ) ;
#211 = APPLICATION_CONTEXT ( 'automotive_design' ) ;
#212 = CIRCLE ( 'NONE', #107, 0.1562500000000000000 ) ;
#213 = LINE ( 'NONE', #253, #275 ) ;
#214 = CARTESIAN_POINT ( 'NONE',  ( 0.0000000000000000000, 0.0000000000000000000, 2.500000000000000000 ) ) ;
#215 = ORIENTED_EDGE ( 'NONE', *, *, #201, .F. ) ;
#216 = ORIENTED_EDGE ( 'NONE', *, *, #175, .T. ) ;
#217 = ORIENTED_EDGE ( 'NONE', *, *, #188, .T. ) ;
#218 = ADVANCED_FACE ( 'NONE', ( #111 ), #299, .T. ) ;
#219 = CIRCLE ( 'NONE', #238, 0.1562500000000000000 ) ;
#220 = PRODUCT_DEFINITION_SHAPE ( 'NONE', 'NONE',  #7 ) ;
#221 = ORIENTED_EDGE ( 'NONE', *, *, #288, .F. ) ;
#222 = FILL_AREA_STYLE_COLOUR ( '', #23 ) ;
#223 = PLANE ( 'NONE',  #60 ) ;
#224 = CARTESIAN_POINT ( 'NONE',  ( 2.106553592168149428E-33, 0.0000000000000000000, 1.720131546201577623E-17 ) ) ;
#225 =( NAMED_UNIT ( * ) SI_UNIT ( $, .STERADIAN. ) SOLID_ANGLE_UNIT ( ) );
#226 = FACE_OUTER_BOUND ( 'NONE', #47, .T. ) ;
#227 = MANIFOLD_SOLID_BREP ( 'Cut-Revolve1', #96 ) ;
#228 = VERTEX_POINT ( 'NONE', #234 ) ;
#229 =( CONVERSION_BASED_UNIT ( 'INCH', #255 ) LENGTH_UNIT ( ) NAMED_UNIT ( #162 ) );
#230 =( NAMED_UNIT ( * ) SI_UNIT ( $, .STERADIAN. ) SOLID_ANGLE_UNIT ( ) );
#231 = DIMENSIONAL_EXPONENTS ( 1.000000000000000000, 0.0000000000000000000, 0.0000000000000000000, 0.0000000000000000000, 0.0000000000000000000, 0.0000000000000000000, 0.0000000000000000000 ) ;
#232 = CARTESIAN_POINT ( 'NONE',  ( 0.0000000000000000000, 0.0000000000000000000, 2.500000000000000000 ) ) ;
#233 = EDGE_LOOP ( 'NONE', ( #216, #40, #137, #243 ) ) ;
#234 = CARTESIAN_POINT ( 'NONE',  ( -0.1404593999999999288, 1.816821084934658389E-17, 0.7500000000000001110 ) ) ;
#235 = CIRCLE ( 'NONE', #18, 0.1412499999999994871 ) ;
#236 = UNCERTAINTY_MEASURE_WITH_UNIT (LENGTH_MEASURE( 1.000000000000000082E-05 ), #74, 'distance_accuracy_value', 'NONE');
#237 = VECTOR ( 'NONE', #82, 39.37007874015748143 ) ;
#238 = AXIS2_PLACEMENT_3D ( 'NONE', #68, #160, #28 ) ;
#239 = SHAPE_DEFINITION_REPRESENTATION ( #220, #282 ) ;
#240 = ORIENTED_EDGE ( 'NONE', *, *, #171, .T. ) ;
#241 = LINE ( 'NONE', #72, #76 ) ;
#242 = DIRECTION ( 'NONE',  ( 1.000000000000000000, 0.0000000000000000000, 0.0000000000000000000 ) ) ;
#243 = ORIENTED_EDGE ( 'NONE', *, *, #280, .F. ) ;
#244 = PRODUCT_DEFINITION_FORMATION_WITH_SPECIFIED_SOURCE ( 'ANY', '', #264, .NOT_KNOWN. ) ;
#245 = EDGE_CURVE ( 'NONE', #149, #146, #212, .T. ) ;
#246 = VERTEX_POINT ( 'NONE', #139 ) ;
#247 = CARTESIAN_POINT ( 'NONE',  ( 0.0000000000000000000, 0.0000000000000000000, 0.0000000000000000000 ) ) ;
#248 = CIRCLE ( 'NONE', #265, 0.1404594000000000120 ) ;
#249 = DIRECTION ( 'NONE',  ( 0.0000000000000000000, 0.0000000000000000000, -1.000000000000000000 ) ) ;
#250 = DIRECTION ( 'NONE',  ( 0.0000000000000000000, 0.0000000000000000000, -1.000000000000000000 ) ) ;
#251 = AXIS2_PLACEMENT_3D ( 'NONE', #192, #285, #242 ) ;
#252 = AXIS2_PLACEMENT_3D ( 'NONE', #278, #21, #207 ) ;
#253 = CARTESIAN_POINT ( 'NONE',  ( 0.1562500000000000000, 1.913510623667739463E-17, 2.500000000000000000 ) ) ;
#254 = DIRECTION ( 'NONE',  ( -1.224646799147353207E-16, -0.0000000000000000000, -1.000000000000000000 ) ) ;
#255 = LENGTH_MEASURE_WITH_UNIT ( LENGTH_MEASURE( 0.02539999999999999897 ), #178 );
#256 = DIRECTION ( 'NONE',  ( 0.0000000000000000000, 0.0000000000000000000, -1.000000000000000000 ) ) ;
#257 = AXIS2_PLACEMENT_3D ( 'NONE', #151, #249, #130 ) ;
#258 = MECHANICAL_DESIGN_GEOMETRIC_PRESENTATION_REPRESENTATION (  '', ( #91 ), #200 ) ;
#259 = PRESENTATION_LAYER_ASSIGNMENT (  '', '', ( #85 ) ) ;
#260 = EDGE_CURVE ( 'NONE', #124, #146, #213, .T. ) ;
#261 = EDGE_LOOP ( 'NONE', ( #168, #59 ) ) ;
#262 = ORIENTED_EDGE ( 'NONE', *, *, #101, .F. ) ;
#263 = CARTESIAN_POINT ( 'NONE',  ( 2.106553592168149428E-33, 0.0000000000000000000, 1.720131546201577623E-17 ) ) ;
#264 = PRODUCT ( 'Micro_GEM-281-3', 'Micro_GEM-281-3', '', ( #9 ) ) ;
#265 = AXIS2_PLACEMENT_3D ( 'NONE', #263, #128, #4 ) ;
#266 = ORIENTED_EDGE ( 'NONE', *, *, #201, .T. ) ;
#267 = DIRECTION ( 'NONE',  ( 0.0000000000000000000, 0.0000000000000000000, 1.000000000000000000 ) ) ;
#268 = CARTESIAN_POINT ( 'NONE',  ( 0.0000000000000000000, 0.0000000000000000000, 2.500000000000000000 ) ) ;
#269 = ADVANCED_FACE ( 'NONE', ( #276 ), #125, .T. ) ;
#270 = CARTESIAN_POINT ( 'NONE',  ( -0.1404594000000000120, 0.0000000000000000000, 3.440263092403155245E-17 ) ) ;
#271 = ORIENTED_EDGE ( 'NONE', *, *, #135, .T. ) ;
#272 = DIRECTION ( 'NONE',  ( 1.000000000000000000, 0.0000000000000000000, 0.0000000000000000000 ) ) ;
#273 = SURFACE_STYLE_USAGE ( .BOTH. , #176 ) ;
#274 = APPLICATION_PROTOCOL_DEFINITION ( 'draft international standard', 'automotive_design', 1998, #211 ) ;
#275 = VECTOR ( 'NONE', #133, 39.37007874015748143 ) ;
#276 = FACE_OUTER_BOUND ( 'NONE', #75, .T. ) ;
#277 = ORIENTED_EDGE ( 'NONE', *, *, #154, .F. ) ;
#278 = CARTESIAN_POINT ( 'NONE',  ( 9.184850993605150903E-17, 0.0000000000000000000, 0.7500000000000001110 ) ) ;
#279 = DIRECTION ( 'NONE',  ( -1.000000000000000000, 0.0000000000000000000, 0.0000000000000000000 ) ) ;
#280 = EDGE_CURVE ( 'NONE', #228, #104, #209, .T. ) ;
#281 = MECHANICAL_DESIGN_GEOMETRIC_PRESENTATION_REPRESENTATION (  '', ( #85 ), #42 ) ;
#282 = ADVANCED_BREP_SHAPE_REPRESENTATION ( 'Micro_GEM-281-3', ( #227, #38 ), #51 ) ;
#283 = CYLINDRICAL_SURFACE ( 'NONE', #116, 0.1562500000000000000 ) ;
#284 = CARTESIAN_POINT ( 'NONE',  ( -0.1404593999999999288, 1.720131546201577623E-17, 0.7500000000000001110 ) ) ;
#285 = DIRECTION ( 'NONE',  ( 0.0000000000000000000, 0.0000000000000000000, -1.000000000000000000 ) ) ;
#286 = CARTESIAN_POINT ( 'NONE',  ( -0.1412499999999994871, 0.0000000000000000000, 2.500000000000000000 ) ) ;
#287 = DIRECTION ( 'NONE',  ( -1.000000000000000000, 0.0000000000000000000, 0.0000000000000000000 ) ) ;
#288 = EDGE_CURVE ( 'NONE', #246, #16, #235, .T. ) ;
#289 = ORIENTED_EDGE ( 'NONE', *, *, #288, .T. ) ;
#290 = DIRECTION ( 'NONE',  ( 0.7071067811865410224, 8.659560562354852739E-17, -0.7071067811865539010 ) ) ;
#291 =( NAMED_UNIT ( * ) PLANE_ANGLE_UNIT ( ) SI_UNIT ( $, .RADIAN. ) );
#292 = ORIENTED_EDGE ( 'NONE', *, *, #148, .F. ) ;
#293 = AXIS2_PLACEMENT_3D ( 'NONE', #90, #64, #45 ) ;
#294 = ORIENTED_EDGE ( 'NONE', *, *, #148, .T. ) ;
#295 = FACE_OUTER_BOUND ( 'NONE', #106, .T. ) ;
#296 = CIRCLE ( 'NONE', #70, 0.1404594000000000120 ) ;
#297 = SURFACE_STYLE_FILL_AREA ( #2 ) ;
#298 = CYLINDRICAL_SURFACE ( 'NONE', #120, 0.1404594000000000120 ) ;
#299 = CYLINDRICAL_SURFACE ( 'NONE', #293, 0.1562500000000000000 ) ;
ENDSEC;
END-ISO-10303-21;
