ISO-10303-21;
HEADER;
FILE_DESCRIPTION (( 'STEP AP214' ),
    '1' );
FILE_NAME ('Micro_GEC-093-3-010.STEP',
    '2021-09-03T17:05:20',
    ( '' ),
    ( '' ),
    'SwSTEP 2.0',
    'SolidWorks 2020',
    '' );
FILE_SCHEMA (( 'AUTOMOTIVE_DESIGN' ));
ENDSEC;

DATA;
#1 = DIRECTION ( 'NONE',  ( 0.0000000000000000000, 0.0000000000000000000, 1.000000000000000000 ) ) ;
#2 = DIRECTION ( 'NONE',  ( 1.000000000000000000, 0.0000000000000000000, 0.0000000000000000000 ) ) ;
#3 = PRODUCT_RELATED_PRODUCT_CATEGORY ( 'part', '', ( #312 ) ) ;
#4 = AXIS2_PLACEMENT_3D ( 'NONE', #252, #13, #249 ) ;
#5 = AXIS2_PLACEMENT_3D ( 'NONE', #69, #192, #92 ) ;
#6 = EDGE_CURVE ( 'NONE', #147, #80, #95, .T. ) ;
#7 = CARTESIAN_POINT ( 'NONE',  ( 1.224646799147353770E-18, 0.0000000000000000000, 0.01000000000000000021 ) ) ;
#8 = AXIS2_PLACEMENT_3D ( 'NONE', #331, #178, #94 ) ;
#9 = CARTESIAN_POINT ( 'NONE',  ( 0.0000000000000000000, 0.0000000000000000000, 1.500000000000000222 ) ) ;
#10 = CARTESIAN_POINT ( 'NONE',  ( -0.03685309999999999975, 4.513203095365732321E-18, 0.01000000000000000021 ) ) ;
#11 = CARTESIAN_POINT ( 'NONE',  ( 0.06250000000000002776, 7.654042494670959086E-18, 1.485000000000000764 ) ) ;
#12 = VERTEX_POINT ( 'NONE', #179 ) ;
#13 = DIRECTION ( 'NONE',  ( -1.224646799147353700E-16, -0.0000000000000000000, -1.000000000000000000 ) ) ;
#14 = AXIS2_PLACEMENT_3D ( 'NONE', #277, #280, #30 ) ;
#15 = ORIENTED_EDGE ( 'NONE', *, *, #217, .F. ) ;
#16 = ADVANCED_FACE ( 'NONE', ( #267 ), #57, .T. ) ;
#17 = ORIENTED_EDGE ( 'NONE', *, *, #345, .F. ) ;
#18 = DIRECTION ( 'NONE',  ( -1.224646799147353700E-16, -0.0000000000000000000, -1.000000000000000000 ) ) ;
#19 = ORIENTED_EDGE ( 'NONE', *, *, #97, .T. ) ;
#20 = EDGE_CURVE ( 'NONE', #200, #147, #110, .T. ) ;
#21 = CARTESIAN_POINT ( 'NONE',  ( -0.04685309999999996700, 6.695946194592023262E-18, 0.3750000000000000555 ) ) ;
#22 = ORIENTED_EDGE ( 'NONE', *, *, #326, .F. ) ;
#23 = CARTESIAN_POINT ( 'NONE',  ( 0.0000000000000000000, 0.0000000000000000000, 1.500000000000000222 ) ) ;
#24 = EDGE_LOOP ( 'NONE', ( #55, #259, #288, #235 ) ) ;
#25 = SURFACE_STYLE_FILL_AREA ( #273 ) ;
#26 = CARTESIAN_POINT ( 'NONE',  ( 0.0000000000000000000, 0.0000000000000000000, 0.0000000000000000000 ) ) ;
#27 = VECTOR ( 'NONE', #306, 39.37007874015748143 ) ;
#28 = CIRCLE ( 'NONE', #53, 0.01000000000000000021 ) ;
#29 = DIRECTION ( 'NONE',  ( 1.000000000000000000, 0.0000000000000000000, 0.0000000000000000000 ) ) ;
#30 = DIRECTION ( 'NONE',  ( 0.0000000000000000000, 0.0000000000000000000, -1.000000000000000000 ) ) ;
#31 = EDGE_CURVE ( 'NONE', #124, #316, #240, .T. ) ;
#32 = FACE_OUTER_BOUND ( 'NONE', #107, .T. ) ;
#33 = FACE_OUTER_BOUND ( 'NONE', #101, .T. ) ;
#34 =( NAMED_UNIT ( * ) SI_UNIT ( $, .STERADIAN. ) SOLID_ANGLE_UNIT ( ) );
#35 = CARTESIAN_POINT ( 'NONE',  ( 0.0000000000000000000, 0.0000000000000000000, 1.500000000000000222 ) ) ;
#36 = CIRCLE ( 'NONE', #122, 0.04685310000000000863 ) ;
#37 = DIRECTION ( 'NONE',  ( 1.000000000000000000, 0.0000000000000000000, -0.0000000000000000000 ) ) ;
#38 = DIRECTION ( 'NONE',  ( 1.000000000000000000, 0.0000000000000000000, 0.0000000000000000000 ) ) ;
#39 = CYLINDRICAL_SURFACE ( 'NONE', #41, 0.04685310000000000169 ) ;
#40 = APPLICATION_CONTEXT ( 'automotive_design' ) ;
#41 = AXIS2_PLACEMENT_3D ( 'NONE', #70, #193, #169 ) ;
#42 = ORIENTED_EDGE ( 'NONE', *, *, #120, .T. ) ;
#43 = AXIS2_PLACEMENT_3D ( 'NONE', #7, #1, #297 ) ;
#44 = EDGE_CURVE ( 'NONE', #200, #265, #36, .T. ) ;
#45 = EDGE_CURVE ( 'NONE', #75, #255, #350, .T. ) ;
#46 = CARTESIAN_POINT ( 'NONE',  ( 5.679152322418704750E-17, 0.0000000000000000000, 0.4637379795033760299 ) ) ;
#47 = DIRECTION ( 'NONE',  ( 1.000000000000000000, 0.0000000000000000000, 0.0000000000000000000 ) ) ;
#48 = ORIENTED_EDGE ( 'NONE', *, *, #307, .T. ) ;
#49 = DIRECTION ( 'NONE',  ( 0.1736481776669313581, 0.0000000000000000000, 0.9848077530122077983 ) ) ;
#50 = AXIS2_PLACEMENT_3D ( 'NONE', #46, #78, #150 ) ;
#51 = DIRECTION ( 'NONE',  ( 1.224646799147353700E-16, 0.0000000000000000000, 1.000000000000000000 ) ) ;
#52 = EDGE_LOOP ( 'NONE', ( #15, #176, #93, #291 ) ) ;
#53 = AXIS2_PLACEMENT_3D ( 'NONE', #10, #64, #222 ) ;
#54 = DIRECTION ( 'NONE',  ( -1.224646799147353700E-16, -0.0000000000000000000, -1.000000000000000000 ) ) ;
#55 = ORIENTED_EDGE ( 'NONE', *, *, #292, .F. ) ;
#56 =( CONVERSION_BASED_UNIT ( 'INCH', #136 ) LENGTH_UNIT ( ) NAMED_UNIT ( #338 ) );
#57 = CYLINDRICAL_SURFACE ( 'NONE', #173, 0.04685310000000000169 ) ;
#58 = ADVANCED_FACE ( 'NONE', ( #115 ), #39, .T. ) ;
#59 = AXIS2_PLACEMENT_3D ( 'NONE', #321, #79, #261 ) ;
#60 = CIRCLE ( 'NONE', #305, 0.03685309999999999975 ) ;
#61 = CARTESIAN_POINT ( 'NONE',  ( -0.03685309999999999975, 5.125526494939408339E-18, 0.0000000000000000000 ) ) ;
#62 = FILL_AREA_STYLE ('',( #164 ) ) ;
#63 = ADVANCED_FACE ( 'NONE', ( #205 ), #72, .T. ) ;
#64 = DIRECTION ( 'NONE',  ( 1.224646799147353207E-16, 1.000000000000000000, -0.0000000000000000000 ) ) ;
#65 = AXIS2_PLACEMENT_3D ( 'NONE', #194, #113, #37 ) ;
#66 =( NAMED_UNIT ( * ) PLANE_ANGLE_UNIT ( ) SI_UNIT ( $, .RADIAN. ) );
#67 = DIRECTION ( 'NONE',  ( -0.0000000000000000000, -0.0000000000000000000, -1.000000000000000000 ) ) ;
#68 = CARTESIAN_POINT ( 'NONE',  ( -0.04685310000000000169, 0.0000000000000000000, 5.737849894513087439E-18 ) ) ;
#69 = CARTESIAN_POINT ( 'NONE',  ( 0.0000000000000000000, 0.0000000000000000000, 0.0000000000000000000 ) ) ;
#70 = CARTESIAN_POINT ( 'NONE',  ( 0.0000000000000000000, 0.0000000000000000000, 0.0000000000000000000 ) ) ;
#71 = ADVANCED_FACE ( 'NONE', ( #102 ), #189, .T. ) ;
#72 = CONICAL_SURFACE ( 'NONE', #89, 0.04685310000000000863, 0.1745329251994338637 ) ;
#73 = CARTESIAN_POINT ( 'NONE',  ( 0.04750000000000064587, 6.735557395310483192E-18, 1.500000000000000222 ) ) ;
#74 = ORIENTED_EDGE ( 'NONE', *, *, #86, .T. ) ;
#75 = VERTEX_POINT ( 'NONE', #11 ) ;
#76 =( GEOMETRIC_REPRESENTATION_CONTEXT ( 3 ) GLOBAL_UNCERTAINTY_ASSIGNED_CONTEXT ( ( #221 ) ) GLOBAL_UNIT_ASSIGNED_CONTEXT ( ( #56, #180, #271 ) ) REPRESENTATION_CONTEXT ( 'NONE', 'WORKASPACE' ) );
#77 = DIRECTION ( 'NONE',  ( -1.000000000000000000, 0.0000000000000000000, 0.0000000000000000000 ) ) ;
#78 = DIRECTION ( 'NONE',  ( -1.224646799147353700E-16, -0.0000000000000000000, -1.000000000000000000 ) ) ;
#79 = DIRECTION ( 'NONE',  ( -0.0000000000000000000, -0.0000000000000000000, -1.000000000000000000 ) ) ;
#80 = VERTEX_POINT ( 'NONE', #142 ) ;
#81 = ORIENTED_EDGE ( 'NONE', *, *, #283, .T. ) ;
#82 = ORIENTED_EDGE ( 'NONE', *, *, #83, .T. ) ;
#83 = EDGE_CURVE ( 'NONE', #316, #124, #154, .T. ) ;
#84 = CARTESIAN_POINT ( 'NONE',  ( 0.04685310000000005026, 0.0000000000000000000, 0.3750000000000000555 ) ) ;
#85 = COLOUR_RGB ( '',0.7921568627450980005, 0.8196078431372548767, 0.9333333333333333481 ) ;
#86 = EDGE_CURVE ( 'NONE', #200, #124, #337, .T. ) ;
#87 = DIRECTION ( 'NONE',  ( -0.0000000000000000000, -0.0000000000000000000, -1.000000000000000000 ) ) ;
#88 = PLANE ( 'NONE',  #5 ) ;
#89 = AXIS2_PLACEMENT_3D ( 'NONE', #91, #227, #38 ) ;
#90 = TOROIDAL_SURFACE ( 'NONE', #43, 0.03685309999999999975, 0.01000000000000000021 ) ;
#91 = CARTESIAN_POINT ( 'NONE',  ( 4.592425496802576684E-17, 0.0000000000000000000, 0.3750000000000000555 ) ) ;
#92 = DIRECTION ( 'NONE',  ( 1.000000000000000000, 0.0000000000000000000, -0.0000000000000000000 ) ) ;
#93 = ORIENTED_EDGE ( 'NONE', *, *, #159, .F. ) ;
#94 = DIRECTION ( 'NONE',  ( 1.000000000000000000, 0.0000000000000000000, 0.0000000000000000000 ) ) ;
#95 = CIRCLE ( 'NONE', #50, 0.06250000000000002776 ) ;
#96 = DIRECTION ( 'NONE',  ( 0.0000000000000000000, 0.0000000000000000000, 1.000000000000000000 ) ) ;
#97 = EDGE_CURVE ( 'NONE', #265, #316, #234, .T. ) ;
#98 = ORIENTED_EDGE ( 'NONE', *, *, #283, .F. ) ;
#99 = VECTOR ( 'NONE', #166, 39.37007874015748143 ) ;
#100 = PRODUCT_DEFINITION_FORMATION_WITH_SPECIFIED_SOURCE ( 'ANY', '', #312, .NOT_KNOWN. ) ;
#101 = EDGE_LOOP ( 'NONE', ( #202, #98, #208, #309 ) ) ;
#102 = FACE_OUTER_BOUND ( 'NONE', #129, .T. ) ;
#103 = ORIENTED_EDGE ( 'NONE', *, *, #269, .T. ) ;
#104 = CARTESIAN_POINT ( 'NONE',  ( -0.04685310000000000169, 0.0000000000000000000, 0.01000000000000000194 ) ) ;
#105 = EDGE_LOOP ( 'NONE', ( #237, #314, #157, #206 ) ) ;
#106 = DIRECTION ( 'NONE',  ( -0.1736481776669311639, 2.126576849575783008E-17, 0.9848077530122080203 ) ) ;
#107 = EDGE_LOOP ( 'NONE', ( #81, #158 ) ) ;
#108 = ADVANCED_FACE ( 'NONE', ( #145 ), #296, .T. ) ;
#109 = DIRECTION ( 'NONE',  ( 1.000000000000000000, 0.0000000000000000000, 0.0000000000000000000 ) ) ;
#110 = LINE ( 'NONE', #257, #334 ) ;
#111 = SURFACE_STYLE_USAGE ( .BOTH. , #128 ) ;
#112 = AXIS2_PLACEMENT_3D ( 'NONE', #258, #279, #171 ) ;
#113 = DIRECTION ( 'NONE',  ( 0.0000000000000000000, 0.0000000000000000000, 1.000000000000000000 ) ) ;
#114 = CARTESIAN_POINT ( 'NONE',  ( -0.06250000000000002776, 0.0000000000000000000, 1.500000000000000222 ) ) ;
#115 = FACE_OUTER_BOUND ( 'NONE', #344, .T. ) ;
#116 = ADVANCED_FACE ( 'NONE', ( #226 ), #251, .T. ) ;
#117 =( NAMED_UNIT ( * ) PLANE_ANGLE_UNIT ( ) SI_UNIT ( $, .RADIAN. ) );
#118 = DIRECTION ( 'NONE',  ( 0.0000000000000000000, 0.0000000000000000000, 1.000000000000000000 ) ) ;
#119 = CARTESIAN_POINT ( 'NONE',  ( 4.592425496802576684E-17, 0.0000000000000000000, 0.3750000000000000555 ) ) ;
#120 = EDGE_CURVE ( 'NONE', #75, #147, #303, .T. ) ;
#121 = DIRECTION ( 'NONE',  ( 0.0000000000000000000, 0.0000000000000000000, -1.000000000000000000 ) ) ;
#122 = AXIS2_PLACEMENT_3D ( 'NONE', #119, #18, #220 ) ;
#123 = VERTEX_POINT ( 'NONE', #73 ) ;
#124 = VERTEX_POINT ( 'NONE', #278 ) ;
#125 = AXIS2_PLACEMENT_3D ( 'NONE', #313, #160, #109 ) ;
#126 = CARTESIAN_POINT ( 'NONE',  ( 1.224646799147353962E-18, 0.0000000000000000000, 0.01000000000000000194 ) ) ;
#127 = ORIENTED_EDGE ( 'NONE', *, *, #346, .T. ) ;
#128 = SURFACE_SIDE_STYLE ('',( #25 ) ) ;
#129 = EDGE_LOOP ( 'NONE', ( #336, #127, #232, #22 ) ) ;
#130 = ORIENTED_EDGE ( 'NONE', *, *, #326, .T. ) ;
#131 = EDGE_CURVE ( 'NONE', #80, #147, #340, .T. ) ;
#132 = PRESENTATION_STYLE_ASSIGNMENT (( #111 ) ) ;
#133 = DIRECTION ( 'NONE',  ( -1.224646799147353700E-16, -0.0000000000000000000, -1.000000000000000000 ) ) ;
#134 = AXIS2_PLACEMENT_3D ( 'NONE', #126, #118, #329 ) ;
#135 = CIRCLE ( 'NONE', #125, 0.04750000000000064587 ) ;
#136 = LENGTH_MEASURE_WITH_UNIT ( LENGTH_MEASURE( 0.02539999999999999897 ), #183 );
#137 = CYLINDRICAL_SURFACE ( 'NONE', #248, 0.06250000000000002776 ) ;
#138 = CONICAL_SURFACE ( 'NONE', #144, 0.04750000000000064587, 0.7853981633974466137 ) ;
#139 =( GEOMETRIC_REPRESENTATION_CONTEXT ( 3 ) GLOBAL_UNCERTAINTY_ASSIGNED_CONTEXT ( ( #253 ) ) GLOBAL_UNIT_ASSIGNED_CONTEXT ( ( #245, #66, #324 ) ) REPRESENTATION_CONTEXT ( 'NONE', 'WORKASPACE' ) );
#140 = PLANE ( 'NONE',  #65 ) ;
#141 = FACE_OUTER_BOUND ( 'NONE', #343, .T. ) ;
#142 = CARTESIAN_POINT ( 'NONE',  ( -0.06249999999999996531, 0.0000000000000000000, 0.4637379795033760299 ) ) ;
#143 = AXIS2_PLACEMENT_3D ( 'NONE', #35, #195, #342 ) ;
#144 = AXIS2_PLACEMENT_3D ( 'NONE', #9, #121, #77 ) ;
#145 = FACE_OUTER_BOUND ( 'NONE', #52, .T. ) ;
#146 = ADVANCED_FACE ( 'NONE', ( #33 ), #138, .T. ) ;
#147 = VERTEX_POINT ( 'NONE', #224 ) ;
#148 = CARTESIAN_POINT ( 'NONE',  ( 0.06250000000000002776, 7.654042494670959086E-18, 1.500000000000000222 ) ) ;
#149 = ORIENTED_EDGE ( 'NONE', *, *, #159, .T. ) ;
#150 = DIRECTION ( 'NONE',  ( 1.000000000000000000, 0.0000000000000000000, 0.0000000000000000000 ) ) ;
#151 = DIRECTION ( 'NONE',  ( 1.000000000000000000, 0.0000000000000000000, 0.0000000000000000000 ) ) ;
#152 = ORIENTED_EDGE ( 'NONE', *, *, #131, .F. ) ;
#153 = PRODUCT_DEFINITION_SHAPE ( 'NONE', 'NONE',  #250 ) ;
#154 = CIRCLE ( 'NONE', #134, 0.04685310000000000169 ) ;
#155 = CIRCLE ( 'NONE', #260, 0.04685310000000000863 ) ;
#156 = DIRECTION ( 'NONE',  ( 1.000000000000000000, 0.0000000000000000000, 0.0000000000000000000 ) ) ;
#157 = ORIENTED_EDGE ( 'NONE', *, *, #131, .T. ) ;
#158 = ORIENTED_EDGE ( 'NONE', *, *, #217, .T. ) ;
#159 = EDGE_CURVE ( 'NONE', #255, #75, #289, .T. ) ;
#160 = DIRECTION ( 'NONE',  ( 0.0000000000000000000, 0.0000000000000000000, 1.000000000000000000 ) ) ;
#161 = CONICAL_SURFACE ( 'NONE', #270, 0.04685310000000000863, 0.1745329251994338637 ) ;
#162 = DIRECTION ( 'NONE',  ( -1.000000000000000000, 0.0000000000000000000, 0.0000000000000000000 ) ) ;
#163 = SURFACE_STYLE_USAGE ( .BOTH. , #167 ) ;
#164 = FILL_AREA_STYLE_COLOUR ( '', #300 ) ;
#165 = PRESENTATION_LAYER_ASSIGNMENT (  '', '', ( #203 ) ) ;
#166 = DIRECTION ( 'NONE',  ( -0.0000000000000000000, -0.0000000000000000000, -1.000000000000000000 ) ) ;
#167 = SURFACE_SIDE_STYLE ('',( #187 ) ) ;
#168 = DIRECTION ( 'NONE',  ( -1.224646799147353700E-16, -0.0000000000000000000, -1.000000000000000000 ) ) ;
#169 = DIRECTION ( 'NONE',  ( -1.000000000000000000, 0.0000000000000000000, 1.224646799147353700E-16 ) ) ;
#170 = PRESENTATION_LAYER_ASSIGNMENT (  '', '', ( #197 ) ) ;
#171 = DIRECTION ( 'NONE',  ( 1.000000000000000000, 0.0000000000000000000, 0.0000000000000000000 ) ) ;
#172 = CARTESIAN_POINT ( 'NONE',  ( 1.224646799147353962E-18, 0.0000000000000000000, 0.01000000000000000194 ) ) ;
#173 = AXIS2_PLACEMENT_3D ( 'NONE', #26, #133, #294 ) ;
#174 =( GEOMETRIC_REPRESENTATION_CONTEXT ( 3 ) GLOBAL_UNCERTAINTY_ASSIGNED_CONTEXT ( ( #191 ) ) GLOBAL_UNIT_ASSIGNED_CONTEXT ( ( #246, #117, #34 ) ) REPRESENTATION_CONTEXT ( 'NONE', 'WORKASPACE' ) );
#175 = APPLICATION_PROTOCOL_DEFINITION ( 'draft international standard', 'automotive_design', 1998, #40 ) ;
#176 = ORIENTED_EDGE ( 'NONE', *, *, #201, .T. ) ;
#177 = ADVANCED_FACE ( 'NONE', ( #141 ), #90, .T. ) ;
#178 = DIRECTION ( 'NONE',  ( 0.0000000000000000000, 0.0000000000000000000, -1.000000000000000000 ) ) ;
#179 = CARTESIAN_POINT ( 'NONE',  ( -0.04750000000000064587, 0.0000000000000000000, 1.500000000000000222 ) ) ;
#180 =( NAMED_UNIT ( * ) PLANE_ANGLE_UNIT ( ) SI_UNIT ( $, .RADIAN. ) );
#181 = ORIENTED_EDGE ( 'NONE', *, *, #346, .F. ) ;
#182 = EDGE_CURVE ( 'NONE', #12, #255, #247, .T. ) ;
#183 =( LENGTH_UNIT ( ) NAMED_UNIT ( * ) SI_UNIT ( $, .METRE. ) );
#184 = ORIENTED_EDGE ( 'NONE', *, *, #120, .F. ) ;
#185 = CARTESIAN_POINT ( 'NONE',  ( 4.592425496802576684E-17, 0.0000000000000000000, 0.3750000000000000555 ) ) ;
#186 = EDGE_LOOP ( 'NONE', ( #184, #230, #256, #286 ) ) ;
#187 = SURFACE_STYLE_FILL_AREA ( #62 ) ;
#188 =( LENGTH_UNIT ( ) NAMED_UNIT ( * ) SI_UNIT ( $, .METRE. ) );
#189 = TOROIDAL_SURFACE ( 'NONE', #112, 0.03685309999999999975, 0.01000000000000000021 ) ;
#190 = AXIS2_PLACEMENT_3D ( 'NONE', #225, #231, #333 ) ;
#191 = UNCERTAINTY_MEASURE_WITH_UNIT (LENGTH_MEASURE( 1.000000000000000082E-05 ), #246, 'distance_accuracy_value', 'NONE');
#192 = DIRECTION ( 'NONE',  ( 0.0000000000000000000, 0.0000000000000000000, 1.000000000000000000 ) ) ;
#193 = DIRECTION ( 'NONE',  ( -1.224646799147353700E-16, -0.0000000000000000000, -1.000000000000000000 ) ) ;
#194 = CARTESIAN_POINT ( 'NONE',  ( 0.0000000000000000000, 0.0000000000000000000, 1.500000000000000222 ) ) ;
#195 = DIRECTION ( 'NONE',  ( 0.0000000000000000000, 0.0000000000000000000, -1.000000000000000000 ) ) ;
#196 = AXIS2_PLACEMENT_3D ( 'NONE', #310, #67, #332 ) ;
#197 = STYLED_ITEM ( 'NONE', ( #299 ), #213 ) ;
#198 = APPLICATION_CONTEXT ( 'automotive_design' ) ;
#199 = MANIFOLD_SOLID_BREP ( 'Fillet1', #244 ) ;
#200 = VERTEX_POINT ( 'NONE', #84 ) ;
#201 = EDGE_CURVE ( 'NONE', #123, #75, #210, .T. ) ;
#202 = ORIENTED_EDGE ( 'NONE', *, *, #201, .F. ) ;
#203 = STYLED_ITEM ( 'NONE', ( #132 ), #199 ) ;
#204 = EDGE_LOOP ( 'NONE', ( #149, #42, #152, #17 ) ) ;
#205 = FACE_OUTER_BOUND ( 'NONE', #105, .T. ) ;
#206 = ORIENTED_EDGE ( 'NONE', *, *, #20, .F. ) ;
#207 = DIRECTION ( 'NONE',  ( 0.0000000000000000000, 0.0000000000000000000, 1.000000000000000000 ) ) ;
#208 = ORIENTED_EDGE ( 'NONE', *, *, #182, .T. ) ;
#209 = CIRCLE ( 'NONE', #59, 0.03685309999999999975 ) ;
#210 = LINE ( 'NONE', #319, #328 ) ;
#211 = VERTEX_POINT ( 'NONE', #295 ) ;
#212 = LINE ( 'NONE', #264, #317 ) ;
#213 = ADVANCED_BREP_SHAPE_REPRESENTATION ( 'Micro_GEC-093-3-010', ( #199, #190 ), #139 ) ;
#214 = CARTESIAN_POINT ( 'NONE',  ( 4.592425496802576684E-17, 0.0000000000000000000, 0.3750000000000000555 ) ) ;
#215 = AXIS2_PLACEMENT_3D ( 'NONE', #282, #285, #151 ) ;
#216 = FACE_OUTER_BOUND ( 'NONE', #223, .T. ) ;
#217 = EDGE_CURVE ( 'NONE', #123, #12, #276, .T. ) ;
#218 = LENGTH_MEASURE_WITH_UNIT ( LENGTH_MEASURE( 0.02539999999999999897 ), #275 );
#219 = VECTOR ( 'NONE', #168, 39.37007874015748143 ) ;
#220 = DIRECTION ( 'NONE',  ( -1.000000000000000000, 0.0000000000000000000, 0.0000000000000000000 ) ) ;
#221 = UNCERTAINTY_MEASURE_WITH_UNIT (LENGTH_MEASURE( 1.000000000000000082E-05 ), #56, 'distance_accuracy_value', 'NONE');
#222 = DIRECTION ( 'NONE',  ( -1.000000000000000000, 1.224646799147353454E-16, 0.0000000000000000000 ) ) ;
#223 = EDGE_LOOP ( 'NONE', ( #320, #48 ) ) ;
#224 = CARTESIAN_POINT ( 'NONE',  ( 0.06250000000000008327, 7.654042494670966789E-18, 0.4637379795033760299 ) ) ;
#225 = CARTESIAN_POINT ( 'NONE',  ( 0.0000000000000000000, 0.0000000000000000000, 0.0000000000000000000 ) ) ;
#226 = FACE_OUTER_BOUND ( 'NONE', #204, .T. ) ;
#227 = DIRECTION ( 'NONE',  ( 1.224646799147353700E-16, 0.0000000000000000000, 1.000000000000000000 ) ) ;
#228 = ADVANCED_FACE ( 'NONE', ( #315 ), #161, .T. ) ;
#229 = SHAPE_DEFINITION_REPRESENTATION ( #153, #213 ) ;
#230 = ORIENTED_EDGE ( 'NONE', *, *, #45, .T. ) ;
#231 = DIRECTION ( 'NONE',  ( 0.0000000000000000000, 0.0000000000000000000, 1.000000000000000000 ) ) ;
#232 = ORIENTED_EDGE ( 'NONE', *, *, #31, .F. ) ;
#233 = VECTOR ( 'NONE', #287, 39.37007874015748854 ) ;
#234 = LINE ( 'NONE', #68, #219 ) ;
#235 = ORIENTED_EDGE ( 'NONE', *, *, #6, .T. ) ;
#236 = DIRECTION ( 'NONE',  ( -1.000000000000000000, 0.0000000000000000000, 0.0000000000000000000 ) ) ;
#237 = ORIENTED_EDGE ( 'NONE', *, *, #269, .F. ) ;
#238 = DIRECTION ( 'NONE',  ( -0.0000000000000000000, -0.0000000000000000000, -1.000000000000000000 ) ) ;
#239 = ORIENTED_EDGE ( 'NONE', *, *, #83, .F. ) ;
#240 = CIRCLE ( 'NONE', #298, 0.04685310000000000169 ) ;
#241 = CARTESIAN_POINT ( 'NONE',  ( -0.06250000000000002776, 0.0000000000000000000, 1.485000000000000764 ) ) ;
#242 = ADVANCED_FACE ( 'NONE', ( #290 ), #137, .T. ) ;
#243 = CARTESIAN_POINT ( 'NONE',  ( 0.0000000000000000000, 0.0000000000000000000, 1.500000000000000222 ) ) ;
#244 = CLOSED_SHELL ( 'NONE', ( #71, #16, #63, #108, #116, #242, #327, #146, #228, #58, #318, #177 ) ) ;
#245 =( CONVERSION_BASED_UNIT ( 'INCH', #325 ) LENGTH_UNIT ( ) NAMED_UNIT ( #347 ) );
#246 =( CONVERSION_BASED_UNIT ( 'INCH', #218 ) LENGTH_UNIT ( ) NAMED_UNIT ( #263 ) );
#247 = LINE ( 'NONE', #266, #233 ) ;
#248 = AXIS2_PLACEMENT_3D ( 'NONE', #243, #238, #236 ) ;
#249 = DIRECTION ( 'NONE',  ( 1.000000000000000000, 0.0000000000000000000, 0.0000000000000000000 ) ) ;
#250 = PRODUCT_DEFINITION ( 'UNKNOWN', '', #100, #272 ) ;
#251 = CYLINDRICAL_SURFACE ( 'NONE', #196, 0.06250000000000002776 ) ;
#252 = CARTESIAN_POINT ( 'NONE',  ( 5.679152322418704750E-17, 0.0000000000000000000, 0.4637379795033760299 ) ) ;
#253 = UNCERTAINTY_MEASURE_WITH_UNIT (LENGTH_MEASURE( 1.000000000000000082E-05 ), #245, 'distance_accuracy_value', 'NONE');
#254 = MECHANICAL_DESIGN_GEOMETRIC_PRESENTATION_REPRESENTATION (  '', ( #203 ), #76 ) ;
#255 = VERTEX_POINT ( 'NONE', #241 ) ;
#256 = ORIENTED_EDGE ( 'NONE', *, *, #345, .T. ) ;
#257 = CARTESIAN_POINT ( 'NONE',  ( 0.04685310000000005026, 0.0000000000000000000, 0.3750000000000000555 ) ) ;
#258 = CARTESIAN_POINT ( 'NONE',  ( 1.224646799147353770E-18, 0.0000000000000000000, 0.01000000000000000021 ) ) ;
#259 = ORIENTED_EDGE ( 'NONE', *, *, #44, .F. ) ;
#260 = AXIS2_PLACEMENT_3D ( 'NONE', #214, #54, #162 ) ;
#261 = DIRECTION ( 'NONE',  ( 1.000000000000000000, 0.0000000000000000000, 0.0000000000000000000 ) ) ;
#262 = VERTEX_POINT ( 'NONE', #61 ) ;
#263 = DIMENSIONAL_EXPONENTS ( 1.000000000000000000, 0.0000000000000000000, 0.0000000000000000000, 0.0000000000000000000, 0.0000000000000000000, 0.0000000000000000000, 0.0000000000000000000 ) ;
#264 = CARTESIAN_POINT ( 'NONE',  ( -0.04685309999999996700, 5.737849894513086668E-18, 0.3750000000000000555 ) ) ;
#265 = VERTEX_POINT ( 'NONE', #21 ) ;
#266 = CARTESIAN_POINT ( 'NONE',  ( -0.04750000000000064587, 0.0000000000000000000, 1.500000000000000222 ) ) ;
#267 = FACE_OUTER_BOUND ( 'NONE', #308, .T. ) ;
#268 = EDGE_CURVE ( 'NONE', #211, #262, #60, .T. ) ;
#269 = EDGE_CURVE ( 'NONE', #265, #200, #155, .T. ) ;
#270 = AXIS2_PLACEMENT_3D ( 'NONE', #185, #51, #29 ) ;
#271 =( NAMED_UNIT ( * ) SI_UNIT ( $, .STERADIAN. ) SOLID_ANGLE_UNIT ( ) );
#272 = PRODUCT_DEFINITION_CONTEXT ( 'detailed design', #40, 'design' ) ;
#273 = FILL_AREA_STYLE ('',( #348 ) ) ;
#274 = APPLICATION_PROTOCOL_DEFINITION ( 'draft international standard', 'automotive_design', 1998, #198 ) ;
#275 =( LENGTH_UNIT ( ) NAMED_UNIT ( * ) SI_UNIT ( $, .METRE. ) );
#276 = CIRCLE ( 'NONE', #281, 0.04750000000000064587 ) ;
#277 = CARTESIAN_POINT ( 'NONE',  ( 0.03685309999999999975, 0.0000000000000000000, 0.01000000000000000021 ) ) ;
#278 = CARTESIAN_POINT ( 'NONE',  ( 0.04685310000000000169, 5.737849894513085128E-18, 0.01000000000000000194 ) ) ;
#279 = DIRECTION ( 'NONE',  ( 0.0000000000000000000, 0.0000000000000000000, 1.000000000000000000 ) ) ;
#280 = DIRECTION ( 'NONE',  ( 0.0000000000000000000, -1.000000000000000000, 0.0000000000000000000 ) ) ;
#281 = AXIS2_PLACEMENT_3D ( 'NONE', #23, #207, #2 ) ;
#282 = CARTESIAN_POINT ( 'NONE',  ( 0.0000000000000000000, 0.0000000000000000000, 1.485000000000000764 ) ) ;
#283 = EDGE_CURVE ( 'NONE', #12, #123, #135, .T. ) ;
#284 = ORIENTED_EDGE ( 'NONE', *, *, #44, .T. ) ;
#285 = DIRECTION ( 'NONE',  ( 0.0000000000000000000, 0.0000000000000000000, -1.000000000000000000 ) ) ;
#286 = ORIENTED_EDGE ( 'NONE', *, *, #6, .F. ) ;
#287 = DIRECTION ( 'NONE',  ( -0.7071067811865462405, 0.0000000000000000000, -0.7071067811865486830 ) ) ;
#288 = ORIENTED_EDGE ( 'NONE', *, *, #20, .T. ) ;
#289 = CIRCLE ( 'NONE', #8, 0.06250000000000002776 ) ;
#290 = FACE_OUTER_BOUND ( 'NONE', #186, .T. ) ;
#291 = ORIENTED_EDGE ( 'NONE', *, *, #182, .F. ) ;
#292 = EDGE_CURVE ( 'NONE', #265, #80, #212, .T. ) ;
#293 = CARTESIAN_POINT ( 'NONE',  ( 1.224646799147353770E-18, 0.0000000000000000000, 0.0000000000000000000 ) ) ;
#294 = DIRECTION ( 'NONE',  ( -1.000000000000000000, 0.0000000000000000000, 1.224646799147353700E-16 ) ) ;
#295 = CARTESIAN_POINT ( 'NONE',  ( 0.03685309999999999975, 0.0000000000000000000, 0.0000000000000000000 ) ) ;
#296 = CONICAL_SURFACE ( 'NONE', #143, 0.04750000000000064587, 0.7853981633974466137 ) ;
#297 = DIRECTION ( 'NONE',  ( 1.000000000000000000, 0.0000000000000000000, 0.0000000000000000000 ) ) ;
#298 = AXIS2_PLACEMENT_3D ( 'NONE', #172, #96, #47 ) ;
#299 = PRESENTATION_STYLE_ASSIGNMENT (( #163 ) ) ;
#300 = COLOUR_RGB ( '',0.7921568627450980005, 0.8196078431372548767, 0.9333333333333333481 ) ;
#301 = CARTESIAN_POINT ( 'NONE',  ( 0.04685310000000000169, 5.737849894513085128E-18, -5.737849894513087439E-18 ) ) ;
#302 = LINE ( 'NONE', #114, #341 ) ;
#303 = LINE ( 'NONE', #148, #99 ) ;
#304 = PRODUCT_CONTEXT ( 'NONE', #198, 'mechanical' ) ;
#305 = AXIS2_PLACEMENT_3D ( 'NONE', #293, #351, #156 ) ;
#306 = DIRECTION ( 'NONE',  ( -1.224646799147353700E-16, -0.0000000000000000000, -1.000000000000000000 ) ) ;
#307 = EDGE_CURVE ( 'NONE', #262, #211, #209, .T. ) ;
#308 = EDGE_LOOP ( 'NONE', ( #103, #74, #330, #339 ) ) ;
#309 = ORIENTED_EDGE ( 'NONE', *, *, #45, .F. ) ;
#310 = CARTESIAN_POINT ( 'NONE',  ( 0.0000000000000000000, 0.0000000000000000000, 1.500000000000000222 ) ) ;
#311 = ORIENTED_EDGE ( 'NONE', *, *, #86, .F. ) ;
#312 = PRODUCT ( 'Micro_GEC-093-3-010', 'Micro_GEC-093-3-010', '', ( #304 ) ) ;
#313 = CARTESIAN_POINT ( 'NONE',  ( 0.0000000000000000000, 0.0000000000000000000, 1.500000000000000222 ) ) ;
#314 = ORIENTED_EDGE ( 'NONE', *, *, #292, .T. ) ;
#315 = FACE_OUTER_BOUND ( 'NONE', #24, .T. ) ;
#316 = VERTEX_POINT ( 'NONE', #104 ) ;
#317 = VECTOR ( 'NONE', #106, 39.37007874015747433 ) ;
#318 = ADVANCED_FACE ( 'NONE', ( #216 ), #88, .F. ) ;
#319 = CARTESIAN_POINT ( 'NONE',  ( 0.04750000000000064587, 5.817072295950006528E-18, 1.500000000000000222 ) ) ;
#320 = ORIENTED_EDGE ( 'NONE', *, *, #268, .T. ) ;
#321 = CARTESIAN_POINT ( 'NONE',  ( 1.224646799147353770E-18, 0.0000000000000000000, 0.0000000000000000000 ) ) ;
#322 = DIRECTION ( 'NONE',  ( 0.7071067811865462405, 8.659560562354916834E-17, -0.7071067811865486830 ) ) ;
#323 = CIRCLE ( 'NONE', #14, 0.01000000000000000021 ) ;
#324 =( NAMED_UNIT ( * ) SI_UNIT ( $, .STERADIAN. ) SOLID_ANGLE_UNIT ( ) );
#325 = LENGTH_MEASURE_WITH_UNIT ( LENGTH_MEASURE( 0.02539999999999999897 ), #188 );
#326 = EDGE_CURVE ( 'NONE', #211, #124, #323, .T. ) ;
#327 = ADVANCED_FACE ( 'NONE', ( #32 ), #140, .T. ) ;
#328 = VECTOR ( 'NONE', #322, 39.37007874015748854 ) ;
#329 = DIRECTION ( 'NONE',  ( 1.000000000000000000, 0.0000000000000000000, 0.0000000000000000000 ) ) ;
#330 = ORIENTED_EDGE ( 'NONE', *, *, #31, .T. ) ;
#331 = CARTESIAN_POINT ( 'NONE',  ( 0.0000000000000000000, 0.0000000000000000000, 1.485000000000000764 ) ) ;
#332 = DIRECTION ( 'NONE',  ( -1.000000000000000000, 0.0000000000000000000, 0.0000000000000000000 ) ) ;
#333 = DIRECTION ( 'NONE',  ( 1.000000000000000000, 0.0000000000000000000, 0.0000000000000000000 ) ) ;
#334 = VECTOR ( 'NONE', #49, 39.37007874015748143 ) ;
#335 = MECHANICAL_DESIGN_GEOMETRIC_PRESENTATION_REPRESENTATION (  '', ( #197 ), #174 ) ;
#336 = ORIENTED_EDGE ( 'NONE', *, *, #307, .F. ) ;
#337 = LINE ( 'NONE', #301, #27 ) ;
#338 = DIMENSIONAL_EXPONENTS ( 1.000000000000000000, 0.0000000000000000000, 0.0000000000000000000, 0.0000000000000000000, 0.0000000000000000000, 0.0000000000000000000, 0.0000000000000000000 ) ;
#339 = ORIENTED_EDGE ( 'NONE', *, *, #97, .F. ) ;
#340 = CIRCLE ( 'NONE', #4, 0.06250000000000002776 ) ;
#341 = VECTOR ( 'NONE', #87, 39.37007874015748143 ) ;
#342 = DIRECTION ( 'NONE',  ( -1.000000000000000000, 0.0000000000000000000, 0.0000000000000000000 ) ) ;
#343 = EDGE_LOOP ( 'NONE', ( #181, #349, #130, #239 ) ) ;
#344 = EDGE_LOOP ( 'NONE', ( #311, #284, #19, #82 ) ) ;
#345 = EDGE_CURVE ( 'NONE', #255, #80, #302, .T. ) ;
#346 = EDGE_CURVE ( 'NONE', #262, #316, #28, .T. ) ;
#347 = DIMENSIONAL_EXPONENTS ( 1.000000000000000000, 0.0000000000000000000, 0.0000000000000000000, 0.0000000000000000000, 0.0000000000000000000, 0.0000000000000000000, 0.0000000000000000000 ) ;
#348 = FILL_AREA_STYLE_COLOUR ( '', #85 ) ;
#349 = ORIENTED_EDGE ( 'NONE', *, *, #268, .F. ) ;
#350 = CIRCLE ( 'NONE', #215, 0.06250000000000002776 ) ;
#351 = DIRECTION ( 'NONE',  ( -0.0000000000000000000, -0.0000000000000000000, -1.000000000000000000 ) ) ;
ENDSEC;
END-ISO-10303-21;
