ISO-10303-21;
HEADER;
FILE_DESCRIPTION (( 'STEP AP214' ),
    '1' );
FILE_NAME ('59786.STEP',
    '2023-07-24T15:39:10',
    ( '' ),
    ( '' ),
    'SwSTEP 2.0',
    'SolidWorks 2023',
    '' );
FILE_SCHEMA (( 'AUTOMOTIVE_DESIGN' ));
ENDSEC;

DATA;
#1 = CYLINDRICAL_SURFACE ( 'NONE', #67, 10.00000000000000000 ) ;
#2 = CARTESIAN_POINT ( 'NONE',  ( 10.00000000000000000, 124.9999999999999858, 0.000000000000000000 ) ) ;
#3 = DIRECTION ( 'NONE',  ( -1.252807796048505441E-16, 1.000000000000000000, -0.000000000000000000 ) ) ;
#4 = AXIS2_PLACEMENT_3D ( 'NONE', #343, #88, #276 ) ;
#5 = CARTESIAN_POINT ( 'NONE',  ( -4.408728476930469278E-15, 124.9999999999999858, 0.000000000000000000 ) ) ;
#6 = APPLICATION_CONTEXT ( 'automotive_design' ) ;
#7 = FILL_AREA_STYLE_COLOUR ( '', #337 ) ;
#8 = STYLED_ITEM ( 'NONE', ( #284 ), #20 ) ;
#9 = AXIS2_PLACEMENT_3D ( 'NONE', #86, #313, #90 ) ;
#10 = CARTESIAN_POINT ( 'NONE',  ( 0.000000000000000000, 0.000000000000000000, 0.000000000000000000 ) ) ;
#11 = SURFACE_STYLE_USAGE ( .BOTH. , #259 ) ;
#12 =( NAMED_UNIT ( * ) PLANE_ANGLE_UNIT ( ) SI_UNIT ( $, .RADIAN. ) );
#13 = STYLED_ITEM ( 'NONE', ( #125 ), #307 ) ;
#14 = CARTESIAN_POINT ( 'NONE',  ( 0.000000000000000000, 0.5000000000000000000, 0.000000000000000000 ) ) ;
#15 = ORIENTED_EDGE ( 'NONE', *, *, #118, .T. ) ;
#16 =( LENGTH_UNIT ( ) NAMED_UNIT ( * ) SI_UNIT ( .MILLI., .METRE. ) );
#17 = CARTESIAN_POINT ( 'NONE',  ( 0.000000000000000000, 0.000000000000000000, 0.000000000000000000 ) ) ;
#18 = EDGE_CURVE ( 'NONE', #80, #77, #271, .T. ) ;
#19 =( LENGTH_UNIT ( ) NAMED_UNIT ( * ) SI_UNIT ( .MILLI., .METRE. ) );
#20 = MANIFOLD_SOLID_BREP ( 'Revolve - Tool Body (Straight Shanked)', #214 ) ;
#21 = ORIENTED_EDGE ( 'NONE', *, *, #174, .T. ) ;
#22 = ORIENTED_EDGE ( 'NONE', *, *, #18, .F. ) ;
#23 = CYLINDRICAL_SURFACE ( 'NONE', #222, 10.00000000000000000 ) ;
#24 = LINE ( 'NONE', #217, #258 ) ;
#25 = CARTESIAN_POINT ( 'NONE',  ( 0.000000000000000000, 0.5000000000000000000, 0.000000000000000000 ) ) ;
#26 = CARTESIAN_POINT ( 'NONE',  ( -9.999999999999991118, 50.00000000000000000, 0.000000000000000000 ) ) ;
#27 = EDGE_LOOP ( 'NONE', ( #21, #280, #235, #51 ) ) ;
#28 = FILL_AREA_STYLE ('',( #84 ) ) ;
#29 = SURFACE_STYLE_FILL_AREA ( #288 ) ;
#30 =( GEOMETRIC_REPRESENTATION_CONTEXT ( 3 ) GLOBAL_UNCERTAINTY_ASSIGNED_CONTEXT ( ( #256 ) ) GLOBAL_UNIT_ASSIGNED_CONTEXT ( ( #324, #70, #73 ) ) REPRESENTATION_CONTEXT ( 'NONE', 'WORKASPACE' ) );
#31 = SURFACE_SIDE_STYLE ('',( #317 ) ) ;
#32 = EDGE_CURVE ( 'NONE', #309, #80, #160, .T. ) ;
#33 = FACE_OUTER_BOUND ( 'NONE', #289, .T. ) ;
#34 = EDGE_CURVE ( 'NONE', #347, #47, #251, .T. ) ;
#35 = COLOUR_RGB ( '',1.000000000000000000, 0.000000000000000000, 0.000000000000000000 ) ;
#36 = EDGE_CURVE ( 'NONE', #202, #130, #155, .T. ) ;
#37 = EDGE_CURVE ( 'NONE', #309, #316, #215, .T. ) ;
#38 = LINE ( 'NONE', #122, #134 ) ;
#39 = CARTESIAN_POINT ( 'NONE',  ( 10.00000000000000000, 124.9999999999999858, 1.224646799147353454E-15 ) ) ;
#40 = STYLED_ITEM ( 'NONE', ( #209 ), #129 ) ;
#41 = ORIENTED_EDGE ( 'NONE', *, *, #36, .F. ) ;
#42 =( LENGTH_UNIT ( ) NAMED_UNIT ( * ) SI_UNIT ( .MILLI., .METRE. ) );
#43 = SURFACE_STYLE_USAGE ( .BOTH. , #31 ) ;
#44 = EDGE_CURVE ( 'NONE', #130, #202, #229, .T. ) ;
#45 = DIRECTION ( 'NONE',  ( -0.000000000000000000, -1.000000000000000000, -0.000000000000000000 ) ) ;
#46 = LINE ( 'NONE', #248, #127 ) ;
#47 = VERTEX_POINT ( 'NONE', #26 ) ;
#48 = STYLED_ITEM ( 'NONE', ( #306 ), #267 ) ;
#49 = SURFACE_STYLE_USAGE ( .BOTH. , #76 ) ;
#50 = CARTESIAN_POINT ( 'NONE',  ( 0.000000000000000000, 0.000000000000000000, 0.000000000000000000 ) ) ;
#51 = ORIENTED_EDGE ( 'NONE', *, *, #207, .F. ) ;
#52 = AXIS2_PLACEMENT_3D ( 'NONE', #25, #45, #85 ) ;
#53 = AXIS2_PLACEMENT_3D ( 'NONE', #187, #247, #114 ) ;
#54 = DIRECTION ( 'NONE',  ( 0.000000000000000000, 0.000000000000000000, -1.000000000000000000 ) ) ;
#55 = TOROIDAL_SURFACE ( 'NONE', #104, 9.500000000000000000, 0.5000000000000002220 ) ;
#56 = EDGE_LOOP ( 'NONE', ( #277, #132 ) ) ;
#57 = EDGE_CURVE ( 'NONE', #186, #303, #323, .T. ) ;
#58 = ORIENTED_EDGE ( 'NONE', *, *, #87, .F. ) ;
#59 = FACE_OUTER_BOUND ( 'NONE', #56, .T. ) ;
#60 = STYLED_ITEM ( 'NONE', ( #318 ), #346 ) ;
#61 = ORIENTED_EDGE ( 'NONE', *, *, #44, .F. ) ;
#62 = PRESENTATION_LAYER_ASSIGNMENT (  '', '', ( #13 ) ) ;
#63 = LINE ( 'NONE', #197, #111 ) ;
#64 = DIRECTION ( 'NONE',  ( -0.000000000000000000, -1.000000000000000000, -0.000000000000000000 ) ) ;
#65 =( NAMED_UNIT ( * ) SI_UNIT ( $, .STERADIAN. ) SOLID_ANGLE_UNIT ( ) );
#66 =( GEOMETRIC_REPRESENTATION_CONTEXT ( 3 ) GLOBAL_UNCERTAINTY_ASSIGNED_CONTEXT ( ( #170 ) ) GLOBAL_UNIT_ASSIGNED_CONTEXT ( ( #218, #79, #162 ) ) REPRESENTATION_CONTEXT ( 'NONE', 'WORKASPACE' ) );
#67 = AXIS2_PLACEMENT_3D ( 'NONE', #5, #344, #189 ) ;
#68 = ADVANCED_FACE ( 'NONE', ( #119 ), #1, .T. ) ;
#69 = CARTESIAN_POINT ( 'NONE',  ( 0.000000000000000000, 0.000000000000000000, 0.000000000000000000 ) ) ;
#70 =( NAMED_UNIT ( * ) PLANE_ANGLE_UNIT ( ) SI_UNIT ( $, .RADIAN. ) );
#71 = ADVANCED_FACE ( 'NONE', ( #315 ), #55, .T. ) ;
#72 = PLANE ( 'NONE',  #141 ) ;
#73 =( NAMED_UNIT ( * ) SI_UNIT ( $, .STERADIAN. ) SOLID_ANGLE_UNIT ( ) );
#74 = MECHANICAL_DESIGN_GEOMETRIC_PRESENTATION_REPRESENTATION (  '', ( #13 ), #66 ) ;
#75 = ORIENTED_EDGE ( 'NONE', *, *, #34, .F. ) ;
#76 = SURFACE_SIDE_STYLE ('',( #308 ) ) ;
#77 = VERTEX_POINT ( 'NONE', #93 ) ;
#78 = SURFACE_STYLE_FILL_AREA ( #338 ) ;
#79 =( NAMED_UNIT ( * ) PLANE_ANGLE_UNIT ( ) SI_UNIT ( $, .RADIAN. ) );
#80 = VERTEX_POINT ( 'NONE', #195 ) ;
#81 = COLOUR_RGB ( '',1.000000000000000000, 0.000000000000000000, 0.000000000000000000 ) ;
#82 = EDGE_LOOP ( 'NONE', ( #206, #75 ) ) ;
#83 = COLOUR_RGB ( '',1.000000000000000000, 0.000000000000000000, 0.000000000000000000 ) ;
#84 = FILL_AREA_STYLE_COLOUR ( '', #327 ) ;
#85 = DIRECTION ( 'NONE',  ( 0.000000000000000000, 0.000000000000000000, -1.000000000000000000 ) ) ;
#86 = CARTESIAN_POINT ( 'NONE',  ( 0.000000000000000000, 50.00000000000000000, 0.000000000000000000 ) ) ;
#87 = EDGE_CURVE ( 'NONE', #202, #309, #63, .T. ) ;
#88 = DIRECTION ( 'NONE',  ( -1.252807796048505441E-16, 1.000000000000000000, -0.000000000000000000 ) ) ;
#89 = CLOSED_SHELL ( 'NONE', ( #129, #307, #282, #71, #329, #346 ) ) ;
#90 = DIRECTION ( 'NONE',  ( 0.000000000000000000, 0.000000000000000000, -1.000000000000000000 ) ) ;
#91 = AXIS2_PLACEMENT_3D ( 'NONE', #148, #255, #319 ) ;
#92 = PLANE ( 'NONE',  #232 ) ;
#93 = CARTESIAN_POINT ( 'NONE',  ( 0.000000000000000000, 0.000000000000000000, -9.500000000000000000 ) ) ;
#94 = SURFACE_SIDE_STYLE ('',( #102 ) ) ;
#95 = ADVANCED_FACE ( 'NONE', ( #238 ), #72, .F. ) ;
#96 =( NAMED_UNIT ( * ) PLANE_ANGLE_UNIT ( ) SI_UNIT ( $, .RADIAN. ) );
#97 = MECHANICAL_DESIGN_GEOMETRIC_PRESENTATION_REPRESENTATION (  '', ( #260 ), #227 ) ;
#98 = EDGE_CURVE ( 'NONE', #316, #77, #147, .T. ) ;
#99 = FILL_AREA_STYLE ('',( #266 ) ) ;
#100 = PRESENTATION_STYLE_ASSIGNMENT (( #43 ) ) ;
#101 = PRESENTATION_LAYER_ASSIGNMENT (  '', '', ( #260 ) ) ;
#102 = SURFACE_STYLE_FILL_AREA ( #228 ) ;
#103 = CARTESIAN_POINT ( 'NONE',  ( 1.224646799147353256E-15, 0.5000000000000000000, 10.00000000000000000 ) ) ;
#104 = AXIS2_PLACEMENT_3D ( 'NONE', #14, #64, #180 ) ;
#105 = FILL_AREA_STYLE_COLOUR ( '', #257 ) ;
#106 = DIRECTION ( 'NONE',  ( 1.000000000000000000, 0.000000000000000000, 0.000000000000000000 ) ) ;
#107 = ORIENTED_EDGE ( 'NONE', *, *, #34, .T. ) ;
#108 = AXIS2_PLACEMENT_3D ( 'NONE', #146, #216, #54 ) ;
#109 =( LENGTH_UNIT ( ) NAMED_UNIT ( * ) SI_UNIT ( .MILLI., .METRE. ) );
#110 =( NAMED_UNIT ( * ) SI_UNIT ( $, .STERADIAN. ) SOLID_ANGLE_UNIT ( ) );
#111 = VECTOR ( 'NONE', #178, 1000.000000000000000 ) ;
#112 = UNCERTAINTY_MEASURE_WITH_UNIT (LENGTH_MEASURE( 1.000000000000000082E-05 ), #19, 'distance_accuracy_value', 'NONE');
#113 = CARTESIAN_POINT ( 'NONE',  ( 1.224646799147353256E-15, 50.00000000000000000, 10.00000000000000000 ) ) ;
#114 = DIRECTION ( 'NONE',  ( -1.000000000000000000, 0.000000000000000000, 0.000000000000000000 ) ) ;
#115 = EDGE_CURVE ( 'NONE', #303, #186, #330, .T. ) ;
#116 = SURFACE_SIDE_STYLE ('',( #78 ) ) ;
#117 = SURFACE_STYLE_FILL_AREA ( #28 ) ;
#118 = EDGE_CURVE ( 'NONE', #130, #80, #38, .T. ) ;
#119 = FACE_OUTER_BOUND ( 'NONE', #27, .T. ) ;
#120 = SURFACE_STYLE_USAGE ( .BOTH. , #366 ) ;
#121 = FILL_AREA_STYLE_COLOUR ( '', #199 ) ;
#122 = CARTESIAN_POINT ( 'NONE',  ( 0.000000000000000000, 0.000000000000000000, -10.00000000000000000 ) ) ;
#123 = PRESENTATION_LAYER_ASSIGNMENT (  '', '', ( #263 ) ) ;
#124 = FILL_AREA_STYLE ('',( #105 ) ) ;
#125 = PRESENTATION_STYLE_ASSIGNMENT (( #11 ) ) ;
#126 = DIRECTION ( 'NONE',  ( -1.252807796048505441E-16, 1.000000000000000000, -0.000000000000000000 ) ) ;
#127 = VECTOR ( 'NONE', #243, 1000.000000000000000 ) ;
#128 =( LENGTH_UNIT ( ) NAMED_UNIT ( * ) SI_UNIT ( .MILLI., .METRE. ) );
#129 = ADVANCED_FACE ( 'NONE', ( #33 ), #326, .T. ) ;
#130 = VERTEX_POINT ( 'NONE', #333 ) ;
#131 =( LENGTH_UNIT ( ) NAMED_UNIT ( * ) SI_UNIT ( .MILLI., .METRE. ) );
#132 = ORIENTED_EDGE ( 'NONE', *, *, #98, .T. ) ;
#133 = AXIS2_PLACEMENT_3D ( 'NONE', #50, #278, #106 ) ;
#134 = VECTOR ( 'NONE', #351, 1000.000000000000000 ) ;
#135 = ORIENTED_EDGE ( 'NONE', *, *, #98, .F. ) ;
#136 = FACE_OUTER_BOUND ( 'NONE', #287, .T. ) ;
#137 = ADVANCED_BREP_SHAPE_REPRESENTATION ( '59786', ( #267, #20, #133 ), #293 ) ;
#138 = ORIENTED_EDGE ( 'NONE', *, *, #32, .F. ) ;
#139 = CARTESIAN_POINT ( 'NONE',  ( 0.000000000000000000, 0.5000000000000000000, 0.000000000000000000 ) ) ;
#140 = DIRECTION ( 'NONE',  ( 0.000000000000000000, 0.000000000000000000, 1.000000000000000000 ) ) ;
#141 = AXIS2_PLACEMENT_3D ( 'NONE', #359, #356, #173 ) ;
#142 = DIRECTION ( 'NONE',  ( -1.252807796048505441E-16, 1.000000000000000000, -0.000000000000000000 ) ) ;
#143 = CARTESIAN_POINT ( 'NONE',  ( 1.194030629168669469E-15, 0.000000000000000000, 9.500000000000000000 ) ) ;
#144 = CARTESIAN_POINT ( 'NONE',  ( -4.408728476930469278E-15, 124.9999999999999858, 0.000000000000000000 ) ) ;
#145 = SURFACE_STYLE_FILL_AREA ( #124 ) ;
#146 = CARTESIAN_POINT ( 'NONE',  ( 0.000000000000000000, 0.5000000000000000000, 0.000000000000000000 ) ) ;
#147 = CIRCLE ( 'NONE', #91, 9.500000000000000000 ) ;
#148 = CARTESIAN_POINT ( 'NONE',  ( 0.000000000000000000, 0.000000000000000000, 0.000000000000000000 ) ) ;
#149 = APPLICATION_CONTEXT ( 'automotive_design' ) ;
#150 = PRODUCT ( '59786', '59786', '', ( #305 ) ) ;
#151 = MECHANICAL_DESIGN_GEOMETRIC_PRESENTATION_REPRESENTATION (  '', ( #263 ), #361 ) ;
#152 = UNCERTAINTY_MEASURE_WITH_UNIT (LENGTH_MEASURE( 1.000000000000000082E-05 ), #131, 'distance_accuracy_value', 'NONE');
#153 = DIRECTION ( 'NONE',  ( 0.000000000000000000, -1.000000000000000000, -0.000000000000000000 ) ) ;
#154 = PRODUCT_DEFINITION_FORMATION_WITH_SPECIFIED_SOURCE ( 'ANY', '', #150, .NOT_KNOWN. ) ;
#155 = CIRCLE ( 'NONE', #367, 10.00000000000000000 ) ;
#156 = CARTESIAN_POINT ( 'NONE',  ( -4.408728476930469278E-15, 124.9999999999999858, 0.000000000000000000 ) ) ;
#157 = CYLINDRICAL_SURFACE ( 'NONE', #172, 10.00000000000000000 ) ;
#158 = PRESENTATION_STYLE_ASSIGNMENT (( #49 ) ) ;
#159 = ORIENTED_EDGE ( 'NONE', *, *, #87, .T. ) ;
#160 = CIRCLE ( 'NONE', #108, 10.00000000000000000 ) ;
#161 = CARTESIAN_POINT ( 'NONE',  ( -10.00000000000001066, 124.9999999999999858, 0.000000000000000000 ) ) ;
#162 =( NAMED_UNIT ( * ) SI_UNIT ( $, .STERADIAN. ) SOLID_ANGLE_UNIT ( ) );
#163 =( GEOMETRIC_REPRESENTATION_CONTEXT ( 3 ) GLOBAL_UNCERTAINTY_ASSIGNED_CONTEXT ( ( #353 ) ) GLOBAL_UNIT_ASSIGNED_CONTEXT ( ( #128, #236, #234 ) ) REPRESENTATION_CONTEXT ( 'NONE', 'WORKASPACE' ) );
#164 = ORIENTED_EDGE ( 'NONE', *, *, #37, .F. ) ;
#165 = ORIENTED_EDGE ( 'NONE', *, *, #237, .F. ) ;
#166 = ORIENTED_EDGE ( 'NONE', *, *, #32, .T. ) ;
#167 = EDGE_LOOP ( 'NONE', ( #165, #107, #332, #169 ) ) ;
#168 = MECHANICAL_DESIGN_GEOMETRIC_PRESENTATION_REPRESENTATION (  '', ( #40 ), #163 ) ;
#169 = ORIENTED_EDGE ( 'NONE', *, *, #115, .F. ) ;
#170 = UNCERTAINTY_MEASURE_WITH_UNIT (LENGTH_MEASURE( 1.000000000000000082E-05 ), #218, 'distance_accuracy_value', 'NONE');
#171 =( GEOMETRIC_REPRESENTATION_CONTEXT ( 3 ) GLOBAL_UNCERTAINTY_ASSIGNED_CONTEXT ( ( #226 ) ) GLOBAL_UNIT_ASSIGNED_CONTEXT ( ( #16, #96, #200 ) ) REPRESENTATION_CONTEXT ( 'NONE', 'WORKASPACE' ) );
#172 = AXIS2_PLACEMENT_3D ( 'NONE', #354, #299, #295 ) ;
#173 = DIRECTION ( 'NONE',  ( -1.000000000000000000, -1.252807796048505441E-16, 0.000000000000000000 ) ) ;
#174 = EDGE_CURVE ( 'NONE', #47, #347, #273, .T. ) ;
#175 = AXIS2_PLACEMENT_3D ( 'NONE', #17, #291, #201 ) ;
#176 = UNCERTAINTY_MEASURE_WITH_UNIT (LENGTH_MEASURE( 1.000000000000000082E-05 ), #109, 'distance_accuracy_value', 'NONE');
#177 = DIRECTION ( 'NONE',  ( -0.000000000000000000, -1.000000000000000000, -0.000000000000000000 ) ) ;
#178 = DIRECTION ( 'NONE',  ( -0.000000000000000000, -1.000000000000000000, -0.000000000000000000 ) ) ;
#179 = FACE_OUTER_BOUND ( 'NONE', #167, .T. ) ;
#180 = DIRECTION ( 'NONE',  ( 0.000000000000000000, 0.000000000000000000, -1.000000000000000000 ) ) ;
#181 = FILL_AREA_STYLE ('',( #249 ) ) ;
#182 = ORIENTED_EDGE ( 'NONE', *, *, #36, .T. ) ;
#183 = AXIS2_PLACEMENT_3D ( 'NONE', #139, #220, #245 ) ;
#184 = ORIENTED_EDGE ( 'NONE', *, *, #352, .F. ) ;
#185 = DIRECTION ( 'NONE',  ( 0.000000000000000000, 0.000000000000000000, -1.000000000000000000 ) ) ;
#186 = VERTEX_POINT ( 'NONE', #161 ) ;
#187 = CARTESIAN_POINT ( 'NONE',  ( 4.987329993433318819E-15, 50.00000000000000000, 0.000000000000000000 ) ) ;
#188 = PRODUCT_DEFINITION_CONTEXT ( 'detailed design', #6, 'design' ) ;
#189 = DIRECTION ( 'NONE',  ( -1.000000000000000000, 0.000000000000000000, 0.000000000000000000 ) ) ;
#190 =( GEOMETRIC_REPRESENTATION_CONTEXT ( 3 ) GLOBAL_UNCERTAINTY_ASSIGNED_CONTEXT ( ( #176 ) ) GLOBAL_UNIT_ASSIGNED_CONTEXT ( ( #109, #269, #241 ) ) REPRESENTATION_CONTEXT ( 'NONE', 'WORKASPACE' ) );
#191 = DIRECTION ( 'NONE',  ( 0.000000000000000000, 0.000000000000000000, -1.000000000000000000 ) ) ;
#192 = FILL_AREA_STYLE_COLOUR ( '', #35 ) ;
#193 = DIRECTION ( 'NONE',  ( -1.000000000000000000, 0.000000000000000000, 0.000000000000000000 ) ) ;
#194 = SURFACE_SIDE_STYLE ('',( #29 ) ) ;
#195 = CARTESIAN_POINT ( 'NONE',  ( 0.000000000000000000, 0.5000000000000000000, -10.00000000000000000 ) ) ;
#196 = AXIS2_PLACEMENT_3D ( 'NONE', #156, #126, #331 ) ;
#197 = CARTESIAN_POINT ( 'NONE',  ( 1.224646799147353256E-15, 0.000000000000000000, 10.00000000000000000 ) ) ;
#198 = DIRECTION ( 'NONE',  ( 0.000000000000000000, 1.000000000000000000, 0.000000000000000000 ) ) ;
#199 = COLOUR_RGB ( '',1.000000000000000000, 0.000000000000000000, 0.000000000000000000 ) ;
#200 =( NAMED_UNIT ( * ) SI_UNIT ( $, .STERADIAN. ) SOLID_ANGLE_UNIT ( ) );
#201 = DIRECTION ( 'NONE',  ( 0.000000000000000000, 0.000000000000000000, -1.000000000000000000 ) ) ;
#202 = VERTEX_POINT ( 'NONE', #113 ) ;
#203 = APPLICATION_PROTOCOL_DEFINITION ( 'draft international standard', 'automotive_design', 1998, #149 ) ;
#204 = SURFACE_STYLE_USAGE ( .BOTH. , #94 ) ;
#205 = CIRCLE ( 'NONE', #183, 10.00000000000000000 ) ;
#206 = ORIENTED_EDGE ( 'NONE', *, *, #174, .F. ) ;
#207 = EDGE_CURVE ( 'NONE', #47, #186, #24, .T. ) ;
#208 = COLOUR_RGB ( '',0.7921568627450980005, 0.8196078431372548767, 0.9333333333333333481 ) ;
#209 = PRESENTATION_STYLE_ASSIGNMENT (( #204 ) ) ;
#210 = SURFACE_STYLE_FILL_AREA ( #99 ) ;
#211 = ORIENTED_EDGE ( 'NONE', *, *, #334, .F. ) ;
#212 = ORIENTED_EDGE ( 'NONE', *, *, #37, .T. ) ;
#213 = ORIENTED_EDGE ( 'NONE', *, *, #118, .F. ) ;
#214 = CLOSED_SHELL ( 'NONE', ( #68, #95, #297, #275 ) ) ;
#215 = CIRCLE ( 'NONE', #283, 0.5000000000000004441 ) ;
#216 = DIRECTION ( 'NONE',  ( -0.000000000000000000, -1.000000000000000000, -0.000000000000000000 ) ) ;
#217 = CARTESIAN_POINT ( 'NONE',  ( -10.00000000000000533, 124.9999999999999858, 0.000000000000000000 ) ) ;
#218 =( LENGTH_UNIT ( ) NAMED_UNIT ( * ) SI_UNIT ( .MILLI., .METRE. ) );
#219 = EDGE_LOOP ( 'NONE', ( #164, #166, #369, #135 ) ) ;
#220 = DIRECTION ( 'NONE',  ( -0.000000000000000000, -1.000000000000000000, -0.000000000000000000 ) ) ;
#221 = CARTESIAN_POINT ( 'NONE',  ( 0.000000000000000000, 0.5000000000000000000, -9.500000000000000000 ) ) ;
#222 = AXIS2_PLACEMENT_3D ( 'NONE', #339, #312, #185 ) ;
#223 =( LENGTH_UNIT ( ) NAMED_UNIT ( * ) SI_UNIT ( .MILLI., .METRE. ) );
#224 = FACE_OUTER_BOUND ( 'NONE', #242, .T. ) ;
#225 = DIRECTION ( 'NONE',  ( -0.000000000000000000, -1.000000000000000000, -0.000000000000000000 ) ) ;
#226 = UNCERTAINTY_MEASURE_WITH_UNIT (LENGTH_MEASURE( 1.000000000000000082E-05 ), #16, 'distance_accuracy_value', 'NONE');
#227 =( GEOMETRIC_REPRESENTATION_CONTEXT ( 3 ) GLOBAL_UNCERTAINTY_ASSIGNED_CONTEXT ( ( #112 ) ) GLOBAL_UNIT_ASSIGNED_CONTEXT ( ( #19, #365, #362 ) ) REPRESENTATION_CONTEXT ( 'NONE', 'WORKASPACE' ) );
#228 = FILL_AREA_STYLE ('',( #7 ) ) ;
#229 = CIRCLE ( 'NONE', #9, 10.00000000000000000 ) ;
#230 = CARTESIAN_POINT ( 'NONE',  ( 0.000000000000000000, 50.00000000000000000, 0.000000000000000000 ) ) ;
#231 = DIRECTION ( 'NONE',  ( 0.000000000000000000, -0.000000000000000000, 1.000000000000000000 ) ) ;
#232 = AXIS2_PLACEMENT_3D ( 'NONE', #69, #153, #322 ) ;
#233 = DIRECTION ( 'NONE',  ( 0.000000000000000000, 0.000000000000000000, -1.000000000000000000 ) ) ;
#234 =( NAMED_UNIT ( * ) SI_UNIT ( $, .STERADIAN. ) SOLID_ANGLE_UNIT ( ) );
#235 = ORIENTED_EDGE ( 'NONE', *, *, #57, .F. ) ;
#236 =( NAMED_UNIT ( * ) PLANE_ANGLE_UNIT ( ) SI_UNIT ( $, .RADIAN. ) );
#237 = EDGE_CURVE ( 'NONE', #347, #303, #46, .T. ) ;
#238 = FACE_OUTER_BOUND ( 'NONE', #82, .T. ) ;
#239 = AXIS2_PLACEMENT_3D ( 'NONE', #10, #177, #233 ) ;
#240 = PRESENTATION_LAYER_ASSIGNMENT (  '', '', ( #253 ) ) ;
#241 =( NAMED_UNIT ( * ) SI_UNIT ( $, .STERADIAN. ) SOLID_ANGLE_UNIT ( ) );
#242 = EDGE_LOOP ( 'NONE', ( #335, #272 ) ) ;
#243 = DIRECTION ( 'NONE',  ( -1.252807796048505441E-16, 1.000000000000000000, -0.000000000000000000 ) ) ;
#244 = MECHANICAL_DESIGN_GEOMETRIC_PRESENTATION_REPRESENTATION (  '', ( #8 ), #321 ) ;
#245 = DIRECTION ( 'NONE',  ( 0.000000000000000000, 0.000000000000000000, -1.000000000000000000 ) ) ;
#246 = PRESENTATION_LAYER_ASSIGNMENT (  '', '', ( #40 ) ) ;
#247 = DIRECTION ( 'NONE',  ( -1.252807796048505441E-16, 1.000000000000000000, -0.000000000000000000 ) ) ;
#248 = CARTESIAN_POINT ( 'NONE',  ( 9.999999999999994671, 124.9999999999999858, 1.224646799147353256E-15 ) ) ;
#249 = FILL_AREA_STYLE_COLOUR ( '', #81 ) ;
#250 = DIRECTION ( 'NONE',  ( -1.000000000000000000, 0.000000000000000000, 0.000000000000000000 ) ) ;
#251 = CIRCLE ( 'NONE', #53, 9.999999999999996447 ) ;
#252 = DIRECTION ( 'NONE',  ( -1.224646799147353454E-16, 0.000000000000000000, -1.000000000000000000 ) ) ;
#253 = STYLED_ITEM ( 'NONE', ( #254 ), #282 ) ;
#254 = PRESENTATION_STYLE_ASSIGNMENT (( #285 ) ) ;
#255 = DIRECTION ( 'NONE',  ( -0.000000000000000000, -1.000000000000000000, -0.000000000000000000 ) ) ;
#256 = UNCERTAINTY_MEASURE_WITH_UNIT (LENGTH_MEASURE( 1.000000000000000082E-05 ), #324, 'distance_accuracy_value', 'NONE');
#257 = COLOUR_RGB ( '',1.000000000000000000, 0.000000000000000000, 0.000000000000000000 ) ;
#258 = VECTOR ( 'NONE', #142, 1000.000000000000000 ) ;
#259 = SURFACE_SIDE_STYLE ('',( #210 ) ) ;
#260 = STYLED_ITEM ( 'NONE', ( #158 ), #329 ) ;
#261 = PRESENTATION_LAYER_ASSIGNMENT (  '', '', ( #8 ) ) ;
#262 = PRODUCT_DEFINITION_SHAPE ( 'NONE', 'NONE',  #301 ) ;
#263 = STYLED_ITEM ( 'NONE', ( #100 ), #71 ) ;
#264 = CARTESIAN_POINT ( 'NONE',  ( 10.00000000000000355, 50.00000000000000000, 1.224646799147353848E-15 ) ) ;
#265 = FILL_AREA_STYLE ('',( #121 ) ) ;
#266 = FILL_AREA_STYLE_COLOUR ( '', #83 ) ;
#267 = MANIFOLD_SOLID_BREP ( 'Revolve - Cutting Edge', #89 ) ;
#268 = APPLICATION_PROTOCOL_DEFINITION ( 'draft international standard', 'automotive_design', 1998, #6 ) ;
#269 =( NAMED_UNIT ( * ) PLANE_ANGLE_UNIT ( ) SI_UNIT ( $, .RADIAN. ) );
#270 = AXIS2_PLACEMENT_3D ( 'NONE', #230, #198, #231 ) ;
#271 = CIRCLE ( 'NONE', #281, 0.5000000000000004441 ) ;
#272 = ORIENTED_EDGE ( 'NONE', *, *, #115, .T. ) ;
#273 = CIRCLE ( 'NONE', #4, 9.999999999999996447 ) ;
#274 = FILL_AREA_STYLE_COLOUR ( '', #208 ) ;
#275 = ADVANCED_FACE ( 'NONE', ( #224 ), #370, .F. ) ;
#276 = DIRECTION ( 'NONE',  ( -1.000000000000000000, 0.000000000000000000, 0.000000000000000000 ) ) ;
#277 = ORIENTED_EDGE ( 'NONE', *, *, #352, .T. ) ;
#278 = DIRECTION ( 'NONE',  ( 0.000000000000000000, 0.000000000000000000, 1.000000000000000000 ) ) ;
#279 = CIRCLE ( 'NONE', #239, 9.500000000000000000 ) ;
#280 = ORIENTED_EDGE ( 'NONE', *, *, #237, .T. ) ;
#281 = AXIS2_PLACEMENT_3D ( 'NONE', #221, #193, #140 ) ;
#282 = ADVANCED_FACE ( 'NONE', ( #59 ), #92, .T. ) ;
#283 = AXIS2_PLACEMENT_3D ( 'NONE', #286, #342, #252 ) ;
#284 = PRESENTATION_STYLE_ASSIGNMENT (( #120 ) ) ;
#285 = SURFACE_STYLE_USAGE ( .BOTH. , #194 ) ;
#286 = CARTESIAN_POINT ( 'NONE',  ( 1.163414459189985485E-15, 0.5000000000000000000, 9.500000000000000000 ) ) ;
#287 = EDGE_LOOP ( 'NONE', ( #58, #182, #15, #138 ) ) ;
#288 = FILL_AREA_STYLE ('',( #192 ) ) ;
#289 = EDGE_LOOP ( 'NONE', ( #357, #159, #211, #213 ) ) ;
#290 = AXIS2_PLACEMENT_3D ( 'NONE', #144, #3, #250 ) ;
#291 = DIRECTION ( 'NONE',  ( -0.000000000000000000, -1.000000000000000000, -0.000000000000000000 ) ) ;
#292 = UNCERTAINTY_MEASURE_WITH_UNIT (LENGTH_MEASURE( 1.000000000000000082E-05 ), #42, 'distance_accuracy_value', 'NONE');
#293 =( GEOMETRIC_REPRESENTATION_CONTEXT ( 3 ) GLOBAL_UNCERTAINTY_ASSIGNED_CONTEXT ( ( #292 ) ) GLOBAL_UNIT_ASSIGNED_CONTEXT ( ( #42, #320, #65 ) ) REPRESENTATION_CONTEXT ( 'NONE', 'WORKASPACE' ) );
#294 = UNCERTAINTY_MEASURE_WITH_UNIT (LENGTH_MEASURE( 1.000000000000000082E-05 ), #223, 'distance_accuracy_value', 'NONE');
#295 = DIRECTION ( 'NONE',  ( -1.000000000000000000, 0.000000000000000000, 0.000000000000000000 ) ) ;
#296 = MECHANICAL_DESIGN_GEOMETRIC_PRESENTATION_REPRESENTATION (  '', ( #253 ), #30 ) ;
#297 = ADVANCED_FACE ( 'NONE', ( #179 ), #157, .T. ) ;
#298 =( NAMED_UNIT ( * ) SI_UNIT ( $, .STERADIAN. ) SOLID_ANGLE_UNIT ( ) );
#299 = DIRECTION ( 'NONE',  ( -1.252807796048505441E-16, 1.000000000000000000, -0.000000000000000000 ) ) ;
#300 = AXIS2_PLACEMENT_3D ( 'NONE', #2, #345, #348 ) ;
#301 = PRODUCT_DEFINITION ( 'UNKNOWN', '', #154, #188 ) ;
#302 = FACE_OUTER_BOUND ( 'NONE', #328, .T. ) ;
#303 = VERTEX_POINT ( 'NONE', #39 ) ;
#304 = SURFACE_STYLE_USAGE ( .BOTH. , #116 ) ;
#305 = PRODUCT_CONTEXT ( 'NONE', #149, 'mechanical' ) ;
#306 = PRESENTATION_STYLE_ASSIGNMENT (( #304 ) ) ;
#307 = ADVANCED_FACE ( 'NONE', ( #302 ), #336, .T. ) ;
#308 = SURFACE_STYLE_FILL_AREA ( #181 ) ;
#309 = VERTEX_POINT ( 'NONE', #103 ) ;
#310 = SHAPE_DEFINITION_REPRESENTATION ( #262, #137 ) ;
#311 =( NAMED_UNIT ( * ) PLANE_ANGLE_UNIT ( ) SI_UNIT ( $, .RADIAN. ) );
#312 = DIRECTION ( 'NONE',  ( -0.000000000000000000, -1.000000000000000000, -0.000000000000000000 ) ) ;
#313 = DIRECTION ( 'NONE',  ( -0.000000000000000000, -1.000000000000000000, -0.000000000000000000 ) ) ;
#314 = PRESENTATION_LAYER_ASSIGNMENT (  '', '', ( #48 ) ) ;
#315 = FACE_OUTER_BOUND ( 'NONE', #219, .T. ) ;
#316 = VERTEX_POINT ( 'NONE', #143 ) ;
#317 = SURFACE_STYLE_FILL_AREA ( #265 ) ;
#318 = PRESENTATION_STYLE_ASSIGNMENT (( #349 ) ) ;
#319 = DIRECTION ( 'NONE',  ( 0.000000000000000000, 0.000000000000000000, -1.000000000000000000 ) ) ;
#320 =( NAMED_UNIT ( * ) PLANE_ANGLE_UNIT ( ) SI_UNIT ( $, .RADIAN. ) );
#321 =( GEOMETRIC_REPRESENTATION_CONTEXT ( 3 ) GLOBAL_UNCERTAINTY_ASSIGNED_CONTEXT ( ( #294 ) ) GLOBAL_UNIT_ASSIGNED_CONTEXT ( ( #223, #311, #110 ) ) REPRESENTATION_CONTEXT ( 'NONE', 'WORKASPACE' ) );
#322 = DIRECTION ( 'NONE',  ( 0.000000000000000000, 0.000000000000000000, -1.000000000000000000 ) ) ;
#323 = CIRCLE ( 'NONE', #290, 10.00000000000000533 ) ;
#324 =( LENGTH_UNIT ( ) NAMED_UNIT ( * ) SI_UNIT ( .MILLI., .METRE. ) );
#325 = ORIENTED_EDGE ( 'NONE', *, *, #334, .T. ) ;
#326 = CYLINDRICAL_SURFACE ( 'NONE', #175, 10.00000000000000000 ) ;
#327 = COLOUR_RGB ( '',0.7921568627450980005, 0.8196078431372548767, 0.9333333333333333481 ) ;
#328 = EDGE_LOOP ( 'NONE', ( #325, #212, #184, #22 ) ) ;
#329 = ADVANCED_FACE ( 'NONE', ( #136 ), #23, .T. ) ;
#330 = CIRCLE ( 'NONE', #196, 10.00000000000000533 ) ;
#331 = DIRECTION ( 'NONE',  ( -1.000000000000000000, 0.000000000000000000, 0.000000000000000000 ) ) ;
#332 = ORIENTED_EDGE ( 'NONE', *, *, #207, .T. ) ;
#333 = CARTESIAN_POINT ( 'NONE',  ( 0.000000000000000000, 50.00000000000000000, -10.00000000000000000 ) ) ;
#334 = EDGE_CURVE ( 'NONE', #80, #309, #205, .T. ) ;
#335 = ORIENTED_EDGE ( 'NONE', *, *, #57, .T. ) ;
#336 = TOROIDAL_SURFACE ( 'NONE', #52, 9.500000000000000000, 0.5000000000000002220 ) ;
#337 = COLOUR_RGB ( '',1.000000000000000000, 0.000000000000000000, 0.000000000000000000 ) ;
#338 = FILL_AREA_STYLE ('',( #274 ) ) ;
#339 = CARTESIAN_POINT ( 'NONE',  ( 0.000000000000000000, 0.000000000000000000, 0.000000000000000000 ) ) ;
#340 = CARTESIAN_POINT ( 'NONE',  ( 0.000000000000000000, 50.00000000000000000, 0.000000000000000000 ) ) ;
#341 = PLANE ( 'NONE',  #270 ) ;
#342 = DIRECTION ( 'NONE',  ( 1.000000000000000000, 0.000000000000000000, -1.224646799147353207E-16 ) ) ;
#343 = CARTESIAN_POINT ( 'NONE',  ( 4.987329993433318819E-15, 50.00000000000000000, 0.000000000000000000 ) ) ;
#344 = DIRECTION ( 'NONE',  ( -1.252807796048505441E-16, 1.000000000000000000, -0.000000000000000000 ) ) ;
#345 = DIRECTION ( 'NONE',  ( 1.252807796048505441E-16, -1.000000000000000000, 0.000000000000000000 ) ) ;
#346 = ADVANCED_FACE ( 'NONE', ( #368 ), #341, .T. ) ;
#347 = VERTEX_POINT ( 'NONE', #264 ) ;
#348 = DIRECTION ( 'NONE',  ( 1.000000000000000000, 1.252807796048505441E-16, 0.000000000000000000 ) ) ;
#349 = SURFACE_STYLE_USAGE ( .BOTH. , #350 ) ;
#350 = SURFACE_SIDE_STYLE ('',( #145 ) ) ;
#351 = DIRECTION ( 'NONE',  ( -0.000000000000000000, -1.000000000000000000, -0.000000000000000000 ) ) ;
#352 = EDGE_CURVE ( 'NONE', #77, #316, #279, .T. ) ;
#353 = UNCERTAINTY_MEASURE_WITH_UNIT (LENGTH_MEASURE( 1.000000000000000082E-05 ), #128, 'distance_accuracy_value', 'NONE');
#354 = CARTESIAN_POINT ( 'NONE',  ( -4.408728476930469278E-15, 124.9999999999999858, 0.000000000000000000 ) ) ;
#355 = MECHANICAL_DESIGN_GEOMETRIC_PRESENTATION_REPRESENTATION (  '', ( #48 ), #190 ) ;
#356 = DIRECTION ( 'NONE',  ( -1.252807796048505441E-16, 1.000000000000000000, 0.000000000000000000 ) ) ;
#357 = ORIENTED_EDGE ( 'NONE', *, *, #44, .T. ) ;
#358 = PRESENTATION_LAYER_ASSIGNMENT (  '', '', ( #60 ) ) ;
#359 = CARTESIAN_POINT ( 'NONE',  ( 4.987329993433320396E-15, 50.00000000000000000, 0.000000000000000000 ) ) ;
#360 = EDGE_LOOP ( 'NONE', ( #61, #41 ) ) ;
#361 =( GEOMETRIC_REPRESENTATION_CONTEXT ( 3 ) GLOBAL_UNCERTAINTY_ASSIGNED_CONTEXT ( ( #152 ) ) GLOBAL_UNIT_ASSIGNED_CONTEXT ( ( #131, #12, #298 ) ) REPRESENTATION_CONTEXT ( 'NONE', 'WORKASPACE' ) );
#362 =( NAMED_UNIT ( * ) SI_UNIT ( $, .STERADIAN. ) SOLID_ANGLE_UNIT ( ) );
#363 = PRODUCT_RELATED_PRODUCT_CATEGORY ( 'part', '', ( #150 ) ) ;
#364 = MECHANICAL_DESIGN_GEOMETRIC_PRESENTATION_REPRESENTATION (  '', ( #60 ), #171 ) ;
#365 =( NAMED_UNIT ( * ) PLANE_ANGLE_UNIT ( ) SI_UNIT ( $, .RADIAN. ) );
#366 = SURFACE_SIDE_STYLE ('',( #117 ) ) ;
#367 = AXIS2_PLACEMENT_3D ( 'NONE', #340, #225, #191 ) ;
#368 = FACE_OUTER_BOUND ( 'NONE', #360, .T. ) ;
#369 = ORIENTED_EDGE ( 'NONE', *, *, #18, .T. ) ;
#370 = PLANE ( 'NONE',  #300 ) ;
ENDSEC;
END-ISO-10303-21;
