ISO-10303-21;
HEADER;
FILE_DESCRIPTION (( 'STEP AP214' ),
    '1' );
FILE_NAME ('84634.STEP',
    '2023-06-23T14:20:56',
    ( '' ),
    ( '' ),
    'SwSTEP 2.0',
    'SolidWorks 2023',
    '' );
FILE_SCHEMA (( 'AUTOMOTIVE_DESIGN' ));
ENDSEC;

DATA;
#1 = COLOUR_RGB ( '',0.7921568627450980005, 0.8196078431372548767, 0.9333333333333333481 ) ;
#2 = FILL_AREA_STYLE_COLOUR ( '', #1 ) ;
#3 = CARTESIAN_POINT ( 'NONE',  ( 0.000000000000000000, 0.000000000000000000, 0.000000000000000000 ) ) ;
#4 = APPLICATION_PROTOCOL_DEFINITION ( 'draft international standard', 'automotive_design', 1998, #228 ) ;
#5 = UNCERTAINTY_MEASURE_WITH_UNIT (LENGTH_MEASURE( 1.000000000000000082E-05 ), #162, 'distance_accuracy_value', 'NONE');
#6 = VECTOR ( 'NONE', #48, 39.37007874015748143 ) ;
#7 = CARTESIAN_POINT ( 'NONE',  ( 0.2500000000000000000, 5.000000000000000000, 0.000000000000000000 ) ) ;
#8 = ADVANCED_FACE ( 'NONE', ( #152 ), #53, .F. ) ;
#9 =( CONVERSION_BASED_UNIT ( 'INCH', #97 ) LENGTH_UNIT ( ) NAMED_UNIT ( #258 ) );
#10 = SURFACE_SIDE_STYLE ('',( #106 ) ) ;
#11 = CARTESIAN_POINT ( 'NONE',  ( 0.000000000000000000, 0.000000000000000000, 0.000000000000000000 ) ) ;
#12 = SURFACE_STYLE_USAGE ( .BOTH. , #10 ) ;
#13 = DIMENSIONAL_EXPONENTS ( 1.000000000000000000, 0.000000000000000000, 0.000000000000000000, 0.000000000000000000, 0.000000000000000000, 0.000000000000000000, 0.000000000000000000 ) ;
#14 = COLOUR_RGB ( '',1.000000000000000000, 0.000000000000000000, 0.000000000000000000 ) ;
#15 = EDGE_LOOP ( 'NONE', ( #69, #269, #241, #103 ) ) ;
#16 = SURFACE_STYLE_USAGE ( .BOTH. , #206 ) ;
#17 = CARTESIAN_POINT ( 'NONE',  ( 0.000000000000000000, 2.500000000000000000, 0.000000000000000000 ) ) ;
#18 = DIRECTION ( 'NONE',  ( -1.224646799147353207E-16, 1.000000000000000000, -0.000000000000000000 ) ) ;
#19 = DIRECTION ( 'NONE',  ( 0.000000000000000000, 1.000000000000000000, 0.000000000000000000 ) ) ;
#20 = LENGTH_MEASURE_WITH_UNIT ( LENGTH_MEASURE( 0.02539999999999999897 ), #233 );
#21 = CIRCLE ( 'NONE', #177, 0.2500000000000000000 ) ;
#22 = CIRCLE ( 'NONE', #238, 0.2500000000000000000 ) ;
#23 = PLANE ( 'NONE',  #222 ) ;
#24 = CARTESIAN_POINT ( 'NONE',  ( -0.2500000000000004441, 5.000000000000000000, 0.000000000000000000 ) ) ;
#25 = PRODUCT_DEFINITION_FORMATION_WITH_SPECIFIED_SOURCE ( 'ANY', '', #55, .NOT_KNOWN. ) ;
#26 = CARTESIAN_POINT ( 'NONE',  ( 0.000000000000000000, 0.000000000000000000, -0.2500000000000000000 ) ) ;
#27 = CARTESIAN_POINT ( 'NONE',  ( -0.2500000000000006106, 5.000000000000000000, 0.000000000000000000 ) ) ;
#28 = DIRECTION ( 'NONE',  ( -1.000000000000000000, 0.000000000000000000, 0.000000000000000000 ) ) ;
#29 =( NAMED_UNIT ( * ) SI_UNIT ( $, .STERADIAN. ) SOLID_ANGLE_UNIT ( ) );
#30 = DIRECTION ( 'NONE',  ( -1.000000000000000000, 0.000000000000000000, 0.000000000000000000 ) ) ;
#31 = EDGE_CURVE ( 'NONE', #281, #188, #21, .T. ) ;
#32 = ORIENTED_EDGE ( 'NONE', *, *, #174, .F. ) ;
#33 = SURFACE_STYLE_FILL_AREA ( #244 ) ;
#34 = SURFACE_SIDE_STYLE ('',( #271 ) ) ;
#35 = PRESENTATION_LAYER_ASSIGNMENT (  '', '', ( #56 ) ) ;
#36 = LINE ( 'NONE', #24, #224 ) ;
#37 = STYLED_ITEM ( 'NONE', ( #286 ), #67 ) ;
#38 =( GEOMETRIC_REPRESENTATION_CONTEXT ( 3 ) GLOBAL_UNCERTAINTY_ASSIGNED_CONTEXT ( ( #256 ) ) GLOBAL_UNIT_ASSIGNED_CONTEXT ( ( #85, #307, #293 ) ) REPRESENTATION_CONTEXT ( 'NONE', 'WORKASPACE' ) );
#39 = PRESENTATION_STYLE_ASSIGNMENT (( #160 ) ) ;
#40 = FACE_OUTER_BOUND ( 'NONE', #262, .T. ) ;
#41 = ORIENTED_EDGE ( 'NONE', *, *, #189, .F. ) ;
#42 = ORIENTED_EDGE ( 'NONE', *, *, #168, .T. ) ;
#43 = VERTEX_POINT ( 'NONE', #27 ) ;
#44 = STYLED_ITEM ( 'NONE', ( #297 ), #109 ) ;
#45 = FACE_OUTER_BOUND ( 'NONE', #192, .T. ) ;
#46 = ORIENTED_EDGE ( 'NONE', *, *, #204, .T. ) ;
#47 =( NAMED_UNIT ( * ) SI_UNIT ( $, .STERADIAN. ) SOLID_ANGLE_UNIT ( ) );
#48 = DIRECTION ( 'NONE',  ( -0.000000000000000000, -1.000000000000000000, -0.000000000000000000 ) ) ;
#49 =( LENGTH_UNIT ( ) NAMED_UNIT ( * ) SI_UNIT ( $, .METRE. ) );
#50 = EDGE_CURVE ( 'NONE', #145, #298, #247, .T. ) ;
#51 = SURFACE_STYLE_USAGE ( .BOTH. , #34 ) ;
#52 =( GEOMETRIC_REPRESENTATION_CONTEXT ( 3 ) GLOBAL_UNCERTAINTY_ASSIGNED_CONTEXT ( ( #5 ) ) GLOBAL_UNIT_ASSIGNED_CONTEXT ( ( #162, #140, #93 ) ) REPRESENTATION_CONTEXT ( 'NONE', 'WORKASPACE' ) );
#53 = PLANE ( 'NONE',  #99 ) ;
#54 = DIRECTION ( 'NONE',  ( -1.224646799147353207E-16, 1.000000000000000000, 0.000000000000000000 ) ) ;
#55 = PRODUCT ( '84634', '84634', '', ( #146 ) ) ;
#56 = STYLED_ITEM ( 'NONE', ( #39 ), #275 ) ;
#57 = CLOSED_SHELL ( 'NONE', ( #275, #109, #105, #261 ) ) ;
#58 = UNCERTAINTY_MEASURE_WITH_UNIT (LENGTH_MEASURE( 1.000000000000000082E-05 ), #217, 'distance_accuracy_value', 'NONE');
#59 = AXIS2_PLACEMENT_3D ( 'NONE', #183, #150, #100 ) ;
#60 =( LENGTH_UNIT ( ) NAMED_UNIT ( * ) SI_UNIT ( $, .METRE. ) );
#61 = DIRECTION ( 'NONE',  ( 1.000000000000000000, 0.000000000000000000, 0.000000000000000000 ) ) ;
#62 = DIRECTION ( 'NONE',  ( 0.000000000000000000, 0.000000000000000000, -1.000000000000000000 ) ) ;
#63 = PRESENTATION_STYLE_ASSIGNMENT (( #12 ) ) ;
#64 = CIRCLE ( 'NONE', #114, 0.2500000000000002776 ) ;
#65 = AXIS2_PLACEMENT_3D ( 'NONE', #3, #280, #61 ) ;
#66 = EDGE_CURVE ( 'NONE', #246, #43, #36, .T. ) ;
#67 = MANIFOLD_SOLID_BREP ( 'Revolve - Tool Body (Straight Shanked)', #98 ) ;
#68 = PLANE ( 'NONE',  #299 ) ;
#69 = ORIENTED_EDGE ( 'NONE', *, *, #174, .T. ) ;
#70 = EDGE_CURVE ( 'NONE', #128, #246, #211, .T. ) ;
#71 = SURFACE_STYLE_FILL_AREA ( #141 ) ;
#72 = CARTESIAN_POINT ( 'NONE',  ( -0.2500000000000000000, 2.500000000000000000, 0.000000000000000000 ) ) ;
#73 = ORIENTED_EDGE ( 'NONE', *, *, #121, .T. ) ;
#74 = VECTOR ( 'NONE', #107, 39.37007874015748143 ) ;
#75 = CARTESIAN_POINT ( 'NONE',  ( -3.061616997868383141E-16, 5.000000000000000000, 0.000000000000000000 ) ) ;
#76 = UNCERTAINTY_MEASURE_WITH_UNIT (LENGTH_MEASURE( 1.000000000000000082E-05 ), #218, 'distance_accuracy_value', 'NONE');
#77 = CARTESIAN_POINT ( 'NONE',  ( 3.061616997868383018E-17, 0.000000000000000000, 0.2500000000000000000 ) ) ;
#78 = LINE ( 'NONE', #26, #6 ) ;
#79 = CARTESIAN_POINT ( 'NONE',  ( 0.000000000000000000, 2.500000000000000000, 0.000000000000000000 ) ) ;
#80 = STYLED_ITEM ( 'NONE', ( #153 ), #170 ) ;
#81 = ADVANCED_BREP_SHAPE_REPRESENTATION ( '84634', ( #170, #67, #65 ), #165 ) ;
#82 = LINE ( 'NONE', #155, #74 ) ;
#83 = SURFACE_SIDE_STYLE ('',( #252 ) ) ;
#84 = ORIENTED_EDGE ( 'NONE', *, *, #70, .F. ) ;
#85 =( CONVERSION_BASED_UNIT ( 'INCH', #242 ) LENGTH_UNIT ( ) NAMED_UNIT ( #161 ) );
#86 = FILL_AREA_STYLE ('',( #197 ) ) ;
#87 = EDGE_LOOP ( 'NONE', ( #195, #154, #149, #268 ) ) ;
#88 = SURFACE_STYLE_USAGE ( .BOTH. , #83 ) ;
#89 =( NAMED_UNIT ( * ) SI_UNIT ( $, .STERADIAN. ) SOLID_ANGLE_UNIT ( ) );
#90 = CYLINDRICAL_SURFACE ( 'NONE', #164, 0.2500000000000001110 ) ;
#91 = STYLED_ITEM ( 'NONE', ( #63 ), #105 ) ;
#92 = STYLED_ITEM ( 'NONE', ( #202 ), #261 ) ;
#93 =( NAMED_UNIT ( * ) SI_UNIT ( $, .STERADIAN. ) SOLID_ANGLE_UNIT ( ) );
#94 = CARTESIAN_POINT ( 'NONE',  ( 0.000000000000000000, 0.000000000000000000, 0.000000000000000000 ) ) ;
#95 = EDGE_LOOP ( 'NONE', ( #46, #42 ) ) ;
#96 = CYLINDRICAL_SURFACE ( 'NONE', #226, 0.2500000000000000000 ) ;
#97 = LENGTH_MEASURE_WITH_UNIT ( LENGTH_MEASURE( 0.02539999999999999897 ), #305 );
#98 = CLOSED_SHELL ( 'NONE', ( #306, #8, #236, #213 ) ) ;
#99 = AXIS2_PLACEMENT_3D ( 'NONE', #290, #54, #215 ) ;
#100 = DIRECTION ( 'NONE',  ( -1.000000000000000000, 0.000000000000000000, 0.000000000000000000 ) ) ;
#101 = CARTESIAN_POINT ( 'NONE',  ( 0.000000000000000000, 2.500000000000000000, 0.000000000000000000 ) ) ;
#102 = UNCERTAINTY_MEASURE_WITH_UNIT (LENGTH_MEASURE( 1.000000000000000082E-05 ), #9, 'distance_accuracy_value', 'NONE');
#103 = ORIENTED_EDGE ( 'NONE', *, *, #66, .F. ) ;
#104 =( NAMED_UNIT ( * ) PLANE_ANGLE_UNIT ( ) SI_UNIT ( $, .RADIAN. ) );
#105 = ADVANCED_FACE ( 'NONE', ( #179 ), #96, .T. ) ;
#106 = SURFACE_STYLE_FILL_AREA ( #270 ) ;
#107 = DIRECTION ( 'NONE',  ( -1.224646799147353207E-16, 1.000000000000000000, -0.000000000000000000 ) ) ;
#108 = DIRECTION ( 'NONE',  ( -1.224646799147353207E-16, 1.000000000000000000, -0.000000000000000000 ) ) ;
#109 = ADVANCED_FACE ( 'NONE', ( #40 ), #23, .T. ) ;
#110 =( NAMED_UNIT ( * ) PLANE_ANGLE_UNIT ( ) SI_UNIT ( $, .RADIAN. ) );
#111 = LENGTH_MEASURE_WITH_UNIT ( LENGTH_MEASURE( 0.02539999999999999897 ), #49 );
#112 = CIRCLE ( 'NONE', #276, 0.2500000000000000000 ) ;
#113 = FACE_OUTER_BOUND ( 'NONE', #265, .T. ) ;
#114 = AXIS2_PLACEMENT_3D ( 'NONE', #75, #194, #30 ) ;
#115 = DIRECTION ( 'NONE',  ( 1.000000000000000000, 1.224646799147353207E-16, 0.000000000000000000 ) ) ;
#116 = PRESENTATION_LAYER_ASSIGNMENT (  '', '', ( #44 ) ) ;
#117 = ORIENTED_EDGE ( 'NONE', *, *, #189, .T. ) ;
#118 = DIRECTION ( 'NONE',  ( -0.000000000000000000, -1.000000000000000000, -0.000000000000000000 ) ) ;
#119 = ORIENTED_EDGE ( 'NONE', *, *, #151, .F. ) ;
#120 = FILL_AREA_STYLE_COLOUR ( '', #14 ) ;
#121 = EDGE_CURVE ( 'NONE', #188, #145, #78, .T. ) ;
#122 = ORIENTED_EDGE ( 'NONE', *, *, #31, .F. ) ;
#123 =( CONVERSION_BASED_UNIT ( 'INCH', #190 ) LENGTH_UNIT ( ) NAMED_UNIT ( #225 ) );
#124 = DIRECTION ( 'NONE',  ( 0.000000000000000000, -1.000000000000000000, -0.000000000000000000 ) ) ;
#125 = PLANE ( 'NONE',  #253 ) ;
#126 = DIRECTION ( 'NONE',  ( 0.000000000000000000, 0.000000000000000000, -1.000000000000000000 ) ) ;
#127 =( NAMED_UNIT ( * ) PLANE_ANGLE_UNIT ( ) SI_UNIT ( $, .RADIAN. ) );
#128 = VERTEX_POINT ( 'NONE', #248 ) ;
#129 = APPLICATION_PROTOCOL_DEFINITION ( 'draft international standard', 'automotive_design', 1998, #254 ) ;
#130 = DIRECTION ( 'NONE',  ( -0.000000000000000000, -1.000000000000000000, -0.000000000000000000 ) ) ;
#131 = PRODUCT_DEFINITION ( 'UNKNOWN', '', #25, #214 ) ;
#132 =( CONVERSION_BASED_UNIT ( 'INCH', #20 ) LENGTH_UNIT ( ) NAMED_UNIT ( #279 ) );
#133 = ORIENTED_EDGE ( 'NONE', *, *, #31, .T. ) ;
#134 = COLOUR_RGB ( '',1.000000000000000000, 0.000000000000000000, 0.000000000000000000 ) ;
#135 = DIRECTION ( 'NONE',  ( -0.000000000000000000, -1.000000000000000000, -0.000000000000000000 ) ) ;
#136 = DIRECTION ( 'NONE',  ( -0.000000000000000000, -1.000000000000000000, -0.000000000000000000 ) ) ;
#137 = CIRCLE ( 'NONE', #288, 0.2500000000000002776 ) ;
#138 = PRESENTATION_LAYER_ASSIGNMENT (  '', '', ( #80 ) ) ;
#139 = DIRECTION ( 'NONE',  ( 1.224646799147353207E-16, -1.000000000000000000, 0.000000000000000000 ) ) ;
#140 =( NAMED_UNIT ( * ) PLANE_ANGLE_UNIT ( ) SI_UNIT ( $, .RADIAN. ) );
#141 = FILL_AREA_STYLE ('',( #266 ) ) ;
#142 = DIRECTION ( 'NONE',  ( 0.000000000000000000, 0.000000000000000000, -1.000000000000000000 ) ) ;
#143 = FACE_OUTER_BOUND ( 'NONE', #15, .T. ) ;
#144 = FILL_AREA_STYLE ('',( #120 ) ) ;
#145 = VERTEX_POINT ( 'NONE', #303 ) ;
#146 = PRODUCT_CONTEXT ( 'NONE', #228, 'mechanical' ) ;
#147 = AXIS2_PLACEMENT_3D ( 'NONE', #79, #308, #289 ) ;
#148 = PRESENTATION_LAYER_ASSIGNMENT (  '', '', ( #91 ) ) ;
#149 = ORIENTED_EDGE ( 'NONE', *, *, #50, .F. ) ;
#150 = DIRECTION ( 'NONE',  ( -1.224646799147353207E-16, 1.000000000000000000, -0.000000000000000000 ) ) ;
#151 = EDGE_CURVE ( 'NONE', #128, #272, #82, .T. ) ;
#152 = FACE_OUTER_BOUND ( 'NONE', #285, .T. ) ;
#153 = PRESENTATION_STYLE_ASSIGNMENT (( #51 ) ) ;
#154 = ORIENTED_EDGE ( 'NONE', *, *, #229, .T. ) ;
#155 = CARTESIAN_POINT ( 'NONE',  ( 0.2499999999999998335, 5.000000000000000000, 3.061616997868384251E-17 ) ) ;
#156 = CARTESIAN_POINT ( 'NONE',  ( 0.000000000000000000, 2.500000000000000000, 0.000000000000000000 ) ) ;
#157 = MECHANICAL_DESIGN_GEOMETRIC_PRESENTATION_REPRESENTATION (  '', ( #92 ), #38 ) ;
#158 = MECHANICAL_DESIGN_GEOMETRIC_PRESENTATION_REPRESENTATION (  '', ( #37 ), #277 ) ;
#159 = LENGTH_MEASURE_WITH_UNIT ( LENGTH_MEASURE( 0.02539999999999999897 ), #60 );
#160 = SURFACE_STYLE_USAGE ( .BOTH. , #198 ) ;
#161 = DIMENSIONAL_EXPONENTS ( 1.000000000000000000, 0.000000000000000000, 0.000000000000000000, 0.000000000000000000, 0.000000000000000000, 0.000000000000000000, 0.000000000000000000 ) ;
#162 =( CONVERSION_BASED_UNIT ( 'INCH', #159 ) LENGTH_UNIT ( ) NAMED_UNIT ( #13 ) );
#163 = DIRECTION ( 'NONE',  ( 0.000000000000000000, -0.000000000000000000, 1.000000000000000000 ) ) ;
#164 = AXIS2_PLACEMENT_3D ( 'NONE', #257, #180, #28 ) ;
#165 =( GEOMETRIC_REPRESENTATION_CONTEXT ( 3 ) GLOBAL_UNCERTAINTY_ASSIGNED_CONTEXT ( ( #102 ) ) GLOBAL_UNIT_ASSIGNED_CONTEXT ( ( #9, #231, #89 ) ) REPRESENTATION_CONTEXT ( 'NONE', 'WORKASPACE' ) );
#166 = DIRECTION ( 'NONE',  ( -1.224646799147353207E-16, 1.000000000000000000, -0.000000000000000000 ) ) ;
#167 = CARTESIAN_POINT ( 'NONE',  ( 0.2500000000000000000, 5.000000000000000000, 3.061616997868385483E-17 ) ) ;
#168 = EDGE_CURVE ( 'NONE', #272, #43, #64, .T. ) ;
#169 = FACE_OUTER_BOUND ( 'NONE', #87, .T. ) ;
#170 = MANIFOLD_SOLID_BREP ( 'Revolve - Cutting Edge', #57 ) ;
#171 = DIRECTION ( 'NONE',  ( -1.000000000000000000, 0.000000000000000000, 0.000000000000000000 ) ) ;
#172 = ORIENTED_EDGE ( 'NONE', *, *, #168, .F. ) ;
#173 = AXIS2_PLACEMENT_3D ( 'NONE', #260, #18, #205 ) ;
#174 = EDGE_CURVE ( 'NONE', #246, #128, #274, .T. ) ;
#175 = UNCERTAINTY_MEASURE_WITH_UNIT (LENGTH_MEASURE( 1.000000000000000082E-05 ), #123, 'distance_accuracy_value', 'NONE');
#176 =( NAMED_UNIT ( * ) SI_UNIT ( $, .STERADIAN. ) SOLID_ANGLE_UNIT ( ) );
#177 = AXIS2_PLACEMENT_3D ( 'NONE', #156, #135, #126 ) ;
#178 = VECTOR ( 'NONE', #130, 39.37007874015748143 ) ;
#179 = FACE_OUTER_BOUND ( 'NONE', #282, .T. ) ;
#180 = DIRECTION ( 'NONE',  ( -1.224646799147353207E-16, 1.000000000000000000, -0.000000000000000000 ) ) ;
#181 = AXIS2_PLACEMENT_3D ( 'NONE', #216, #249, #291 ) ;
#182 = MECHANICAL_DESIGN_GEOMETRIC_PRESENTATION_REPRESENTATION (  '', ( #44 ), #292 ) ;
#183 = CARTESIAN_POINT ( 'NONE',  ( -3.061616997868383141E-16, 5.000000000000000000, 0.000000000000000000 ) ) ;
#184 = LINE ( 'NONE', #77, #178 ) ;
#185 = PRESENTATION_LAYER_ASSIGNMENT (  '', '', ( #92 ) ) ;
#186 = PRODUCT_DEFINITION_SHAPE ( 'NONE', 'NONE',  #131 ) ;
#187 = CARTESIAN_POINT ( 'NONE',  ( 3.061616997868383018E-17, 0.000000000000000000, 0.2500000000000000000 ) ) ;
#188 = VERTEX_POINT ( 'NONE', #296 ) ;
#189 = EDGE_CURVE ( 'NONE', #298, #145, #22, .T. ) ;
#190 = LENGTH_MEASURE_WITH_UNIT ( LENGTH_MEASURE( 0.02539999999999999897 ), #207 );
#191 = CARTESIAN_POINT ( 'NONE',  ( -3.061616997868383141E-16, 5.000000000000000000, 0.000000000000000000 ) ) ;
#192 = EDGE_LOOP ( 'NONE', ( #300, #117 ) ) ;
#193 = CARTESIAN_POINT ( 'NONE',  ( 0.000000000000000000, 0.000000000000000000, 0.000000000000000000 ) ) ;
#194 = DIRECTION ( 'NONE',  ( -1.224646799147353207E-16, 1.000000000000000000, -0.000000000000000000 ) ) ;
#195 = ORIENTED_EDGE ( 'NONE', *, *, #283, .T. ) ;
#196 =( GEOMETRIC_REPRESENTATION_CONTEXT ( 3 ) GLOBAL_UNCERTAINTY_ASSIGNED_CONTEXT ( ( #58 ) ) GLOBAL_UNIT_ASSIGNED_CONTEXT ( ( #217, #127, #29 ) ) REPRESENTATION_CONTEXT ( 'NONE', 'WORKASPACE' ) );
#197 = FILL_AREA_STYLE_COLOUR ( '', #227 ) ;
#198 = SURFACE_SIDE_STYLE ('',( #71 ) ) ;
#199 = MECHANICAL_DESIGN_GEOMETRIC_PRESENTATION_REPRESENTATION (  '', ( #91 ), #302 ) ;
#200 = CYLINDRICAL_SURFACE ( 'NONE', #212, 0.2500000000000000000 ) ;
#201 = UNCERTAINTY_MEASURE_WITH_UNIT (LENGTH_MEASURE( 1.000000000000000082E-05 ), #132, 'distance_accuracy_value', 'NONE');
#202 = PRESENTATION_STYLE_ASSIGNMENT (( #240 ) ) ;
#203 = MECHANICAL_DESIGN_GEOMETRIC_PRESENTATION_REPRESENTATION (  '', ( #80 ), #52 ) ;
#204 = EDGE_CURVE ( 'NONE', #43, #272, #137, .T. ) ;
#205 = DIRECTION ( 'NONE',  ( -1.000000000000000000, 0.000000000000000000, 0.000000000000000000 ) ) ;
#206 = SURFACE_SIDE_STYLE ('',( #230 ) ) ;
#207 =( LENGTH_UNIT ( ) NAMED_UNIT ( * ) SI_UNIT ( $, .METRE. ) );
#208 = ORIENTED_EDGE ( 'NONE', *, *, #70, .T. ) ;
#209 = COLOUR_RGB ( '',1.000000000000000000, 0.000000000000000000, 0.000000000000000000 ) ;
#210 =( LENGTH_UNIT ( ) NAMED_UNIT ( * ) SI_UNIT ( $, .METRE. ) );
#211 = CIRCLE ( 'NONE', #147, 0.2500000000000000000 ) ;
#212 = AXIS2_PLACEMENT_3D ( 'NONE', #11, #136, #295 ) ;
#213 = ADVANCED_FACE ( 'NONE', ( #264 ), #68, .F. ) ;
#214 = PRODUCT_DEFINITION_CONTEXT ( 'detailed design', #254, 'design' ) ;
#215 = DIRECTION ( 'NONE',  ( -1.000000000000000000, -1.224646799147353207E-16, 0.000000000000000000 ) ) ;
#216 = CARTESIAN_POINT ( 'NONE',  ( 0.000000000000000000, 0.000000000000000000, 0.000000000000000000 ) ) ;
#217 =( CONVERSION_BASED_UNIT ( 'INCH', #273 ) LENGTH_UNIT ( ) NAMED_UNIT ( #294 ) );
#218 =( CONVERSION_BASED_UNIT ( 'INCH', #111 ) LENGTH_UNIT ( ) NAMED_UNIT ( #223 ) );
#219 = DIRECTION ( 'NONE',  ( -0.000000000000000000, -1.000000000000000000, -0.000000000000000000 ) ) ;
#220 = SURFACE_SIDE_STYLE ('',( #33 ) ) ;
#221 = COLOUR_RGB ( '',1.000000000000000000, 0.000000000000000000, 0.000000000000000000 ) ;
#222 = AXIS2_PLACEMENT_3D ( 'NONE', #101, #19, #163 ) ;
#223 = DIMENSIONAL_EXPONENTS ( 1.000000000000000000, 0.000000000000000000, 0.000000000000000000, 0.000000000000000000, 0.000000000000000000, 0.000000000000000000, 0.000000000000000000 ) ;
#224 = VECTOR ( 'NONE', #108, 39.37007874015748143 ) ;
#225 = DIMENSIONAL_EXPONENTS ( 1.000000000000000000, 0.000000000000000000, 0.000000000000000000, 0.000000000000000000, 0.000000000000000000, 0.000000000000000000, 0.000000000000000000 ) ;
#226 = AXIS2_PLACEMENT_3D ( 'NONE', #193, #263, #234 ) ;
#227 = COLOUR_RGB ( '',0.7921568627450980005, 0.8196078431372548767, 0.9333333333333333481 ) ;
#228 = APPLICATION_CONTEXT ( 'automotive_design' ) ;
#229 = EDGE_CURVE ( 'NONE', #281, #298, #184, .T. ) ;
#230 = SURFACE_STYLE_FILL_AREA ( #144 ) ;
#231 =( NAMED_UNIT ( * ) PLANE_ANGLE_UNIT ( ) SI_UNIT ( $, .RADIAN. ) );
#232 = ORIENTED_EDGE ( 'NONE', *, *, #283, .F. ) ;
#233 =( LENGTH_UNIT ( ) NAMED_UNIT ( * ) SI_UNIT ( $, .METRE. ) );
#234 = DIRECTION ( 'NONE',  ( 0.000000000000000000, 0.000000000000000000, -1.000000000000000000 ) ) ;
#235 = ORIENTED_EDGE ( 'NONE', *, *, #229, .F. ) ;
#236 = ADVANCED_FACE ( 'NONE', ( #113 ), #255, .T. ) ;
#237 = ORIENTED_EDGE ( 'NONE', *, *, #66, .T. ) ;
#238 = AXIS2_PLACEMENT_3D ( 'NONE', #94, #118, #267 ) ;
#239 = CARTESIAN_POINT ( 'NONE',  ( 3.061616997868383018E-17, 2.500000000000000000, 0.2500000000000000000 ) ) ;
#240 = SURFACE_STYLE_USAGE ( .BOTH. , #220 ) ;
#241 = ORIENTED_EDGE ( 'NONE', *, *, #204, .F. ) ;
#242 = LENGTH_MEASURE_WITH_UNIT ( LENGTH_MEASURE( 0.02539999999999999897 ), #250 );
#243 = FILL_AREA_STYLE_COLOUR ( '', #209 ) ;
#244 = FILL_AREA_STYLE ('',( #243 ) ) ;
#245 =( NAMED_UNIT ( * ) PLANE_ANGLE_UNIT ( ) SI_UNIT ( $, .RADIAN. ) );
#246 = VERTEX_POINT ( 'NONE', #72 ) ;
#247 = CIRCLE ( 'NONE', #181, 0.2500000000000000000 ) ;
#248 = CARTESIAN_POINT ( 'NONE',  ( 0.2500000000000000000, 2.500000000000000000, 3.061616997868385483E-17 ) ) ;
#249 = DIRECTION ( 'NONE',  ( -0.000000000000000000, -1.000000000000000000, -0.000000000000000000 ) ) ;
#250 =( LENGTH_UNIT ( ) NAMED_UNIT ( * ) SI_UNIT ( $, .METRE. ) );
#251 = FILL_AREA_STYLE ('',( #2 ) ) ;
#252 = SURFACE_STYLE_FILL_AREA ( #86 ) ;
#253 = AXIS2_PLACEMENT_3D ( 'NONE', #301, #124, #62 ) ;
#254 = APPLICATION_CONTEXT ( 'automotive_design' ) ;
#255 = CYLINDRICAL_SURFACE ( 'NONE', #59, 0.2500000000000001110 ) ;
#256 = UNCERTAINTY_MEASURE_WITH_UNIT (LENGTH_MEASURE( 1.000000000000000082E-05 ), #85, 'distance_accuracy_value', 'NONE');
#257 = CARTESIAN_POINT ( 'NONE',  ( -3.061616997868383141E-16, 5.000000000000000000, 0.000000000000000000 ) ) ;
#258 = DIMENSIONAL_EXPONENTS ( 1.000000000000000000, 0.000000000000000000, 0.000000000000000000, 0.000000000000000000, 0.000000000000000000, 0.000000000000000000, 0.000000000000000000 ) ;
#259 = FILL_AREA_STYLE_COLOUR ( '', #221 ) ;
#260 = CARTESIAN_POINT ( 'NONE',  ( 0.000000000000000000, 2.500000000000000000, 0.000000000000000000 ) ) ;
#261 = ADVANCED_FACE ( 'NONE', ( #45 ), #125, .T. ) ;
#262 = EDGE_LOOP ( 'NONE', ( #232, #122 ) ) ;
#263 = DIRECTION ( 'NONE',  ( -0.000000000000000000, -1.000000000000000000, -0.000000000000000000 ) ) ;
#264 = FACE_OUTER_BOUND ( 'NONE', #95, .T. ) ;
#265 = EDGE_LOOP ( 'NONE', ( #119, #208, #237, #172 ) ) ;
#266 = FILL_AREA_STYLE_COLOUR ( '', #134 ) ;
#267 = DIRECTION ( 'NONE',  ( 0.000000000000000000, 0.000000000000000000, -1.000000000000000000 ) ) ;
#268 = ORIENTED_EDGE ( 'NONE', *, *, #121, .F. ) ;
#269 = ORIENTED_EDGE ( 'NONE', *, *, #151, .T. ) ;
#270 = FILL_AREA_STYLE ('',( #259 ) ) ;
#271 = SURFACE_STYLE_FILL_AREA ( #251 ) ;
#272 = VERTEX_POINT ( 'NONE', #167 ) ;
#273 = LENGTH_MEASURE_WITH_UNIT ( LENGTH_MEASURE( 0.02539999999999999897 ), #210 );
#274 = CIRCLE ( 'NONE', #173, 0.2500000000000000000 ) ;
#275 = ADVANCED_FACE ( 'NONE', ( #169 ), #200, .T. ) ;
#276 = AXIS2_PLACEMENT_3D ( 'NONE', #17, #219, #142 ) ;
#277 =( GEOMETRIC_REPRESENTATION_CONTEXT ( 3 ) GLOBAL_UNCERTAINTY_ASSIGNED_CONTEXT ( ( #76 ) ) GLOBAL_UNIT_ASSIGNED_CONTEXT ( ( #218, #245, #304 ) ) REPRESENTATION_CONTEXT ( 'NONE', 'WORKASPACE' ) );
#278 = MECHANICAL_DESIGN_GEOMETRIC_PRESENTATION_REPRESENTATION (  '', ( #56 ), #196 ) ;
#279 = DIMENSIONAL_EXPONENTS ( 1.000000000000000000, 0.000000000000000000, 0.000000000000000000, 0.000000000000000000, 0.000000000000000000, 0.000000000000000000, 0.000000000000000000 ) ;
#280 = DIRECTION ( 'NONE',  ( 0.000000000000000000, 0.000000000000000000, 1.000000000000000000 ) ) ;
#281 = VERTEX_POINT ( 'NONE', #239 ) ;
#282 = EDGE_LOOP ( 'NONE', ( #235, #133, #73, #41 ) ) ;
#283 = EDGE_CURVE ( 'NONE', #188, #281, #112, .T. ) ;
#284 = PRODUCT_RELATED_PRODUCT_CATEGORY ( 'part', '', ( #55 ) ) ;
#285 = EDGE_LOOP ( 'NONE', ( #32, #84 ) ) ;
#286 = PRESENTATION_STYLE_ASSIGNMENT (( #88 ) ) ;
#287 = PRESENTATION_LAYER_ASSIGNMENT (  '', '', ( #37 ) ) ;
#288 = AXIS2_PLACEMENT_3D ( 'NONE', #191, #166, #171 ) ;
#289 = DIRECTION ( 'NONE',  ( -1.000000000000000000, 0.000000000000000000, 0.000000000000000000 ) ) ;
#290 = CARTESIAN_POINT ( 'NONE',  ( 1.874699728327322010E-33, 2.500000000000000000, 0.000000000000000000 ) ) ;
#291 = DIRECTION ( 'NONE',  ( 0.000000000000000000, 0.000000000000000000, -1.000000000000000000 ) ) ;
#292 =( GEOMETRIC_REPRESENTATION_CONTEXT ( 3 ) GLOBAL_UNCERTAINTY_ASSIGNED_CONTEXT ( ( #175 ) ) GLOBAL_UNIT_ASSIGNED_CONTEXT ( ( #123, #104, #47 ) ) REPRESENTATION_CONTEXT ( 'NONE', 'WORKASPACE' ) );
#293 =( NAMED_UNIT ( * ) SI_UNIT ( $, .STERADIAN. ) SOLID_ANGLE_UNIT ( ) );
#294 = DIMENSIONAL_EXPONENTS ( 1.000000000000000000, 0.000000000000000000, 0.000000000000000000, 0.000000000000000000, 0.000000000000000000, 0.000000000000000000, 0.000000000000000000 ) ;
#295 = DIRECTION ( 'NONE',  ( 0.000000000000000000, 0.000000000000000000, -1.000000000000000000 ) ) ;
#296 = CARTESIAN_POINT ( 'NONE',  ( 0.000000000000000000, 2.500000000000000000, -0.2500000000000000000 ) ) ;
#297 = PRESENTATION_STYLE_ASSIGNMENT (( #16 ) ) ;
#298 = VERTEX_POINT ( 'NONE', #187 ) ;
#299 = AXIS2_PLACEMENT_3D ( 'NONE', #7, #139, #115 ) ;
#300 = ORIENTED_EDGE ( 'NONE', *, *, #50, .T. ) ;
#301 = CARTESIAN_POINT ( 'NONE',  ( 0.000000000000000000, 0.000000000000000000, 0.000000000000000000 ) ) ;
#302 =( GEOMETRIC_REPRESENTATION_CONTEXT ( 3 ) GLOBAL_UNCERTAINTY_ASSIGNED_CONTEXT ( ( #201 ) ) GLOBAL_UNIT_ASSIGNED_CONTEXT ( ( #132, #110, #176 ) ) REPRESENTATION_CONTEXT ( 'NONE', 'WORKASPACE' ) );
#303 = CARTESIAN_POINT ( 'NONE',  ( 0.000000000000000000, 0.000000000000000000, -0.2500000000000000000 ) ) ;
#304 =( NAMED_UNIT ( * ) SI_UNIT ( $, .STERADIAN. ) SOLID_ANGLE_UNIT ( ) );
#305 =( LENGTH_UNIT ( ) NAMED_UNIT ( * ) SI_UNIT ( $, .METRE. ) );
#306 = ADVANCED_FACE ( 'NONE', ( #143 ), #90, .T. ) ;
#307 =( NAMED_UNIT ( * ) PLANE_ANGLE_UNIT ( ) SI_UNIT ( $, .RADIAN. ) );
#308 = DIRECTION ( 'NONE',  ( -1.224646799147353207E-16, 1.000000000000000000, -0.000000000000000000 ) ) ;
#309 = SHAPE_DEFINITION_REPRESENTATION ( #186, #81 ) ;
ENDSEC;
END-ISO-10303-21;
