ISO-10303-21;
HEADER;
FILE_DESCRIPTION (( 'STEP AP214' ),
    '1' );
FILE_NAME ('83440.STEP',
    '2023-06-23T10:24:14',
    ( '' ),
    ( '' ),
    'SwSTEP 2.0',
    'SolidWorks 2023',
    '' );
FILE_SCHEMA (( 'AUTOMOTIVE_DESIGN' ));
ENDSEC;

DATA;
#1 = ORIENTED_EDGE ( 'NONE', *, *, #140, .F. ) ;
#2 = VECTOR ( 'NONE', #170, 39.37007874015748143 ) ;
#3 = ORIENTED_EDGE ( 'NONE', *, *, #230, .F. ) ;
#4 = DIRECTION ( 'NONE',  ( -1.360718665719282382E-16, -1.000000000000000000, 0.000000000000000000 ) ) ;
#5 = ORIENTED_EDGE ( 'NONE', *, *, #171, .F. ) ;
#6 = SURFACE_STYLE_FILL_AREA ( #147 ) ;
#7 =( NAMED_UNIT ( * ) SI_UNIT ( $, .STERADIAN. ) SOLID_ANGLE_UNIT ( ) );
#8 = SURFACE_STYLE_USAGE ( .BOTH. , #132 ) ;
#9 = DIMENSIONAL_EXPONENTS ( 1.000000000000000000, 0.000000000000000000, 0.000000000000000000, 0.000000000000000000, 0.000000000000000000, 0.000000000000000000, 0.000000000000000000 ) ;
#10 =( GEOMETRIC_REPRESENTATION_CONTEXT ( 3 ) GLOBAL_UNCERTAINTY_ASSIGNED_CONTEXT ( ( #263 ) ) GLOBAL_UNIT_ASSIGNED_CONTEXT ( ( #233, #68, #215 ) ) REPRESENTATION_CONTEXT ( 'NONE', 'WORKASPACE' ) );
#11 = SURFACE_STYLE_USAGE ( .BOTH. , #55 ) ;
#12 = DIRECTION ( 'NONE',  ( -1.000000000000000000, 0.000000000000000000, 0.000000000000000000 ) ) ;
#13 = AXIS2_PLACEMENT_3D ( 'NONE', #137, #110, #12 ) ;
#14 =( NAMED_UNIT ( * ) SI_UNIT ( $, .STERADIAN. ) SOLID_ANGLE_UNIT ( ) );
#15 =( NAMED_UNIT ( * ) SI_UNIT ( $, .STERADIAN. ) SOLID_ANGLE_UNIT ( ) );
#16 = EDGE_CURVE ( 'NONE', #163, #148, #31, .T. ) ;
#17 = MECHANICAL_DESIGN_GEOMETRIC_PRESENTATION_REPRESENTATION (  '', ( #228 ), #301 ) ;
#18 = AXIS2_PLACEMENT_3D ( 'NONE', #138, #229, #280 ) ;
#19 = SURFACE_STYLE_USAGE ( .BOTH. , #21 ) ;
#20 = ORIENTED_EDGE ( 'NONE', *, *, #112, .T. ) ;
#21 = SURFACE_SIDE_STYLE ('',( #271 ) ) ;
#22 = ORIENTED_EDGE ( 'NONE', *, *, #85, .F. ) ;
#23 = ORIENTED_EDGE ( 'NONE', *, *, #66, .T. ) ;
#24 = AXIS2_PLACEMENT_3D ( 'NONE', #79, #198, #177 ) ;
#25 =( GEOMETRIC_REPRESENTATION_CONTEXT ( 3 ) GLOBAL_UNCERTAINTY_ASSIGNED_CONTEXT ( ( #94 ) ) GLOBAL_UNIT_ASSIGNED_CONTEXT ( ( #193, #101, #80 ) ) REPRESENTATION_CONTEXT ( 'NONE', 'WORKASPACE' ) );
#26 = VERTEX_POINT ( 'NONE', #115 ) ;
#27 = EDGE_LOOP ( 'NONE', ( #189, #100, #216, #22 ) ) ;
#28 = DIRECTION ( 'NONE',  ( 0.000000000000000000, 0.000000000000000000, 1.000000000000000000 ) ) ;
#29 = FILL_AREA_STYLE_COLOUR ( '', #201 ) ;
#30 = ADVANCED_FACE ( 'NONE', ( #52 ), #297, .T. ) ;
#31 = CIRCLE ( 'NONE', #255, 0.3125000000000000000 ) ;
#32 = APPLICATION_PROTOCOL_DEFINITION ( 'draft international standard', 'automotive_design', 1998, #265 ) ;
#33 = CARTESIAN_POINT ( 'NONE',  ( 0.000000000000000000, 0.000000000000000000, 0.000000000000000000 ) ) ;
#34 = CARTESIAN_POINT ( 'NONE',  ( 0.3125000000000000000, 3.500000000000000000, 3.827021247335477694E-17 ) ) ;
#35 = ADVANCED_FACE ( 'NONE', ( #107 ), #135, .T. ) ;
#36 = FACE_OUTER_BOUND ( 'NONE', #143, .T. ) ;
#37 = LENGTH_MEASURE_WITH_UNIT ( LENGTH_MEASURE( 0.02539999999999999897 ), #78 );
#38 = SURFACE_STYLE_USAGE ( .BOTH. , #84 ) ;
#39 = FACE_OUTER_BOUND ( 'NONE', #27, .T. ) ;
#40 = ADVANCED_BREP_SHAPE_REPRESENTATION ( '83440', ( #124, #217, #122 ), #25 ) ;
#41 = DIRECTION ( 'NONE',  ( 0.000000000000000000, 0.000000000000000000, -1.000000000000000000 ) ) ;
#42 =( GEOMETRIC_REPRESENTATION_CONTEXT ( 3 ) GLOBAL_UNCERTAINTY_ASSIGNED_CONTEXT ( ( #302 ) ) GLOBAL_UNIT_ASSIGNED_CONTEXT ( ( #128, #254, #15 ) ) REPRESENTATION_CONTEXT ( 'NONE', 'WORKASPACE' ) );
#43 = CARTESIAN_POINT ( 'NONE',  ( 0.000000000000000000, 1.250000000000000000, -0.3125000000000000000 ) ) ;
#44 = CYLINDRICAL_SURFACE ( 'NONE', #70, 0.3124999999999998890 ) ;
#45 = FILL_AREA_STYLE_COLOUR ( '', #292 ) ;
#46 = ORIENTED_EDGE ( 'NONE', *, *, #140, .T. ) ;
#47 = VECTOR ( 'NONE', #207, 39.37007874015748143 ) ;
#48 = ORIENTED_EDGE ( 'NONE', *, *, #85, .T. ) ;
#49 = LINE ( 'NONE', #212, #77 ) ;
#50 = FILL_AREA_STYLE_COLOUR ( '', #179 ) ;
#51 = PLANE ( 'NONE',  #88 ) ;
#52 = FACE_OUTER_BOUND ( 'NONE', #243, .T. ) ;
#53 = AXIS2_PLACEMENT_3D ( 'NONE', #59, #224, #106 ) ;
#54 = ADVANCED_FACE ( 'NONE', ( #245 ), #174, .T. ) ;
#55 = SURFACE_SIDE_STYLE ('',( #60 ) ) ;
#56 = SHAPE_DEFINITION_REPRESENTATION ( #259, #40 ) ;
#57 = DIRECTION ( 'NONE',  ( -1.000000000000000000, 0.000000000000000000, 0.000000000000000000 ) ) ;
#58 = PRESENTATION_LAYER_ASSIGNMENT (  '', '', ( #81 ) ) ;
#59 = CARTESIAN_POINT ( 'NONE',  ( 3.061616997868384620E-16, 3.500000000000000000, 0.000000000000000000 ) ) ;
#60 = SURFACE_STYLE_FILL_AREA ( #82 ) ;
#61 = PRODUCT_DEFINITION_CONTEXT ( 'detailed design', #265, 'design' ) ;
#62 = DIRECTION ( 'NONE',  ( 1.360718665719282382E-16, 1.000000000000000000, -0.000000000000000000 ) ) ;
#63 =( GEOMETRIC_REPRESENTATION_CONTEXT ( 3 ) GLOBAL_UNCERTAINTY_ASSIGNED_CONTEXT ( ( #305 ) ) GLOBAL_UNIT_ASSIGNED_CONTEXT ( ( #178, #89, #14 ) ) REPRESENTATION_CONTEXT ( 'NONE', 'WORKASPACE' ) );
#64 = COLOUR_RGB ( '',1.000000000000000000, 0.000000000000000000, 0.000000000000000000 ) ;
#65 = CIRCLE ( 'NONE', #18, 0.3125000000000000000 ) ;
#66 = EDGE_CURVE ( 'NONE', #26, #69, #249, .T. ) ;
#67 = DIRECTION ( 'NONE',  ( 1.360718665719282382E-16, 1.000000000000000000, -0.000000000000000000 ) ) ;
#68 =( NAMED_UNIT ( * ) PLANE_ANGLE_UNIT ( ) SI_UNIT ( $, .RADIAN. ) );
#69 = VERTEX_POINT ( 'NONE', #34 ) ;
#70 = AXIS2_PLACEMENT_3D ( 'NONE', #288, #67, #136 ) ;
#71 = ORIENTED_EDGE ( 'NONE', *, *, #226, .F. ) ;
#72 = VERTEX_POINT ( 'NONE', #278 ) ;
#73 = CARTESIAN_POINT ( 'NONE',  ( -0.3125000000000000000, 1.250000000000000000, 0.000000000000000000 ) ) ;
#74 = SURFACE_STYLE_USAGE ( .BOTH. , #240 ) ;
#75 = PRESENTATION_LAYER_ASSIGNMENT (  '', '', ( #105 ) ) ;
#76 = ADVANCED_FACE ( 'NONE', ( #36 ), #300, .T. ) ;
#77 = VECTOR ( 'NONE', #182, 39.37007874015748143 ) ;
#78 =( LENGTH_UNIT ( ) NAMED_UNIT ( * ) SI_UNIT ( $, .METRE. ) );
#79 = CARTESIAN_POINT ( 'NONE',  ( 0.000000000000000000, 0.000000000000000000, 0.000000000000000000 ) ) ;
#80 =( NAMED_UNIT ( * ) SI_UNIT ( $, .STERADIAN. ) SOLID_ANGLE_UNIT ( ) );
#81 = STYLED_ITEM ( 'NONE', ( #117 ), #252 ) ;
#82 = FILL_AREA_STYLE ('',( #29 ) ) ;
#83 = APPLICATION_PROTOCOL_DEFINITION ( 'draft international standard', 'automotive_design', 1998, #90 ) ;
#84 = SURFACE_SIDE_STYLE ('',( #225 ) ) ;
#85 = EDGE_CURVE ( 'NONE', #69, #26, #173, .T. ) ;
#86 = MECHANICAL_DESIGN_GEOMETRIC_PRESENTATION_REPRESENTATION (  '', ( #92 ), #42 ) ;
#87 = PRESENTATION_STYLE_ASSIGNMENT (( #303 ) ) ;
#88 = AXIS2_PLACEMENT_3D ( 'NONE', #238, #4, #99 ) ;
#89 =( NAMED_UNIT ( * ) PLANE_ANGLE_UNIT ( ) SI_UNIT ( $, .RADIAN. ) );
#90 = APPLICATION_CONTEXT ( 'automotive_design' ) ;
#91 = DIRECTION ( 'NONE',  ( 0.000000000000000000, 0.000000000000000000, -1.000000000000000000 ) ) ;
#92 = STYLED_ITEM ( 'NONE', ( #223 ), #76 ) ;
#93 = AXIS2_PLACEMENT_3D ( 'NONE', #209, #123, #119 ) ;
#94 = UNCERTAINTY_MEASURE_WITH_UNIT (LENGTH_MEASURE( 1.000000000000000082E-05 ), #193, 'distance_accuracy_value', 'NONE');
#95 =( LENGTH_UNIT ( ) NAMED_UNIT ( * ) SI_UNIT ( $, .METRE. ) );
#96 = DIRECTION ( 'NONE',  ( -1.000000000000000000, 0.000000000000000000, 0.000000000000000000 ) ) ;
#97 =( CONVERSION_BASED_UNIT ( 'INCH', #262 ) LENGTH_UNIT ( ) NAMED_UNIT ( #134 ) );
#98 = LENGTH_MEASURE_WITH_UNIT ( LENGTH_MEASURE( 0.02539999999999999897 ), #95 );
#99 = DIRECTION ( 'NONE',  ( 1.000000000000000000, -1.360718665719282382E-16, 0.000000000000000000 ) ) ;
#100 = ORIENTED_EDGE ( 'NONE', *, *, #308, .T. ) ;
#101 =( NAMED_UNIT ( * ) PLANE_ANGLE_UNIT ( ) SI_UNIT ( $, .RADIAN. ) );
#102 = VECTOR ( 'NONE', #62, 39.37007874015748143 ) ;
#103 = LENGTH_MEASURE_WITH_UNIT ( LENGTH_MEASURE( 0.02539999999999999897 ), #190 );
#104 =( LENGTH_UNIT ( ) NAMED_UNIT ( * ) SI_UNIT ( $, .METRE. ) );
#105 = STYLED_ITEM ( 'NONE', ( #152 ), #54 ) ;
#106 = DIRECTION ( 'NONE',  ( -1.000000000000000000, 0.000000000000000000, 0.000000000000000000 ) ) ;
#107 = FACE_OUTER_BOUND ( 'NONE', #120, .T. ) ;
#108 = FILL_AREA_STYLE ('',( #142 ) ) ;
#109 = PRODUCT_DEFINITION_FORMATION_WITH_SPECIFIED_SOURCE ( 'ANY', '', #158, .NOT_KNOWN. ) ;
#110 = DIRECTION ( 'NONE',  ( 1.360718665719282382E-16, 1.000000000000000000, -0.000000000000000000 ) ) ;
#111 = CARTESIAN_POINT ( 'NONE',  ( 0.000000000000000000, 0.000000000000000000, -0.3125000000000000000 ) ) ;
#112 = EDGE_CURVE ( 'NONE', #293, #145, #65, .T. ) ;
#113 = UNCERTAINTY_MEASURE_WITH_UNIT (LENGTH_MEASURE( 1.000000000000000082E-05 ), #97, 'distance_accuracy_value', 'NONE');
#114 =( NAMED_UNIT ( * ) SI_UNIT ( $, .STERADIAN. ) SOLID_ANGLE_UNIT ( ) );
#115 = CARTESIAN_POINT ( 'NONE',  ( -0.3124999999999994449, 3.500000000000000000, 0.000000000000000000 ) ) ;
#116 = PRODUCT_DEFINITION ( 'UNKNOWN', '', #109, #61 ) ;
#117 = PRESENTATION_STYLE_ASSIGNMENT (( #19 ) ) ;
#118 = ORIENTED_EDGE ( 'NONE', *, *, #66, .F. ) ;
#119 = DIRECTION ( 'NONE',  ( -1.000000000000000000, 1.360718665719282382E-16, 0.000000000000000000 ) ) ;
#120 = EDGE_LOOP ( 'NONE', ( #165, #183, #118, #3 ) ) ;
#121 = PRESENTATION_LAYER_ASSIGNMENT (  '', '', ( #228 ) ) ;
#122 = AXIS2_PLACEMENT_3D ( 'NONE', #33, #28, #274 ) ;
#123 = DIRECTION ( 'NONE',  ( 1.360718665719282382E-16, 1.000000000000000000, -0.000000000000000000 ) ) ;
#124 = MANIFOLD_SOLID_BREP ( 'Revolve - Cutting Edge', #168 ) ;
#125 = EDGE_CURVE ( 'NONE', #72, #69, #284, .T. ) ;
#126 = EDGE_LOOP ( 'NONE', ( #46, #235, #5, #267 ) ) ;
#127 = PRESENTATION_STYLE_ASSIGNMENT (( #74 ) ) ;
#128 =( CONVERSION_BASED_UNIT ( 'INCH', #37 ) LENGTH_UNIT ( ) NAMED_UNIT ( #244 ) );
#129 = AXIS2_PLACEMENT_3D ( 'NONE', #248, #133, #276 ) ;
#130 = COLOUR_RGB ( '',0.7921568627450980005, 0.8196078431372548767, 0.9333333333333333481 ) ;
#131 = DIMENSIONAL_EXPONENTS ( 1.000000000000000000, 0.000000000000000000, 0.000000000000000000, 0.000000000000000000, 0.000000000000000000, 0.000000000000000000, 0.000000000000000000 ) ;
#132 = SURFACE_SIDE_STYLE ('',( #221 ) ) ;
#133 = DIRECTION ( 'NONE',  ( 0.000000000000000000, 1.000000000000000000, 0.000000000000000000 ) ) ;
#134 = DIMENSIONAL_EXPONENTS ( 1.000000000000000000, 0.000000000000000000, 0.000000000000000000, 0.000000000000000000, 0.000000000000000000, 0.000000000000000000, 0.000000000000000000 ) ;
#135 = CYLINDRICAL_SURFACE ( 'NONE', #206, 0.3124999999999998890 ) ;
#136 = DIRECTION ( 'NONE',  ( -1.000000000000000000, 0.000000000000000000, 0.000000000000000000 ) ) ;
#137 = CARTESIAN_POINT ( 'NONE',  ( 3.061616997868384620E-16, 3.500000000000000000, 0.000000000000000000 ) ) ;
#138 = CARTESIAN_POINT ( 'NONE',  ( 0.000000000000000000, 1.250000000000000000, 0.000000000000000000 ) ) ;
#139 = STYLED_ITEM ( 'NONE', ( #87 ), #217 ) ;
#140 = EDGE_CURVE ( 'NONE', #145, #293, #287, .T. ) ;
#141 = PRESENTATION_STYLE_ASSIGNMENT (( #38 ) ) ;
#142 = FILL_AREA_STYLE_COLOUR ( '', #220 ) ;
#143 = EDGE_LOOP ( 'NONE', ( #237, #20, #191, #234 ) ) ;
#144 = AXIS2_PLACEMENT_3D ( 'NONE', #180, #257, #251 ) ;
#145 = VERTEX_POINT ( 'NONE', #43 ) ;
#146 = FILL_AREA_STYLE ('',( #45 ) ) ;
#147 = FILL_AREA_STYLE ('',( #50 ) ) ;
#148 = VERTEX_POINT ( 'NONE', #111 ) ;
#149 =( GEOMETRIC_REPRESENTATION_CONTEXT ( 3 ) GLOBAL_UNCERTAINTY_ASSIGNED_CONTEXT ( ( #253 ) ) GLOBAL_UNIT_ASSIGNED_CONTEXT ( ( #199, #151, #194 ) ) REPRESENTATION_CONTEXT ( 'NONE', 'WORKASPACE' ) );
#150 = CARTESIAN_POINT ( 'NONE',  ( 3.827021247335478926E-17, 0.000000000000000000, 0.3125000000000000000 ) ) ;
#151 =( NAMED_UNIT ( * ) PLANE_ANGLE_UNIT ( ) SI_UNIT ( $, .RADIAN. ) );
#152 = PRESENTATION_STYLE_ASSIGNMENT (( #8 ) ) ;
#153 = FILL_AREA_STYLE ('',( #222 ) ) ;
#154 = AXIS2_PLACEMENT_3D ( 'NONE', #205, #306, #91 ) ;
#155 = DIRECTION ( 'NONE',  ( -0.000000000000000000, -1.000000000000000000, -0.000000000000000000 ) ) ;
#156 = CARTESIAN_POINT ( 'NONE',  ( 0.3125000000000001665, 3.500000000000000000, 3.827021247335477078E-17 ) ) ;
#157 = CARTESIAN_POINT ( 'NONE',  ( 0.000000000000000000, 1.250000000000000000, 0.000000000000000000 ) ) ;
#158 = PRODUCT ( '83440', '83440', '', ( #247 ) ) ;
#159 = FACE_OUTER_BOUND ( 'NONE', #126, .T. ) ;
#160 = EDGE_LOOP ( 'NONE', ( #23, #48 ) ) ;
#161 = FACE_OUTER_BOUND ( 'NONE', #211, .T. ) ;
#162 = ORIENTED_EDGE ( 'NONE', *, *, #16, .T. ) ;
#163 = VERTEX_POINT ( 'NONE', #260 ) ;
#164 = LINE ( 'NONE', #150, #47 ) ;
#165 = ORIENTED_EDGE ( 'NONE', *, *, #226, .T. ) ;
#166 =( NAMED_UNIT ( * ) PLANE_ANGLE_UNIT ( ) SI_UNIT ( $, .RADIAN. ) );
#167 =( LENGTH_UNIT ( ) NAMED_UNIT ( * ) SI_UNIT ( $, .METRE. ) );
#168 = CLOSED_SHELL ( 'NONE', ( #252, #54, #76, #30 ) ) ;
#169 =( NAMED_UNIT ( * ) PLANE_ANGLE_UNIT ( ) SI_UNIT ( $, .RADIAN. ) );
#170 = DIRECTION ( 'NONE',  ( -0.000000000000000000, -1.000000000000000000, -0.000000000000000000 ) ) ;
#171 = EDGE_CURVE ( 'NONE', #148, #163, #186, .T. ) ;
#172 = CARTESIAN_POINT ( 'NONE',  ( 0.000000000000000000, 1.250000000000000000, 0.000000000000000000 ) ) ;
#173 = CIRCLE ( 'NONE', #13, 0.3124999999999997224 ) ;
#174 = PLANE ( 'NONE',  #129 ) ;
#175 = ADVANCED_FACE ( 'NONE', ( #39 ), #44, .T. ) ;
#176 = CARTESIAN_POINT ( 'NONE',  ( 0.000000000000000000, 0.000000000000000000, -0.3125000000000000000 ) ) ;
#177 = DIRECTION ( 'NONE',  ( 0.000000000000000000, 0.000000000000000000, -1.000000000000000000 ) ) ;
#178 =( CONVERSION_BASED_UNIT ( 'INCH', #203 ) LENGTH_UNIT ( ) NAMED_UNIT ( #218 ) );
#179 = COLOUR_RGB ( '',1.000000000000000000, 0.000000000000000000, 0.000000000000000000 ) ;
#180 = CARTESIAN_POINT ( 'NONE',  ( 0.000000000000000000, 1.250000000000000000, 0.000000000000000000 ) ) ;
#181 = CARTESIAN_POINT ( 'NONE',  ( 3.827021247335478926E-17, 1.250000000000000000, 0.3125000000000000000 ) ) ;
#182 = DIRECTION ( 'NONE',  ( 1.360718665719282382E-16, 1.000000000000000000, -0.000000000000000000 ) ) ;
#183 = ORIENTED_EDGE ( 'NONE', *, *, #125, .T. ) ;
#184 =( CONVERSION_BASED_UNIT ( 'INCH', #98 ) LENGTH_UNIT ( ) NAMED_UNIT ( #242 ) );
#185 = EDGE_LOOP ( 'NONE', ( #1, #210 ) ) ;
#186 = CIRCLE ( 'NONE', #154, 0.3125000000000000000 ) ;
#187 = ORIENTED_EDGE ( 'NONE', *, *, #171, .T. ) ;
#188 = CARTESIAN_POINT ( 'NONE',  ( 0.000000000000000000, 0.000000000000000000, 0.000000000000000000 ) ) ;
#189 = ORIENTED_EDGE ( 'NONE', *, *, #125, .F. ) ;
#190 =( LENGTH_UNIT ( ) NAMED_UNIT ( * ) SI_UNIT ( $, .METRE. ) );
#191 = ORIENTED_EDGE ( 'NONE', *, *, #295, .T. ) ;
#192 = AXIS2_PLACEMENT_3D ( 'NONE', #283, #155, #41 ) ;
#193 =( CONVERSION_BASED_UNIT ( 'INCH', #103 ) LENGTH_UNIT ( ) NAMED_UNIT ( #272 ) );
#194 =( NAMED_UNIT ( * ) SI_UNIT ( $, .STERADIAN. ) SOLID_ANGLE_UNIT ( ) );
#195 = DIRECTION ( 'NONE',  ( 1.360718665719282382E-16, 1.000000000000000000, -0.000000000000000000 ) ) ;
#196 = DIRECTION ( 'NONE',  ( -1.000000000000000000, 0.000000000000000000, 0.000000000000000000 ) ) ;
#197 = AXIS2_PLACEMENT_3D ( 'NONE', #172, #195, #57 ) ;
#198 = DIRECTION ( 'NONE',  ( 0.000000000000000000, -1.000000000000000000, -0.000000000000000000 ) ) ;
#199 =( CONVERSION_BASED_UNIT ( 'INCH', #299 ) LENGTH_UNIT ( ) NAMED_UNIT ( #9 ) );
#200 = SURFACE_SIDE_STYLE ('',( #231 ) ) ;
#201 = COLOUR_RGB ( '',1.000000000000000000, 0.000000000000000000, 0.000000000000000000 ) ;
#202 = PRESENTATION_LAYER_ASSIGNMENT (  '', '', ( #208 ) ) ;
#203 = LENGTH_MEASURE_WITH_UNIT ( LENGTH_MEASURE( 0.02539999999999999897 ), #204 );
#204 =( LENGTH_UNIT ( ) NAMED_UNIT ( * ) SI_UNIT ( $, .METRE. ) );
#205 = CARTESIAN_POINT ( 'NONE',  ( 0.000000000000000000, 0.000000000000000000, 0.000000000000000000 ) ) ;
#206 = AXIS2_PLACEMENT_3D ( 'NONE', #246, #273, #196 ) ;
#207 = DIRECTION ( 'NONE',  ( -0.000000000000000000, -1.000000000000000000, -0.000000000000000000 ) ) ;
#208 = STYLED_ITEM ( 'NONE', ( #141 ), #124 ) ;
#209 = CARTESIAN_POINT ( 'NONE',  ( 2.893055136307600395E-33, 1.250000000000000000, 0.000000000000000000 ) ) ;
#210 = ORIENTED_EDGE ( 'NONE', *, *, #112, .F. ) ;
#211 = EDGE_LOOP ( 'NONE', ( #71, #219 ) ) ;
#212 = CARTESIAN_POINT ( 'NONE',  ( -0.3124999999999996114, 3.500000000000000000, 0.000000000000000000 ) ) ;
#213 = CARTESIAN_POINT ( 'NONE',  ( 0.000000000000000000, 0.000000000000000000, 0.000000000000000000 ) ) ;
#214 = MECHANICAL_DESIGN_GEOMETRIC_PRESENTATION_REPRESENTATION (  '', ( #139 ), #10 ) ;
#215 =( NAMED_UNIT ( * ) SI_UNIT ( $, .STERADIAN. ) SOLID_ANGLE_UNIT ( ) );
#216 = ORIENTED_EDGE ( 'NONE', *, *, #230, .T. ) ;
#217 = MANIFOLD_SOLID_BREP ( 'Revolve - Tool Body (Straight Shanked)', #239 ) ;
#218 = DIMENSIONAL_EXPONENTS ( 1.000000000000000000, 0.000000000000000000, 0.000000000000000000, 0.000000000000000000, 0.000000000000000000, 0.000000000000000000, 0.000000000000000000 ) ;
#219 = ORIENTED_EDGE ( 'NONE', *, *, #308, .F. ) ;
#220 = COLOUR_RGB ( '',0.7921568627450980005, 0.8196078431372548767, 0.9333333333333333481 ) ;
#221 = SURFACE_STYLE_FILL_AREA ( #153 ) ;
#222 = FILL_AREA_STYLE_COLOUR ( '', #64 ) ;
#223 = PRESENTATION_STYLE_ASSIGNMENT (( #11 ) ) ;
#224 = DIRECTION ( 'NONE',  ( 1.360718665719282382E-16, 1.000000000000000000, -0.000000000000000000 ) ) ;
#225 = SURFACE_STYLE_FILL_AREA ( #282 ) ;
#226 = EDGE_CURVE ( 'NONE', #290, #72, #304, .T. ) ;
#227 = FILL_AREA_STYLE_COLOUR ( '', #130 ) ;
#228 = STYLED_ITEM ( 'NONE', ( #127 ), #30 ) ;
#229 = DIRECTION ( 'NONE',  ( -0.000000000000000000, -1.000000000000000000, -0.000000000000000000 ) ) ;
#230 = EDGE_CURVE ( 'NONE', #290, #26, #49, .T. ) ;
#231 = SURFACE_STYLE_FILL_AREA ( #108 ) ;
#232 = PRESENTATION_LAYER_ASSIGNMENT (  '', '', ( #92 ) ) ;
#233 =( CONVERSION_BASED_UNIT ( 'INCH', #289 ) LENGTH_UNIT ( ) NAMED_UNIT ( #131 ) );
#234 = ORIENTED_EDGE ( 'NONE', *, *, #16, .F. ) ;
#235 = ORIENTED_EDGE ( 'NONE', *, *, #258, .T. ) ;
#236 = ADVANCED_FACE ( 'NONE', ( #161 ), #266, .F. ) ;
#237 = ORIENTED_EDGE ( 'NONE', *, *, #258, .F. ) ;
#238 = CARTESIAN_POINT ( 'NONE',  ( 0.3125000000000000000, 3.500000000000000000, 0.000000000000000000 ) ) ;
#239 = CLOSED_SHELL ( 'NONE', ( #35, #236, #175, #285 ) ) ;
#240 = SURFACE_SIDE_STYLE ('',( #6 ) ) ;
#241 = AXIS2_PLACEMENT_3D ( 'NONE', #188, #294, #296 ) ;
#242 = DIMENSIONAL_EXPONENTS ( 1.000000000000000000, 0.000000000000000000, 0.000000000000000000, 0.000000000000000000, 0.000000000000000000, 0.000000000000000000, 0.000000000000000000 ) ;
#243 = EDGE_LOOP ( 'NONE', ( #187, #162 ) ) ;
#244 = DIMENSIONAL_EXPONENTS ( 1.000000000000000000, 0.000000000000000000, 0.000000000000000000, 0.000000000000000000, 0.000000000000000000, 0.000000000000000000, 0.000000000000000000 ) ;
#245 = FACE_OUTER_BOUND ( 'NONE', #185, .T. ) ;
#246 = CARTESIAN_POINT ( 'NONE',  ( 3.061616997868384620E-16, 3.500000000000000000, 0.000000000000000000 ) ) ;
#247 = PRODUCT_CONTEXT ( 'NONE', #90, 'mechanical' ) ;
#248 = CARTESIAN_POINT ( 'NONE',  ( 0.000000000000000000, 1.250000000000000000, 0.000000000000000000 ) ) ;
#249 = CIRCLE ( 'NONE', #53, 0.3124999999999997224 ) ;
#250 =( GEOMETRIC_REPRESENTATION_CONTEXT ( 3 ) GLOBAL_UNCERTAINTY_ASSIGNED_CONTEXT ( ( #291 ) ) GLOBAL_UNIT_ASSIGNED_CONTEXT ( ( #184, #166, #114 ) ) REPRESENTATION_CONTEXT ( 'NONE', 'WORKASPACE' ) );
#251 = DIRECTION ( 'NONE',  ( 0.000000000000000000, 0.000000000000000000, -1.000000000000000000 ) ) ;
#252 = ADVANCED_FACE ( 'NONE', ( #159 ), #309, .T. ) ;
#253 = UNCERTAINTY_MEASURE_WITH_UNIT (LENGTH_MEASURE( 1.000000000000000082E-05 ), #199, 'distance_accuracy_value', 'NONE');
#254 =( NAMED_UNIT ( * ) PLANE_ANGLE_UNIT ( ) SI_UNIT ( $, .RADIAN. ) );
#255 = AXIS2_PLACEMENT_3D ( 'NONE', #213, #268, #270 ) ;
#256 = CIRCLE ( 'NONE', #197, 0.3125000000000000000 ) ;
#257 = DIRECTION ( 'NONE',  ( -0.000000000000000000, -1.000000000000000000, -0.000000000000000000 ) ) ;
#258 = EDGE_CURVE ( 'NONE', #293, #163, #164, .T. ) ;
#259 = PRODUCT_DEFINITION_SHAPE ( 'NONE', 'NONE',  #116 ) ;
#260 = CARTESIAN_POINT ( 'NONE',  ( 3.827021247335478926E-17, 0.000000000000000000, 0.3125000000000000000 ) ) ;
#261 =( LENGTH_UNIT ( ) NAMED_UNIT ( * ) SI_UNIT ( $, .METRE. ) );
#262 = LENGTH_MEASURE_WITH_UNIT ( LENGTH_MEASURE( 0.02539999999999999897 ), #167 );
#263 = UNCERTAINTY_MEASURE_WITH_UNIT (LENGTH_MEASURE( 1.000000000000000082E-05 ), #233, 'distance_accuracy_value', 'NONE');
#264 = MECHANICAL_DESIGN_GEOMETRIC_PRESENTATION_REPRESENTATION (  '', ( #81 ), #250 ) ;
#265 = APPLICATION_CONTEXT ( 'automotive_design' ) ;
#266 = PLANE ( 'NONE',  #93 ) ;
#267 = ORIENTED_EDGE ( 'NONE', *, *, #295, .F. ) ;
#268 = DIRECTION ( 'NONE',  ( -0.000000000000000000, -1.000000000000000000, -0.000000000000000000 ) ) ;
#269 = FACE_OUTER_BOUND ( 'NONE', #160, .T. ) ;
#270 = DIRECTION ( 'NONE',  ( 0.000000000000000000, 0.000000000000000000, -1.000000000000000000 ) ) ;
#271 = SURFACE_STYLE_FILL_AREA ( #146 ) ;
#272 = DIMENSIONAL_EXPONENTS ( 1.000000000000000000, 0.000000000000000000, 0.000000000000000000, 0.000000000000000000, 0.000000000000000000, 0.000000000000000000, 0.000000000000000000 ) ;
#273 = DIRECTION ( 'NONE',  ( 1.360718665719282382E-16, 1.000000000000000000, -0.000000000000000000 ) ) ;
#274 = DIRECTION ( 'NONE',  ( 1.000000000000000000, 0.000000000000000000, 0.000000000000000000 ) ) ;
#275 = LINE ( 'NONE', #176, #2 ) ;
#276 = DIRECTION ( 'NONE',  ( 0.000000000000000000, -0.000000000000000000, 1.000000000000000000 ) ) ;
#277 = PRESENTATION_LAYER_ASSIGNMENT (  '', '', ( #139 ) ) ;
#278 = CARTESIAN_POINT ( 'NONE',  ( 0.3125000000000000000, 1.250000000000000000, 3.827021247335477694E-17 ) ) ;
#279 = PRODUCT_RELATED_PRODUCT_CATEGORY ( 'part', '', ( #158 ) ) ;
#280 = DIRECTION ( 'NONE',  ( 0.000000000000000000, 0.000000000000000000, -1.000000000000000000 ) ) ;
#281 = AXIS2_PLACEMENT_3D ( 'NONE', #157, #307, #96 ) ;
#282 = FILL_AREA_STYLE ('',( #227 ) ) ;
#283 = CARTESIAN_POINT ( 'NONE',  ( 0.000000000000000000, 0.000000000000000000, 0.000000000000000000 ) ) ;
#284 = LINE ( 'NONE', #156, #102 ) ;
#285 = ADVANCED_FACE ( 'NONE', ( #269 ), #51, .F. ) ;
#286 = MECHANICAL_DESIGN_GEOMETRIC_PRESENTATION_REPRESENTATION (  '', ( #105 ), #149 ) ;
#287 = CIRCLE ( 'NONE', #144, 0.3125000000000000000 ) ;
#288 = CARTESIAN_POINT ( 'NONE',  ( 3.061616997868384620E-16, 3.500000000000000000, 0.000000000000000000 ) ) ;
#289 = LENGTH_MEASURE_WITH_UNIT ( LENGTH_MEASURE( 0.02539999999999999897 ), #261 );
#290 = VERTEX_POINT ( 'NONE', #73 ) ;
#291 = UNCERTAINTY_MEASURE_WITH_UNIT (LENGTH_MEASURE( 1.000000000000000082E-05 ), #184, 'distance_accuracy_value', 'NONE');
#292 = COLOUR_RGB ( '',1.000000000000000000, 0.000000000000000000, 0.000000000000000000 ) ;
#293 = VERTEX_POINT ( 'NONE', #181 ) ;
#294 = DIRECTION ( 'NONE',  ( -0.000000000000000000, -1.000000000000000000, -0.000000000000000000 ) ) ;
#295 = EDGE_CURVE ( 'NONE', #145, #148, #275, .T. ) ;
#296 = DIRECTION ( 'NONE',  ( 0.000000000000000000, 0.000000000000000000, -1.000000000000000000 ) ) ;
#297 = PLANE ( 'NONE',  #24 ) ;
#298 = MECHANICAL_DESIGN_GEOMETRIC_PRESENTATION_REPRESENTATION (  '', ( #208 ), #63 ) ;
#299 = LENGTH_MEASURE_WITH_UNIT ( LENGTH_MEASURE( 0.02539999999999999897 ), #104 );
#300 = CYLINDRICAL_SURFACE ( 'NONE', #192, 0.3125000000000000000 ) ;
#301 =( GEOMETRIC_REPRESENTATION_CONTEXT ( 3 ) GLOBAL_UNCERTAINTY_ASSIGNED_CONTEXT ( ( #113 ) ) GLOBAL_UNIT_ASSIGNED_CONTEXT ( ( #97, #169, #7 ) ) REPRESENTATION_CONTEXT ( 'NONE', 'WORKASPACE' ) );
#302 = UNCERTAINTY_MEASURE_WITH_UNIT (LENGTH_MEASURE( 1.000000000000000082E-05 ), #128, 'distance_accuracy_value', 'NONE');
#303 = SURFACE_STYLE_USAGE ( .BOTH. , #200 ) ;
#304 = CIRCLE ( 'NONE', #281, 0.3125000000000000000 ) ;
#305 = UNCERTAINTY_MEASURE_WITH_UNIT (LENGTH_MEASURE( 1.000000000000000082E-05 ), #178, 'distance_accuracy_value', 'NONE');
#306 = DIRECTION ( 'NONE',  ( -0.000000000000000000, -1.000000000000000000, -0.000000000000000000 ) ) ;
#307 = DIRECTION ( 'NONE',  ( 1.360718665719282382E-16, 1.000000000000000000, -0.000000000000000000 ) ) ;
#308 = EDGE_CURVE ( 'NONE', #72, #290, #256, .T. ) ;
#309 = CYLINDRICAL_SURFACE ( 'NONE', #241, 0.3125000000000000000 ) ;
ENDSEC;
END-ISO-10303-21;
