ISO-10303-21;
HEADER;
FILE_DESCRIPTION (( 'STEP AP214' ),
    '1' );
FILE_NAME ('59640.STEP',
    '2023-07-24T15:18:23',
    ( '' ),
    ( '' ),
    'SwSTEP 2.0',
    'SolidWorks 2023',
    '' );
FILE_SCHEMA (( 'AUTOMOTIVE_DESIGN' ));
ENDSEC;

DATA;
#1 = PRESENTATION_LAYER_ASSIGNMENT (  '', '', ( #340 ) ) ;
#2 = AXIS2_PLACEMENT_3D ( 'NONE', #11, #304, #73 ) ;
#3 = DIRECTION ( 'NONE',  ( 0.000000000000000000, 0.000000000000000000, -1.000000000000000000 ) ) ;
#4 = DIRECTION ( 'NONE',  ( 0.000000000000000000, 0.000000000000000000, 1.000000000000000000 ) ) ;
#5 = ORIENTED_EDGE ( 'NONE', *, *, #34, .F. ) ;
#6 = PRESENTATION_STYLE_ASSIGNMENT (( #176 ) ) ;
#7 = ADVANCED_FACE ( 'NONE', ( #276 ), #77, .T. ) ;
#8 = MECHANICAL_DESIGN_GEOMETRIC_PRESENTATION_REPRESENTATION (  '', ( #340 ), #258 ) ;
#9 = CARTESIAN_POINT ( 'NONE',  ( 5.000000000000000000, 15.00000000000000000, 6.123233995736762338E-16 ) ) ;
#10 = AXIS2_PLACEMENT_3D ( 'NONE', #355, #363, #118 ) ;
#11 = CARTESIAN_POINT ( 'NONE',  ( 0.000000000000000000, 1.000000000000000000, 0.000000000000000000 ) ) ;
#12 = EDGE_LOOP ( 'NONE', ( #129, #150 ) ) ;
#13 = CARTESIAN_POINT ( 'NONE',  ( 0.000000000000000000, 15.00000000000000000, 0.000000000000000000 ) ) ;
#14 = SURFACE_SIDE_STYLE ('',( #157 ) ) ;
#15 = DIRECTION ( 'NONE',  ( 0.000000000000000000, 1.000000000000000000, 0.000000000000000000 ) ) ;
#16 = CIRCLE ( 'NONE', #272, 1.000000000000000000 ) ;
#17 = EDGE_LOOP ( 'NONE', ( #110, #263, #275, #212 ) ) ;
#18 = CIRCLE ( 'NONE', #260, 4.999999999999993783 ) ;
#19 = DIRECTION ( 'NONE',  ( -1.000000000000000000, 0.000000000000000000, 0.000000000000000000 ) ) ;
#20 = APPLICATION_CONTEXT ( 'automotive_design' ) ;
#21 = UNCERTAINTY_MEASURE_WITH_UNIT (LENGTH_MEASURE( 1.000000000000000082E-05 ), #298, 'distance_accuracy_value', 'NONE');
#22 =( NAMED_UNIT ( * ) PLANE_ANGLE_UNIT ( ) SI_UNIT ( $, .RADIAN. ) );
#23 = DIRECTION ( 'NONE',  ( -1.224646799147353454E-16, 0.000000000000000000, -1.000000000000000000 ) ) ;
#24 = UNCERTAINTY_MEASURE_WITH_UNIT (LENGTH_MEASURE( 1.000000000000000082E-05 ), #30, 'distance_accuracy_value', 'NONE');
#25 = DIRECTION ( 'NONE',  ( 0.000000000000000000, 0.000000000000000000, -1.000000000000000000 ) ) ;
#26 = AXIS2_PLACEMENT_3D ( 'NONE', #311, #61, #33 ) ;
#27 = LINE ( 'NONE', #190, #105 ) ;
#28 = SURFACE_STYLE_FILL_AREA ( #339 ) ;
#29 = EDGE_CURVE ( 'NONE', #114, #330, #125, .T. ) ;
#30 =( LENGTH_UNIT ( ) NAMED_UNIT ( * ) SI_UNIT ( .MILLI., .METRE. ) );
#31 =( NAMED_UNIT ( * ) SI_UNIT ( $, .STERADIAN. ) SOLID_ANGLE_UNIT ( ) );
#32 = AXIS2_PLACEMENT_3D ( 'NONE', #213, #168, #306 ) ;
#33 = DIRECTION ( 'NONE',  ( 1.000000000000000000, 0.000000000000000000, 0.000000000000000000 ) ) ;
#34 = EDGE_CURVE ( 'NONE', #76, #330, #216, .T. ) ;
#35 = DIRECTION ( 'NONE',  ( -0.000000000000000000, -1.000000000000000000, -0.000000000000000000 ) ) ;
#36 = FILL_AREA_STYLE ('',( #233 ) ) ;
#37 = SURFACE_STYLE_FILL_AREA ( #36 ) ;
#38 = CARTESIAN_POINT ( 'NONE',  ( 0.000000000000000000, 15.00000000000000000, 0.000000000000000000 ) ) ;
#39 = FACE_OUTER_BOUND ( 'NONE', #305, .T. ) ;
#40 = STYLED_ITEM ( 'NONE', ( #314 ), #70 ) ;
#41 = FACE_OUTER_BOUND ( 'NONE', #269, .T. ) ;
#42 = EDGE_CURVE ( 'NONE', #330, #76, #267, .T. ) ;
#43 = EDGE_LOOP ( 'NONE', ( #270, #49 ) ) ;
#44 = SURFACE_SIDE_STYLE ('',( #353 ) ) ;
#45 = DIRECTION ( 'NONE',  ( -9.135657442593541248E-17, 1.000000000000000000, -0.000000000000000000 ) ) ;
#46 = DIRECTION ( 'NONE',  ( 1.000000000000000000, 0.000000000000000000, -1.224646799147353207E-16 ) ) ;
#47 =( NAMED_UNIT ( * ) PLANE_ANGLE_UNIT ( ) SI_UNIT ( $, .RADIAN. ) );
#48 = AXIS2_PLACEMENT_3D ( 'NONE', #38, #35, #316 ) ;
#49 = ORIENTED_EDGE ( 'NONE', *, *, #67, .F. ) ;
#50 =( GEOMETRIC_REPRESENTATION_CONTEXT ( 3 ) GLOBAL_UNCERTAINTY_ASSIGNED_CONTEXT ( ( #264 ) ) GLOBAL_UNIT_ASSIGNED_CONTEXT ( ( #106, #319, #296 ) ) REPRESENTATION_CONTEXT ( 'NONE', 'WORKASPACE' ) );
#51 = PRODUCT_RELATED_PRODUCT_CATEGORY ( 'part', '', ( #151 ) ) ;
#52 = FILL_AREA_STYLE ('',( #349 ) ) ;
#53 = ORIENTED_EDGE ( 'NONE', *, *, #42, .T. ) ;
#54 = CARTESIAN_POINT ( 'NONE',  ( 6.123233995736766282E-16, 15.00000000000000000, 5.000000000000000000 ) ) ;
#55 = DIRECTION ( 'NONE',  ( -1.000000000000000000, 0.000000000000000000, 0.000000000000000000 ) ) ;
#56 = SURFACE_STYLE_USAGE ( .BOTH. , #92 ) ;
#57 = COLOUR_RGB ( '',1.000000000000000000, 0.000000000000000000, 0.000000000000000000 ) ;
#58 = CIRCLE ( 'NONE', #65, 5.000000000000000000 ) ;
#59 = DIRECTION ( 'NONE',  ( 1.000000000000000000, 9.135657442593541248E-17, 0.000000000000000000 ) ) ;
#60 = DIRECTION ( 'NONE',  ( -0.000000000000000000, -1.000000000000000000, -0.000000000000000000 ) ) ;
#61 = DIRECTION ( 'NONE',  ( 0.000000000000000000, 0.000000000000000000, 1.000000000000000000 ) ) ;
#62 = CARTESIAN_POINT ( 'NONE',  ( 5.000000000000000000, 63.00000000000000000, 6.123233995736762338E-16 ) ) ;
#63 = SURFACE_STYLE_USAGE ( .BOTH. , #308 ) ;
#64 = DIRECTION ( 'NONE',  ( -0.000000000000000000, -1.000000000000000000, -0.000000000000000000 ) ) ;
#65 = AXIS2_PLACEMENT_3D ( 'NONE', #247, #64, #119 ) ;
#66 = COLOUR_RGB ( '',0.7921568627450980005, 0.8196078431372548767, 0.9333333333333333481 ) ;
#67 = EDGE_CURVE ( 'NONE', #208, #75, #166, .T. ) ;
#68 =( NAMED_UNIT ( * ) SI_UNIT ( $, .STERADIAN. ) SOLID_ANGLE_UNIT ( ) );
#69 = PRESENTATION_STYLE_ASSIGNMENT (( #173 ) ) ;
#70 = ADVANCED_FACE ( 'NONE', ( #139 ), #256, .T. ) ;
#71 = AXIS2_PLACEMENT_3D ( 'NONE', #333, #368, #142 ) ;
#72 = DIRECTION ( 'NONE',  ( -0.000000000000000000, -1.000000000000000000, -0.000000000000000000 ) ) ;
#73 = DIRECTION ( 'NONE',  ( 0.000000000000000000, 0.000000000000000000, -1.000000000000000000 ) ) ;
#74 = MECHANICAL_DESIGN_GEOMETRIC_PRESENTATION_REPRESENTATION (  '', ( #295 ), #287 ) ;
#75 = VERTEX_POINT ( 'NONE', #243 ) ;
#76 = VERTEX_POINT ( 'NONE', #249 ) ;
#77 = CYLINDRICAL_SURFACE ( 'NONE', #322, 4.999999999999995559 ) ;
#78 = EDGE_CURVE ( 'NONE', #208, #112, #364, .T. ) ;
#79 = SURFACE_STYLE_USAGE ( .BOTH. , #44 ) ;
#80 = AXIS2_PLACEMENT_3D ( 'NONE', #133, #81, #19 ) ;
#81 = DIRECTION ( 'NONE',  ( -9.135657442593541248E-17, 1.000000000000000000, -0.000000000000000000 ) ) ;
#82 = PRESENTATION_LAYER_ASSIGNMENT (  '', '', ( #130 ) ) ;
#83 = DIRECTION ( 'NONE',  ( -9.135657442593541248E-17, 1.000000000000000000, -0.000000000000000000 ) ) ;
#84 = ORIENTED_EDGE ( 'NONE', *, *, #34, .T. ) ;
#85 =( NAMED_UNIT ( * ) PLANE_ANGLE_UNIT ( ) SI_UNIT ( $, .RADIAN. ) );
#86 = EDGE_CURVE ( 'NONE', #108, #112, #113, .T. ) ;
#87 = DIRECTION ( 'NONE',  ( -9.135657442593541248E-17, 1.000000000000000000, -0.000000000000000000 ) ) ;
#88 =( NAMED_UNIT ( * ) SI_UNIT ( $, .STERADIAN. ) SOLID_ANGLE_UNIT ( ) );
#89 = CIRCLE ( 'NONE', #48, 5.000000000000000000 ) ;
#90 =( GEOMETRIC_REPRESENTATION_CONTEXT ( 3 ) GLOBAL_UNCERTAINTY_ASSIGNED_CONTEXT ( ( #346 ) ) GLOBAL_UNIT_ASSIGNED_CONTEXT ( ( #97, #231, #149 ) ) REPRESENTATION_CONTEXT ( 'NONE', 'WORKASPACE' ) );
#91 = CARTESIAN_POINT ( 'NONE',  ( 5.510910596163088569E-16, 0.000000000000000000, 4.000000000000000000 ) ) ;
#92 = SURFACE_SIDE_STYLE ('',( #28 ) ) ;
#93 = CARTESIAN_POINT ( 'NONE',  ( 5.854691731421723944E-15, 15.00000000000000000, 0.000000000000000000 ) ) ;
#94 = CARTESIAN_POINT ( 'NONE',  ( 6.123233995736766282E-16, 1.000000000000000000, 5.000000000000000000 ) ) ;
#95 = COLOUR_RGB ( '',1.000000000000000000, 0.000000000000000000, 0.000000000000000000 ) ;
#96 = DIRECTION ( 'NONE',  ( -9.135657442593541248E-17, 1.000000000000000000, -0.000000000000000000 ) ) ;
#97 =( LENGTH_UNIT ( ) NAMED_UNIT ( * ) SI_UNIT ( .MILLI., .METRE. ) );
#98 = EDGE_CURVE ( 'NONE', #164, #266, #58, .T. ) ;
#99 = CYLINDRICAL_SURFACE ( 'NONE', #281, 5.000000000000000000 ) ;
#100 = AXIS2_PLACEMENT_3D ( 'NONE', #162, #46, #23 ) ;
#101 = PRESENTATION_LAYER_ASSIGNMENT (  '', '', ( #295 ) ) ;
#102 = MANIFOLD_SOLID_BREP ( 'Revolve - Tool Body (Straight Shanked)', #187 ) ;
#103 = ORIENTED_EDGE ( 'NONE', *, *, #29, .F. ) ;
#104 = VECTOR ( 'NONE', #222, 1000.000000000000000 ) ;
#105 = VECTOR ( 'NONE', #122, 1000.000000000000000 ) ;
#106 =( LENGTH_UNIT ( ) NAMED_UNIT ( * ) SI_UNIT ( .MILLI., .METRE. ) );
#107 = CIRCLE ( 'NONE', #10, 5.000000000000000000 ) ;
#108 = VERTEX_POINT ( 'NONE', #191 ) ;
#109 = EDGE_CURVE ( 'NONE', #266, #259, #197, .T. ) ;
#110 = ORIENTED_EDGE ( 'NONE', *, *, #369, .F. ) ;
#111 = SURFACE_STYLE_USAGE ( .BOTH. , #184 ) ;
#112 = VERTEX_POINT ( 'NONE', #62 ) ;
#113 = CIRCLE ( 'NONE', #71, 4.999999999999998224 ) ;
#114 = VERTEX_POINT ( 'NONE', #94 ) ;
#115 =( GEOMETRIC_REPRESENTATION_CONTEXT ( 3 ) GLOBAL_UNCERTAINTY_ASSIGNED_CONTEXT ( ( #21 ) ) GLOBAL_UNIT_ASSIGNED_CONTEXT ( ( #298, #22, #320 ) ) REPRESENTATION_CONTEXT ( 'NONE', 'WORKASPACE' ) );
#116 = PRODUCT_CONTEXT ( 'NONE', #20, 'mechanical' ) ;
#117 =( NAMED_UNIT ( * ) SI_UNIT ( $, .STERADIAN. ) SOLID_ANGLE_UNIT ( ) );
#118 = DIRECTION ( 'NONE',  ( 0.000000000000000000, 0.000000000000000000, -1.000000000000000000 ) ) ;
#119 = DIRECTION ( 'NONE',  ( 0.000000000000000000, 0.000000000000000000, -1.000000000000000000 ) ) ;
#120 = AXIS2_PLACEMENT_3D ( 'NONE', #286, #367, #143 ) ;
#121 = COLOUR_RGB ( '',1.000000000000000000, 0.000000000000000000, 0.000000000000000000 ) ;
#122 = DIRECTION ( 'NONE',  ( -0.000000000000000000, -1.000000000000000000, -0.000000000000000000 ) ) ;
#123 = ADVANCED_FACE ( 'NONE', ( #169 ), #220, .F. ) ;
#124 = CARTESIAN_POINT ( 'NONE',  ( 0.000000000000000000, 0.000000000000000000, -5.000000000000000000 ) ) ;
#125 = CIRCLE ( 'NONE', #100, 1.000000000000000000 ) ;
#126 = PLANE ( 'NONE',  #172 ) ;
#127 = ORIENTED_EDGE ( 'NONE', *, *, #136, .F. ) ;
#128 = PRODUCT_DEFINITION_SHAPE ( 'NONE', 'NONE',  #324 ) ;
#129 = ORIENTED_EDGE ( 'NONE', *, *, #174, .F. ) ;
#130 = STYLED_ITEM ( 'NONE', ( #211 ), #273 ) ;
#131 = CARTESIAN_POINT ( 'NONE',  ( 0.000000000000000000, 1.000000000000000000, 0.000000000000000000 ) ) ;
#132 = APPLICATION_CONTEXT ( 'automotive_design' ) ;
#133 = CARTESIAN_POINT ( 'NONE',  ( 5.854691731421723944E-15, 15.00000000000000000, 0.000000000000000000 ) ) ;
#134 = FILL_AREA_STYLE ('',( #274 ) ) ;
#135 = ORIENTED_EDGE ( 'NONE', *, *, #293, .T. ) ;
#136 = EDGE_CURVE ( 'NONE', #75, #108, #253, .T. ) ;
#137 = STYLED_ITEM ( 'NONE', ( #69 ), #204 ) ;
#138 = ORIENTED_EDGE ( 'NONE', *, *, #86, .F. ) ;
#139 = FACE_OUTER_BOUND ( 'NONE', #299, .T. ) ;
#140 = ORIENTED_EDGE ( 'NONE', *, *, #136, .T. ) ;
#141 =( LENGTH_UNIT ( ) NAMED_UNIT ( * ) SI_UNIT ( .MILLI., .METRE. ) );
#142 = DIRECTION ( 'NONE',  ( -1.000000000000000000, 0.000000000000000000, 0.000000000000000000 ) ) ;
#143 = DIRECTION ( 'NONE',  ( -1.000000000000000000, -9.135657442593541248E-17, 0.000000000000000000 ) ) ;
#144 = PRODUCT_DEFINITION_FORMATION_WITH_SPECIFIED_SOURCE ( 'ANY', '', #151, .NOT_KNOWN. ) ;
#145 = CARTESIAN_POINT ( 'NONE',  ( 0.000000000000000000, 1.000000000000000000, -4.000000000000000000 ) ) ;
#146 = SURFACE_SIDE_STYLE ('',( #200 ) ) ;
#147 = COLOUR_RGB ( '',1.000000000000000000, 0.000000000000000000, 0.000000000000000000 ) ;
#148 = SURFACE_SIDE_STYLE ('',( #37 ) ) ;
#149 =( NAMED_UNIT ( * ) SI_UNIT ( $, .STERADIAN. ) SOLID_ANGLE_UNIT ( ) );
#150 = ORIENTED_EDGE ( 'NONE', *, *, #98, .F. ) ;
#151 = PRODUCT ( '59640', '59640', '', ( #116 ) ) ;
#152 = ORIENTED_EDGE ( 'NONE', *, *, #78, .F. ) ;
#153 = COLOUR_RGB ( '',1.000000000000000000, 0.000000000000000000, 0.000000000000000000 ) ;
#154 =( GEOMETRIC_REPRESENTATION_CONTEXT ( 3 ) GLOBAL_UNCERTAINTY_ASSIGNED_CONTEXT ( ( #359 ) ) GLOBAL_UNIT_ASSIGNED_CONTEXT ( ( #277, #85, #117 ) ) REPRESENTATION_CONTEXT ( 'NONE', 'WORKASPACE' ) );
#155 = CARTESIAN_POINT ( 'NONE',  ( 0.000000000000000000, 0.000000000000000000, 0.000000000000000000 ) ) ;
#156 = DIRECTION ( 'NONE',  ( 0.000000000000000000, 0.000000000000000000, -1.000000000000000000 ) ) ;
#157 = SURFACE_STYLE_FILL_AREA ( #354 ) ;
#158 = EDGE_LOOP ( 'NONE', ( #152, #328, #140, #327 ) ) ;
#159 = AXIS2_PLACEMENT_3D ( 'NONE', #155, #321, #240 ) ;
#160 = STYLED_ITEM ( 'NONE', ( #177 ), #232 ) ;
#161 = CARTESIAN_POINT ( 'NONE',  ( 0.000000000000000000, 15.00000000000000000, -5.000000000000000000 ) ) ;
#162 = CARTESIAN_POINT ( 'NONE',  ( 4.898587196589412829E-16, 1.000000000000000000, 4.000000000000000000 ) ) ;
#163 = DIRECTION ( 'NONE',  ( 0.000000000000000000, -1.000000000000000000, -0.000000000000000000 ) ) ;
#164 = VERTEX_POINT ( 'NONE', #54 ) ;
#165 =( NAMED_UNIT ( * ) PLANE_ANGLE_UNIT ( ) SI_UNIT ( $, .RADIAN. ) );
#166 = CIRCLE ( 'NONE', #80, 4.999999999999993783 ) ;
#167 = CIRCLE ( 'NONE', #2, 5.000000000000000000 ) ;
#168 = DIRECTION ( 'NONE',  ( -0.000000000000000000, -1.000000000000000000, -0.000000000000000000 ) ) ;
#169 = FACE_OUTER_BOUND ( 'NONE', #43, .T. ) ;
#170 = UNCERTAINTY_MEASURE_WITH_UNIT (LENGTH_MEASURE( 1.000000000000000082E-05 ), #370, 'distance_accuracy_value', 'NONE');
#171 = AXIS2_PLACEMENT_3D ( 'NONE', #283, #60, #25 ) ;
#172 = AXIS2_PLACEMENT_3D ( 'NONE', #13, #15, #326 ) ;
#173 = SURFACE_STYLE_USAGE ( .BOTH. , #148 ) ;
#174 = EDGE_CURVE ( 'NONE', #266, #164, #89, .T. ) ;
#175 = SURFACE_STYLE_USAGE ( .BOTH. , #342 ) ;
#176 = SURFACE_STYLE_USAGE ( .BOTH. , #146 ) ;
#177 = PRESENTATION_STYLE_ASSIGNMENT (( #175 ) ) ;
#178 = EDGE_CURVE ( 'NONE', #112, #108, #334, .T. ) ;
#179 = FACE_OUTER_BOUND ( 'NONE', #12, .T. ) ;
#180 = FACE_OUTER_BOUND ( 'NONE', #17, .T. ) ;
#181 = ORIENTED_EDGE ( 'NONE', *, *, #178, .T. ) ;
#182 = EDGE_CURVE ( 'NONE', #259, #76, #16, .T. ) ;
#183 = CARTESIAN_POINT ( 'NONE',  ( 0.000000000000000000, 0.000000000000000000, 0.000000000000000000 ) ) ;
#184 = SURFACE_SIDE_STYLE ('',( #241 ) ) ;
#185 = ORIENTED_EDGE ( 'NONE', *, *, #254, .T. ) ;
#186 = ORIENTED_EDGE ( 'NONE', *, *, #369, .T. ) ;
#187 = CLOSED_SHELL ( 'NONE', ( #7, #123, #358, #337 ) ) ;
#188 =( LENGTH_UNIT ( ) NAMED_UNIT ( * ) SI_UNIT ( .MILLI., .METRE. ) );
#189 = EDGE_LOOP ( 'NONE', ( #206, #181 ) ) ;
#190 = CARTESIAN_POINT ( 'NONE',  ( 6.123233995736766282E-16, 0.000000000000000000, 5.000000000000000000 ) ) ;
#191 = CARTESIAN_POINT ( 'NONE',  ( -4.999999999999996447, 63.00000000000000000, 0.000000000000000000 ) ) ;
#192 = PRESENTATION_STYLE_ASSIGNMENT (( #63 ) ) ;
#193 = CARTESIAN_POINT ( 'NONE',  ( 4.999999999999997335, 63.00000000000000000, 6.123233995736761352E-16 ) ) ;
#194 = DIRECTION ( 'NONE',  ( -1.000000000000000000, 0.000000000000000000, 0.000000000000000000 ) ) ;
#195 =( GEOMETRIC_REPRESENTATION_CONTEXT ( 3 ) GLOBAL_UNCERTAINTY_ASSIGNED_CONTEXT ( ( #24 ) ) GLOBAL_UNIT_ASSIGNED_CONTEXT ( ( #30, #165, #288 ) ) REPRESENTATION_CONTEXT ( 'NONE', 'WORKASPACE' ) );
#196 = MECHANICAL_DESIGN_GEOMETRIC_PRESENTATION_REPRESENTATION (  '', ( #130 ), #115 ) ;
#197 = LINE ( 'NONE', #124, #246 ) ;
#198 =( NAMED_UNIT ( * ) PLANE_ANGLE_UNIT ( ) SI_UNIT ( $, .RADIAN. ) );
#199 = ADVANCED_FACE ( 'NONE', ( #343 ), #234, .T. ) ;
#200 = SURFACE_STYLE_FILL_AREA ( #265 ) ;
#201 = COLOUR_RGB ( '',1.000000000000000000, 0.000000000000000000, 0.000000000000000000 ) ;
#202 =( NAMED_UNIT ( * ) PLANE_ANGLE_UNIT ( ) SI_UNIT ( $, .RADIAN. ) );
#203 = CARTESIAN_POINT ( 'NONE',  ( 0.000000000000000000, 0.000000000000000000, 0.000000000000000000 ) ) ;
#204 = ADVANCED_FACE ( 'NONE', ( #39 ), #99, .T. ) ;
#205 = MECHANICAL_DESIGN_GEOMETRIC_PRESENTATION_REPRESENTATION (  '', ( #160 ), #50 ) ;
#206 = ORIENTED_EDGE ( 'NONE', *, *, #86, .T. ) ;
#207 = CARTESIAN_POINT ( 'NONE',  ( 0.000000000000000000, 0.000000000000000000, 0.000000000000000000 ) ) ;
#208 = VERTEX_POINT ( 'NONE', #9 ) ;
#209 = VECTOR ( 'NONE', #87, 1000.000000000000000 ) ;
#210 =( GEOMETRIC_REPRESENTATION_CONTEXT ( 3 ) GLOBAL_UNCERTAINTY_ASSIGNED_CONTEXT ( ( #170 ) ) GLOBAL_UNIT_ASSIGNED_CONTEXT ( ( #370, #202, #68 ) ) REPRESENTATION_CONTEXT ( 'NONE', 'WORKASPACE' ) );
#211 = PRESENTATION_STYLE_ASSIGNMENT (( #111 ) ) ;
#212 = ORIENTED_EDGE ( 'NONE', *, *, #254, .F. ) ;
#213 = CARTESIAN_POINT ( 'NONE',  ( 0.000000000000000000, 0.000000000000000000, 0.000000000000000000 ) ) ;
#214 = ORIENTED_EDGE ( 'NONE', *, *, #42, .F. ) ;
#215 = ORIENTED_EDGE ( 'NONE', *, *, #29, .T. ) ;
#216 = CIRCLE ( 'NONE', #224, 4.000000000000000000 ) ;
#217 = AXIS2_PLACEMENT_3D ( 'NONE', #250, #221, #59 ) ;
#218 = DIRECTION ( 'NONE',  ( 0.000000000000000000, 0.000000000000000000, -1.000000000000000000 ) ) ;
#219 = UNCERTAINTY_MEASURE_WITH_UNIT (LENGTH_MEASURE( 1.000000000000000082E-05 ), #141, 'distance_accuracy_value', 'NONE');
#220 = PLANE ( 'NONE',  #120 ) ;
#221 = DIRECTION ( 'NONE',  ( 9.135657442593541248E-17, -1.000000000000000000, 0.000000000000000000 ) ) ;
#222 = DIRECTION ( 'NONE',  ( -9.135657442593541248E-17, 1.000000000000000000, -0.000000000000000000 ) ) ;
#223 = FILL_AREA_STYLE_COLOUR ( '', #66 ) ;
#224 = AXIS2_PLACEMENT_3D ( 'NONE', #183, #245, #218 ) ;
#225 = FILL_AREA_STYLE_COLOUR ( '', #365 ) ;
#226 = FACE_OUTER_BOUND ( 'NONE', #189, .T. ) ;
#227 = SURFACE_STYLE_FILL_AREA ( #255 ) ;
#228 = CLOSED_SHELL ( 'NONE', ( #204, #199, #242, #70, #273, #232 ) ) ;
#229 = AXIS2_PLACEMENT_3D ( 'NONE', #131, #261, #3 ) ;
#230 = DIRECTION ( 'NONE',  ( -1.000000000000000000, 0.000000000000000000, 0.000000000000000000 ) ) ;
#231 =( NAMED_UNIT ( * ) PLANE_ANGLE_UNIT ( ) SI_UNIT ( $, .RADIAN. ) );
#232 = ADVANCED_FACE ( 'NONE', ( #179 ), #126, .T. ) ;
#233 = FILL_AREA_STYLE_COLOUR ( '', #201 ) ;
#234 = TOROIDAL_SURFACE ( 'NONE', #229, 4.000000000000000000, 1.000000000000000000 ) ;
#235 = CYLINDRICAL_SURFACE ( 'NONE', #32, 5.000000000000000000 ) ;
#236 = ORIENTED_EDGE ( 'NONE', *, *, #300, .F. ) ;
#237 = CARTESIAN_POINT ( 'NONE',  ( 0.000000000000000000, 1.000000000000000000, -5.000000000000000000 ) ) ;
#238 = EDGE_LOOP ( 'NONE', ( #348, #215, #5, #350 ) ) ;
#239 = PLANE ( 'NONE',  #323 ) ;
#240 = DIRECTION ( 'NONE',  ( 0.000000000000000000, 0.000000000000000000, -1.000000000000000000 ) ) ;
#241 = SURFACE_STYLE_FILL_AREA ( #52 ) ;
#242 = ADVANCED_FACE ( 'NONE', ( #41 ), #239, .T. ) ;
#243 = CARTESIAN_POINT ( 'NONE',  ( -4.999999999999987566, 15.00000000000000000, 0.000000000000000000 ) ) ;
#244 = FILL_AREA_STYLE ('',( #223 ) ) ;
#245 = DIRECTION ( 'NONE',  ( -0.000000000000000000, -1.000000000000000000, -0.000000000000000000 ) ) ;
#246 = VECTOR ( 'NONE', #312, 1000.000000000000000 ) ;
#247 = CARTESIAN_POINT ( 'NONE',  ( 0.000000000000000000, 15.00000000000000000, 0.000000000000000000 ) ) ;
#248 = APPLICATION_PROTOCOL_DEFINITION ( 'draft international standard', 'automotive_design', 1998, #132 ) ;
#249 = CARTESIAN_POINT ( 'NONE',  ( 0.000000000000000000, 0.000000000000000000, -4.000000000000000000 ) ) ;
#250 = CARTESIAN_POINT ( 'NONE',  ( 5.000000000000000000, 63.00000000000000000, 0.000000000000000000 ) ) ;
#251 = STYLED_ITEM ( 'NONE', ( #6 ), #199 ) ;
#252 = MECHANICAL_DESIGN_GEOMETRIC_PRESENTATION_REPRESENTATION (  '', ( #137 ), #90 ) ;
#253 = LINE ( 'NONE', #307, #209 ) ;
#254 = EDGE_CURVE ( 'NONE', #114, #259, #167, .T. ) ;
#255 = FILL_AREA_STYLE ('',( #318 ) ) ;
#256 = TOROIDAL_SURFACE ( 'NONE', #171, 4.000000000000000000, 1.000000000000000000 ) ;
#257 = DIRECTION ( 'NONE',  ( 0.000000000000000000, 0.000000000000000000, -1.000000000000000000 ) ) ;
#258 =( GEOMETRIC_REPRESENTATION_CONTEXT ( 3 ) GLOBAL_UNCERTAINTY_ASSIGNED_CONTEXT ( ( #309 ) ) GLOBAL_UNIT_ASSIGNED_CONTEXT ( ( #362, #361, #88 ) ) REPRESENTATION_CONTEXT ( 'NONE', 'WORKASPACE' ) );
#259 = VERTEX_POINT ( 'NONE', #237 ) ;
#260 = AXIS2_PLACEMENT_3D ( 'NONE', #93, #313, #194 ) ;
#261 = DIRECTION ( 'NONE',  ( -0.000000000000000000, -1.000000000000000000, -0.000000000000000000 ) ) ;
#262 = EDGE_LOOP ( 'NONE', ( #135, #325, #138, #127 ) ) ;
#263 = ORIENTED_EDGE ( 'NONE', *, *, #98, .T. ) ;
#264 = UNCERTAINTY_MEASURE_WITH_UNIT (LENGTH_MEASURE( 1.000000000000000082E-05 ), #106, 'distance_accuracy_value', 'NONE');
#265 = FILL_AREA_STYLE ('',( #291 ) ) ;
#266 = VERTEX_POINT ( 'NONE', #161 ) ;
#267 = CIRCLE ( 'NONE', #159, 4.000000000000000000 ) ;
#268 = PRESENTATION_LAYER_ASSIGNMENT (  '', '', ( #335 ) ) ;
#269 = EDGE_LOOP ( 'NONE', ( #84, #53 ) ) ;
#270 = ORIENTED_EDGE ( 'NONE', *, *, #293, .F. ) ;
#271 = CARTESIAN_POINT ( 'NONE',  ( 1.469576158976823750E-15, 63.00000000000000000, 0.000000000000000000 ) ) ;
#272 = AXIS2_PLACEMENT_3D ( 'NONE', #145, #230, #4 ) ;
#273 = ADVANCED_FACE ( 'NONE', ( #180 ), #235, .T. ) ;
#274 = FILL_AREA_STYLE_COLOUR ( '', #121 ) ;
#275 = ORIENTED_EDGE ( 'NONE', *, *, #109, .T. ) ;
#276 = FACE_OUTER_BOUND ( 'NONE', #262, .T. ) ;
#277 =( LENGTH_UNIT ( ) NAMED_UNIT ( * ) SI_UNIT ( .MILLI., .METRE. ) );
#278 = SURFACE_STYLE_USAGE ( .BOTH. , #14 ) ;
#279 = PRESENTATION_LAYER_ASSIGNMENT (  '', '', ( #40 ) ) ;
#280 = ADVANCED_BREP_SHAPE_REPRESENTATION ( '59640', ( #344, #102, #26 ), #345 ) ;
#281 = AXIS2_PLACEMENT_3D ( 'NONE', #203, #72, #257 ) ;
#282 = CYLINDRICAL_SURFACE ( 'NONE', #341, 4.999999999999995559 ) ;
#283 = CARTESIAN_POINT ( 'NONE',  ( 0.000000000000000000, 1.000000000000000000, 0.000000000000000000 ) ) ;
#284 = PRODUCT_DEFINITION_CONTEXT ( 'detailed design', #132, 'design' ) ;
#285 = CARTESIAN_POINT ( 'NONE',  ( 1.469576158976823750E-15, 63.00000000000000000, 0.000000000000000000 ) ) ;
#286 = CARTESIAN_POINT ( 'NONE',  ( 5.854691731421723944E-15, 15.00000000000000000, 0.000000000000000000 ) ) ;
#287 =( GEOMETRIC_REPRESENTATION_CONTEXT ( 3 ) GLOBAL_UNCERTAINTY_ASSIGNED_CONTEXT ( ( #303 ) ) GLOBAL_UNIT_ASSIGNED_CONTEXT ( ( #188, #47, #347 ) ) REPRESENTATION_CONTEXT ( 'NONE', 'WORKASPACE' ) );
#288 =( NAMED_UNIT ( * ) SI_UNIT ( $, .STERADIAN. ) SOLID_ANGLE_UNIT ( ) );
#289 = DIRECTION ( 'NONE',  ( -1.000000000000000000, 0.000000000000000000, 0.000000000000000000 ) ) ;
#290 = MECHANICAL_DESIGN_GEOMETRIC_PRESENTATION_REPRESENTATION (  '', ( #40 ), #195 ) ;
#291 = FILL_AREA_STYLE_COLOUR ( '', #153 ) ;
#292 = ORIENTED_EDGE ( 'NONE', *, *, #182, .T. ) ;
#293 = EDGE_CURVE ( 'NONE', #75, #208, #18, .T. ) ;
#294 = DIRECTION ( 'NONE',  ( -1.000000000000000000, 0.000000000000000000, 0.000000000000000000 ) ) ;
#295 = STYLED_ITEM ( 'NONE', ( #301 ), #242 ) ;
#296 =( NAMED_UNIT ( * ) SI_UNIT ( $, .STERADIAN. ) SOLID_ANGLE_UNIT ( ) );
#297 = FILL_AREA_STYLE_COLOUR ( '', #57 ) ;
#298 =( LENGTH_UNIT ( ) NAMED_UNIT ( * ) SI_UNIT ( .MILLI., .METRE. ) );
#299 = EDGE_LOOP ( 'NONE', ( #103, #185, #292, #214 ) ) ;
#300 = EDGE_CURVE ( 'NONE', #259, #114, #107, .T. ) ;
#301 = PRESENTATION_STYLE_ASSIGNMENT (( #79 ) ) ;
#302 = MECHANICAL_DESIGN_GEOMETRIC_PRESENTATION_REPRESENTATION (  '', ( #251 ), #210 ) ;
#303 = UNCERTAINTY_MEASURE_WITH_UNIT (LENGTH_MEASURE( 1.000000000000000082E-05 ), #188, 'distance_accuracy_value', 'NONE');
#304 = DIRECTION ( 'NONE',  ( -0.000000000000000000, -1.000000000000000000, -0.000000000000000000 ) ) ;
#305 = EDGE_LOOP ( 'NONE', ( #352, #186, #236, #356 ) ) ;
#306 = DIRECTION ( 'NONE',  ( 0.000000000000000000, 0.000000000000000000, -1.000000000000000000 ) ) ;
#307 = CARTESIAN_POINT ( 'NONE',  ( -4.999999999999993783, 63.00000000000000000, 0.000000000000000000 ) ) ;
#308 = SURFACE_SIDE_STYLE ('',( #336 ) ) ;
#309 = UNCERTAINTY_MEASURE_WITH_UNIT (LENGTH_MEASURE( 1.000000000000000082E-05 ), #362, 'distance_accuracy_value', 'NONE');
#310 = MECHANICAL_DESIGN_GEOMETRIC_PRESENTATION_REPRESENTATION (  '', ( #335 ), #154 ) ;
#311 = CARTESIAN_POINT ( 'NONE',  ( 0.000000000000000000, 0.000000000000000000, 0.000000000000000000 ) ) ;
#312 = DIRECTION ( 'NONE',  ( -0.000000000000000000, -1.000000000000000000, -0.000000000000000000 ) ) ;
#313 = DIRECTION ( 'NONE',  ( -9.135657442593541248E-17, 1.000000000000000000, -0.000000000000000000 ) ) ;
#314 = PRESENTATION_STYLE_ASSIGNMENT (( #278 ) ) ;
#315 = AXIS2_PLACEMENT_3D ( 'NONE', #317, #96, #289 ) ;
#316 = DIRECTION ( 'NONE',  ( 0.000000000000000000, 0.000000000000000000, -1.000000000000000000 ) ) ;
#317 = CARTESIAN_POINT ( 'NONE',  ( 1.469576158976823750E-15, 63.00000000000000000, 0.000000000000000000 ) ) ;
#318 = FILL_AREA_STYLE_COLOUR ( '', #147 ) ;
#319 =( NAMED_UNIT ( * ) PLANE_ANGLE_UNIT ( ) SI_UNIT ( $, .RADIAN. ) );
#320 =( NAMED_UNIT ( * ) SI_UNIT ( $, .STERADIAN. ) SOLID_ANGLE_UNIT ( ) );
#321 = DIRECTION ( 'NONE',  ( -0.000000000000000000, -1.000000000000000000, -0.000000000000000000 ) ) ;
#322 = AXIS2_PLACEMENT_3D ( 'NONE', #271, #45, #294 ) ;
#323 = AXIS2_PLACEMENT_3D ( 'NONE', #207, #163, #156 ) ;
#324 = PRODUCT_DEFINITION ( 'UNKNOWN', '', #144, #284 ) ;
#325 = ORIENTED_EDGE ( 'NONE', *, *, #78, .T. ) ;
#326 = DIRECTION ( 'NONE',  ( 0.000000000000000000, -0.000000000000000000, 1.000000000000000000 ) ) ;
#327 = ORIENTED_EDGE ( 'NONE', *, *, #178, .F. ) ;
#328 = ORIENTED_EDGE ( 'NONE', *, *, #67, .T. ) ;
#329 = FACE_OUTER_BOUND ( 'NONE', #158, .T. ) ;
#330 = VERTEX_POINT ( 'NONE', #91 ) ;
#331 = SHAPE_DEFINITION_REPRESENTATION ( #128, #280 ) ;
#332 = PRESENTATION_STYLE_ASSIGNMENT (( #56 ) ) ;
#333 = CARTESIAN_POINT ( 'NONE',  ( 1.469576158976823750E-15, 63.00000000000000000, 0.000000000000000000 ) ) ;
#334 = CIRCLE ( 'NONE', #315, 4.999999999999998224 ) ;
#335 = STYLED_ITEM ( 'NONE', ( #192 ), #344 ) ;
#336 = SURFACE_STYLE_FILL_AREA ( #244 ) ;
#337 = ADVANCED_FACE ( 'NONE', ( #226 ), #338, .F. ) ;
#338 = PLANE ( 'NONE',  #217 ) ;
#339 = FILL_AREA_STYLE ('',( #225 ) ) ;
#340 = STYLED_ITEM ( 'NONE', ( #332 ), #102 ) ;
#341 = AXIS2_PLACEMENT_3D ( 'NONE', #285, #83, #55 ) ;
#342 = SURFACE_SIDE_STYLE ('',( #227 ) ) ;
#343 = FACE_OUTER_BOUND ( 'NONE', #238, .T. ) ;
#344 = MANIFOLD_SOLID_BREP ( 'Revolve - Cutting Edge', #228 ) ;
#345 =( GEOMETRIC_REPRESENTATION_CONTEXT ( 3 ) GLOBAL_UNCERTAINTY_ASSIGNED_CONTEXT ( ( #219 ) ) GLOBAL_UNIT_ASSIGNED_CONTEXT ( ( #141, #198, #31 ) ) REPRESENTATION_CONTEXT ( 'NONE', 'WORKASPACE' ) );
#346 = UNCERTAINTY_MEASURE_WITH_UNIT (LENGTH_MEASURE( 1.000000000000000082E-05 ), #97, 'distance_accuracy_value', 'NONE');
#347 =( NAMED_UNIT ( * ) SI_UNIT ( $, .STERADIAN. ) SOLID_ANGLE_UNIT ( ) );
#348 = ORIENTED_EDGE ( 'NONE', *, *, #300, .T. ) ;
#349 = FILL_AREA_STYLE_COLOUR ( '', #95 ) ;
#350 = ORIENTED_EDGE ( 'NONE', *, *, #182, .F. ) ;
#351 = PRESENTATION_LAYER_ASSIGNMENT (  '', '', ( #137 ) ) ;
#352 = ORIENTED_EDGE ( 'NONE', *, *, #174, .T. ) ;
#353 = SURFACE_STYLE_FILL_AREA ( #134 ) ;
#354 = FILL_AREA_STYLE ('',( #297 ) ) ;
#355 = CARTESIAN_POINT ( 'NONE',  ( 0.000000000000000000, 1.000000000000000000, 0.000000000000000000 ) ) ;
#356 = ORIENTED_EDGE ( 'NONE', *, *, #109, .F. ) ;
#357 = PRESENTATION_LAYER_ASSIGNMENT (  '', '', ( #251 ) ) ;
#358 = ADVANCED_FACE ( 'NONE', ( #329 ), #282, .T. ) ;
#359 = UNCERTAINTY_MEASURE_WITH_UNIT (LENGTH_MEASURE( 1.000000000000000082E-05 ), #277, 'distance_accuracy_value', 'NONE');
#360 = APPLICATION_PROTOCOL_DEFINITION ( 'draft international standard', 'automotive_design', 1998, #20 ) ;
#361 =( NAMED_UNIT ( * ) PLANE_ANGLE_UNIT ( ) SI_UNIT ( $, .RADIAN. ) );
#362 =( LENGTH_UNIT ( ) NAMED_UNIT ( * ) SI_UNIT ( .MILLI., .METRE. ) );
#363 = DIRECTION ( 'NONE',  ( -0.000000000000000000, -1.000000000000000000, -0.000000000000000000 ) ) ;
#364 = LINE ( 'NONE', #193, #104 ) ;
#365 = COLOUR_RGB ( '',0.7921568627450980005, 0.8196078431372548767, 0.9333333333333333481 ) ;
#366 = PRESENTATION_LAYER_ASSIGNMENT (  '', '', ( #160 ) ) ;
#367 = DIRECTION ( 'NONE',  ( -9.135657442593541248E-17, 1.000000000000000000, 0.000000000000000000 ) ) ;
#368 = DIRECTION ( 'NONE',  ( -9.135657442593541248E-17, 1.000000000000000000, -0.000000000000000000 ) ) ;
#369 = EDGE_CURVE ( 'NONE', #164, #114, #27, .T. ) ;
#370 =( LENGTH_UNIT ( ) NAMED_UNIT ( * ) SI_UNIT ( .MILLI., .METRE. ) );
ENDSEC;
END-ISO-10303-21;
