ISO-10303-21;
HEADER;
FILE_DESCRIPTION (( 'STEP AP214' ),
    '1' );
FILE_NAME ('59635.STEP',
    '2023-07-24T15:51:09',
    ( '' ),
    ( '' ),
    'SwSTEP 2.0',
    'SolidWorks 2023',
    '' );
FILE_SCHEMA (( 'AUTOMOTIVE_DESIGN' ));
ENDSEC;

DATA;
#1 = CARTESIAN_POINT ( 'NONE',  ( 0.000000000000000000, 0.000000000000000000, -4.000000000000000000 ) ) ;
#2 =( LENGTH_UNIT ( ) NAMED_UNIT ( * ) SI_UNIT ( .MILLI., .METRE. ) );
#3 = CARTESIAN_POINT ( 'NONE',  ( 0.000000000000000000, 11.99999999999999645, 0.000000000000000000 ) ) ;
#4 = AXIS2_PLACEMENT_3D ( 'NONE', #246, #136, #200 ) ;
#5 = DIRECTION ( 'NONE',  ( -0.000000000000000000, -1.000000000000000000, -0.000000000000000000 ) ) ;
#6 = COLOUR_RGB ( '',1.000000000000000000, 0.000000000000000000, 0.000000000000000000 ) ;
#7 = CARTESIAN_POINT ( 'NONE',  ( 1.469576158976823750E-15, 63.00000000000000000, 0.000000000000000000 ) ) ;
#8 =( NAMED_UNIT ( * ) SI_UNIT ( $, .STERADIAN. ) SOLID_ANGLE_UNIT ( ) );
#9 = CLOSED_SHELL ( 'NONE', ( #96, #155, #268, #201 ) ) ;
#10 = DIRECTION ( 'NONE',  ( 2.881521880346712812E-17, 1.000000000000000000, -0.000000000000000000 ) ) ;
#11 = SURFACE_STYLE_FILL_AREA ( #129 ) ;
#12 = APPLICATION_CONTEXT ( 'automotive_design' ) ;
#13 = EDGE_CURVE ( 'NONE', #279, #82, #283, .T. ) ;
#14 = EDGE_LOOP ( 'NONE', ( #34, #86 ) ) ;
#15 = AXIS2_PLACEMENT_3D ( 'NONE', #217, #220, #70 ) ;
#16 = EDGE_LOOP ( 'NONE', ( #66, #100, #80, #59 ) ) ;
#17 = APPLICATION_PROTOCOL_DEFINITION ( 'draft international standard', 'automotive_design', 1998, #208 ) ;
#18 = EDGE_CURVE ( 'NONE', #63, #165, #143, .T. ) ;
#19 = FILL_AREA_STYLE_COLOUR ( '', #218 ) ;
#20 = UNCERTAINTY_MEASURE_WITH_UNIT (LENGTH_MEASURE( 1.000000000000000082E-05 ), #255, 'distance_accuracy_value', 'NONE');
#21 = CYLINDRICAL_SURFACE ( 'NONE', #251, 3.999999999999999112 ) ;
#22 = ORIENTED_EDGE ( 'NONE', *, *, #229, .T. ) ;
#23 = CARTESIAN_POINT ( 'NONE',  ( 4.898587196589412829E-16, 12.00000000000000000, 4.000000000000000000 ) ) ;
#24 = CARTESIAN_POINT ( 'NONE',  ( 0.000000000000000000, 0.000000000000000000, -4.000000000000000000 ) ) ;
#25 = PRESENTATION_LAYER_ASSIGNMENT (  '', '', ( #275 ) ) ;
#26 = FILL_AREA_STYLE ('',( #265 ) ) ;
#27 =( GEOMETRIC_REPRESENTATION_CONTEXT ( 3 ) GLOBAL_UNCERTAINTY_ASSIGNED_CONTEXT ( ( #51 ) ) GLOBAL_UNIT_ASSIGNED_CONTEXT ( ( #274, #230, #156 ) ) REPRESENTATION_CONTEXT ( 'NONE', 'WORKASPACE' ) );
#28 = DIRECTION ( 'NONE',  ( 2.881521880346712812E-17, 1.000000000000000000, -0.000000000000000000 ) ) ;
#29 = MECHANICAL_DESIGN_GEOMETRIC_PRESENTATION_REPRESENTATION (  '', ( #232 ), #257 ) ;
#30 = CARTESIAN_POINT ( 'NONE',  ( 4.000000000000000000, 63.00000000000000000, 0.000000000000000000 ) ) ;
#31 = FACE_OUTER_BOUND ( 'NONE', #39, .T. ) ;
#32 = FILL_AREA_STYLE_COLOUR ( '', #118 ) ;
#33 =( GEOMETRIC_REPRESENTATION_CONTEXT ( 3 ) GLOBAL_UNCERTAINTY_ASSIGNED_CONTEXT ( ( #133 ) ) GLOBAL_UNIT_ASSIGNED_CONTEXT ( ( #249, #203, #8 ) ) REPRESENTATION_CONTEXT ( 'NONE', 'WORKASPACE' ) );
#34 = ORIENTED_EDGE ( 'NONE', *, *, #105, .T. ) ;
#35 = FACE_OUTER_BOUND ( 'NONE', #16, .T. ) ;
#36 = PLANE ( 'NONE',  #85 ) ;
#37 = ORIENTED_EDGE ( 'NONE', *, *, #138, .F. ) ;
#38 = ORIENTED_EDGE ( 'NONE', *, *, #48, .T. ) ;
#39 = EDGE_LOOP ( 'NONE', ( #172, #130, #215, #123 ) ) ;
#40 = FILL_AREA_STYLE_COLOUR ( '', #6 ) ;
#41 = COLOUR_RGB ( '',0.7921568627450980005, 0.8196078431372548767, 0.9333333333333333481 ) ;
#42 = FACE_OUTER_BOUND ( 'NONE', #164, .T. ) ;
#43 = PRODUCT_RELATED_PRODUCT_CATEGORY ( 'part', '', ( #239 ) ) ;
#44 = DIRECTION ( 'NONE',  ( 0.000000000000000000, -0.000000000000000000, 1.000000000000000000 ) ) ;
#45 = SURFACE_SIDE_STYLE ('',( #245 ) ) ;
#46 =( GEOMETRIC_REPRESENTATION_CONTEXT ( 3 ) GLOBAL_UNCERTAINTY_ASSIGNED_CONTEXT ( ( #157 ) ) GLOBAL_UNIT_ASSIGNED_CONTEXT ( ( #92, #267, #67 ) ) REPRESENTATION_CONTEXT ( 'NONE', 'WORKASPACE' ) );
#47 = PRESENTATION_STYLE_ASSIGNMENT (( #149 ) ) ;
#48 = EDGE_CURVE ( 'NONE', #63, #242, #141, .T. ) ;
#49 = DIRECTION ( 'NONE',  ( -0.000000000000000000, -1.000000000000000000, -0.000000000000000000 ) ) ;
#50 = STYLED_ITEM ( 'NONE', ( #125 ), #54 ) ;
#51 = UNCERTAINTY_MEASURE_WITH_UNIT (LENGTH_MEASURE( 1.000000000000000082E-05 ), #274, 'distance_accuracy_value', 'NONE');
#52 = DIRECTION ( 'NONE',  ( -2.881521880346712812E-17, -1.000000000000000000, 0.000000000000000000 ) ) ;
#53 = CIRCLE ( 'NONE', #154, 4.000000000000000000 ) ;
#54 = ADVANCED_FACE ( 'NONE', ( #79 ), #36, .T. ) ;
#55 = FACE_OUTER_BOUND ( 'NONE', #61, .T. ) ;
#56 = EDGE_CURVE ( 'NONE', #104, #191, #62, .T. ) ;
#57 = VECTOR ( 'NONE', #10, 1000.000000000000000 ) ;
#58 = PRODUCT_CONTEXT ( 'NONE', #208, 'mechanical' ) ;
#59 = ORIENTED_EDGE ( 'NONE', *, *, #72, .F. ) ;
#60 = ADVANCED_FACE ( 'NONE', ( #146 ), #241, .T. ) ;
#61 = EDGE_LOOP ( 'NONE', ( #276, #263 ) ) ;
#62 = LINE ( 'NONE', #262, #189 ) ;
#63 = VERTEX_POINT ( 'NONE', #23 ) ;
#64 = FILL_AREA_STYLE_COLOUR ( '', #194 ) ;
#65 = SURFACE_STYLE_USAGE ( .BOTH. , #168 ) ;
#66 = ORIENTED_EDGE ( 'NONE', *, *, #138, .T. ) ;
#67 =( NAMED_UNIT ( * ) SI_UNIT ( $, .STERADIAN. ) SOLID_ANGLE_UNIT ( ) );
#68 = CARTESIAN_POINT ( 'NONE',  ( 0.000000000000000000, 12.00000000000000000, 0.000000000000000000 ) ) ;
#69 = STYLED_ITEM ( 'NONE', ( #47 ), #60 ) ;
#70 = DIRECTION ( 'NONE',  ( -1.000000000000000000, 0.000000000000000000, 0.000000000000000000 ) ) ;
#71 = SURFACE_STYLE_FILL_AREA ( #196 ) ;
#72 = EDGE_CURVE ( 'NONE', #242, #126, #173, .T. ) ;
#73 = CARTESIAN_POINT ( 'NONE',  ( 4.000000000000000000, 11.99999999999999645, 4.898587196589411843E-16 ) ) ;
#74 =( NAMED_UNIT ( * ) SI_UNIT ( $, .STERADIAN. ) SOLID_ANGLE_UNIT ( ) );
#75 = CARTESIAN_POINT ( 'NONE',  ( 4.898587196589412829E-16, 0.000000000000000000, 4.000000000000000000 ) ) ;
#76 = CARTESIAN_POINT ( 'NONE',  ( 0.000000000000000000, 0.000000000000000000, 0.000000000000000000 ) ) ;
#77 = PRESENTATION_LAYER_ASSIGNMENT (  '', '', ( #232 ) ) ;
#78 = AXIS2_PLACEMENT_3D ( 'NONE', #134, #287, #44 ) ;
#79 = FACE_OUTER_BOUND ( 'NONE', #14, .T. ) ;
#80 = ORIENTED_EDGE ( 'NONE', *, *, #105, .F. ) ;
#81 = PRESENTATION_LAYER_ASSIGNMENT (  '', '', ( #50 ) ) ;
#82 = VERTEX_POINT ( 'NONE', #111 ) ;
#83 = SURFACE_STYLE_FILL_AREA ( #101 ) ;
#84 = ORIENTED_EDGE ( 'NONE', *, *, #56, .T. ) ;
#85 = AXIS2_PLACEMENT_3D ( 'NONE', #214, #122, #213 ) ;
#86 = ORIENTED_EDGE ( 'NONE', *, *, #280, .T. ) ;
#87 = DIRECTION ( 'NONE',  ( 0.000000000000000000, 0.000000000000000000, -1.000000000000000000 ) ) ;
#88 = DIRECTION ( 'NONE',  ( 2.881521880346712812E-17, 1.000000000000000000, -0.000000000000000000 ) ) ;
#89 = PRESENTATION_LAYER_ASSIGNMENT (  '', '', ( #204 ) ) ;
#90 = SURFACE_SIDE_STYLE ('',( #11 ) ) ;
#91 = EDGE_CURVE ( 'NONE', #82, #191, #94, .T. ) ;
#92 =( LENGTH_UNIT ( ) NAMED_UNIT ( * ) SI_UNIT ( .MILLI., .METRE. ) );
#93 = CARTESIAN_POINT ( 'NONE',  ( 1.469576158976823750E-15, 63.00000000000000000, 0.000000000000000000 ) ) ;
#94 = CIRCLE ( 'NONE', #15, 3.999999999999998224 ) ;
#95 = SURFACE_SIDE_STYLE ('',( #137 ) ) ;
#96 = ADVANCED_FACE ( 'NONE', ( #224 ), #21, .T. ) ;
#97 = CARTESIAN_POINT ( 'NONE',  ( -4.000000000000000000, 11.99999999999999645, 0.000000000000000000 ) ) ;
#98 = AXIS2_PLACEMENT_3D ( 'NONE', #7, #119, #226 ) ;
#99 = CARTESIAN_POINT ( 'NONE',  ( 4.898587196589412829E-16, 0.000000000000000000, 4.000000000000000000 ) ) ;
#100 = ORIENTED_EDGE ( 'NONE', *, *, #18, .T. ) ;
#101 = FILL_AREA_STYLE ('',( #19 ) ) ;
#102 = ORIENTED_EDGE ( 'NONE', *, *, #13, .F. ) ;
#103 = DIRECTION ( 'NONE',  ( 2.881521880346712812E-17, 1.000000000000000000, -0.000000000000000000 ) ) ;
#104 = VERTEX_POINT ( 'NONE', #73 ) ;
#105 = EDGE_CURVE ( 'NONE', #126, #165, #207, .T. ) ;
#106 =( LENGTH_UNIT ( ) NAMED_UNIT ( * ) SI_UNIT ( .MILLI., .METRE. ) );
#107 = DIRECTION ( 'NONE',  ( 2.881521880346712812E-17, 1.000000000000000000, -0.000000000000000000 ) ) ;
#108 = ORIENTED_EDGE ( 'NONE', *, *, #48, .F. ) ;
#109 =( NAMED_UNIT ( * ) PLANE_ANGLE_UNIT ( ) SI_UNIT ( $, .RADIAN. ) );
#110 = AXIS2_PLACEMENT_3D ( 'NONE', #183, #28, #158 ) ;
#111 = CARTESIAN_POINT ( 'NONE',  ( -3.999999999999996447, 63.00000000000000000, 0.000000000000000000 ) ) ;
#112 = SURFACE_STYLE_USAGE ( .BOTH. , #45 ) ;
#113 = DIRECTION ( 'NONE',  ( -1.000000000000000000, 2.881521880346712812E-17, 0.000000000000000000 ) ) ;
#114 = DIRECTION ( 'NONE',  ( 0.000000000000000000, 0.000000000000000000, -1.000000000000000000 ) ) ;
#115 = PRODUCT_DEFINITION_CONTEXT ( 'detailed design', #12, 'design' ) ;
#116 = CYLINDRICAL_SURFACE ( 'NONE', #98, 3.999999999999999112 ) ;
#117 = PRESENTATION_LAYER_ASSIGNMENT (  '', '', ( #69 ) ) ;
#118 = COLOUR_RGB ( '',0.7921568627450980005, 0.8196078431372548767, 0.9333333333333333481 ) ;
#119 = DIRECTION ( 'NONE',  ( 2.881521880346712812E-17, 1.000000000000000000, -0.000000000000000000 ) ) ;
#120 = EDGE_LOOP ( 'NONE', ( #281, #144 ) ) ;
#121 = EDGE_LOOP ( 'NONE', ( #22, #84, #145, #102 ) ) ;
#122 = DIRECTION ( 'NONE',  ( 0.000000000000000000, -1.000000000000000000, -0.000000000000000000 ) ) ;
#123 = ORIENTED_EDGE ( 'NONE', *, *, #167, .F. ) ;
#124 = PRODUCT_DEFINITION_FORMATION_WITH_SPECIFIED_SOURCE ( 'ANY', '', #239, .NOT_KNOWN. ) ;
#125 = PRESENTATION_STYLE_ASSIGNMENT (( #65 ) ) ;
#126 = VERTEX_POINT ( 'NONE', #1 ) ;
#127 = SURFACE_SIDE_STYLE ('',( #71 ) ) ;
#128 = CIRCLE ( 'NONE', #4, 4.000000000000000000 ) ;
#129 = FILL_AREA_STYLE ('',( #40 ) ) ;
#130 = ORIENTED_EDGE ( 'NONE', *, *, #162, .T. ) ;
#131 = DIRECTION ( 'NONE',  ( 0.000000000000000000, 0.000000000000000000, -1.000000000000000000 ) ) ;
#132 =( GEOMETRIC_REPRESENTATION_CONTEXT ( 3 ) GLOBAL_UNCERTAINTY_ASSIGNED_CONTEXT ( ( #20 ) ) GLOBAL_UNIT_ASSIGNED_CONTEXT ( ( #255, #235, #188 ) ) REPRESENTATION_CONTEXT ( 'NONE', 'WORKASPACE' ) );
#133 = UNCERTAINTY_MEASURE_WITH_UNIT (LENGTH_MEASURE( 1.000000000000000082E-05 ), #249, 'distance_accuracy_value', 'NONE');
#134 = CARTESIAN_POINT ( 'NONE',  ( 0.000000000000000000, 12.00000000000000000, 0.000000000000000000 ) ) ;
#135 = CYLINDRICAL_SURFACE ( 'NONE', #198, 4.000000000000000000 ) ;
#136 = DIRECTION ( 'NONE',  ( -0.000000000000000000, -1.000000000000000000, -0.000000000000000000 ) ) ;
#137 = SURFACE_STYLE_FILL_AREA ( #142 ) ;
#138 = EDGE_CURVE ( 'NONE', #242, #63, #128, .T. ) ;
#139 = AXIS2_PLACEMENT_3D ( 'NONE', #286, #88, #113 ) ;
#140 = PLANE ( 'NONE',  #285 ) ;
#141 = CIRCLE ( 'NONE', #171, 4.000000000000000000 ) ;
#142 = FILL_AREA_STYLE ('',( #32 ) ) ;
#143 = LINE ( 'NONE', #99, #254 ) ;
#144 = ORIENTED_EDGE ( 'NONE', *, *, #162, .F. ) ;
#145 = ORIENTED_EDGE ( 'NONE', *, *, #91, .F. ) ;
#146 = FACE_OUTER_BOUND ( 'NONE', #266, .T. ) ;
#147 = FILL_AREA_STYLE ('',( #64 ) ) ;
#148 = PLANE ( 'NONE',  #139 ) ;
#149 = SURFACE_STYLE_USAGE ( .BOTH. , #90 ) ;
#150 = DIRECTION ( 'NONE',  ( -0.000000000000000000, -1.000000000000000000, -0.000000000000000000 ) ) ;
#151 = MANIFOLD_SOLID_BREP ( 'Revolve - Cutting Edge', #163 ) ;
#152 = CARTESIAN_POINT ( 'NONE',  ( 0.000000000000000000, 0.000000000000000000, 0.000000000000000000 ) ) ;
#153 = PRESENTATION_STYLE_ASSIGNMENT (( #219 ) ) ;
#154 = AXIS2_PLACEMENT_3D ( 'NONE', #3, #180, #227 ) ;
#155 = ADVANCED_FACE ( 'NONE', ( #248 ), #148, .F. ) ;
#156 =( NAMED_UNIT ( * ) SI_UNIT ( $, .STERADIAN. ) SOLID_ANGLE_UNIT ( ) );
#157 = UNCERTAINTY_MEASURE_WITH_UNIT (LENGTH_MEASURE( 1.000000000000000082E-05 ), #92, 'distance_accuracy_value', 'NONE');
#158 = DIRECTION ( 'NONE',  ( -1.000000000000000000, 0.000000000000000000, 0.000000000000000000 ) ) ;
#159 = MECHANICAL_DESIGN_GEOMETRIC_PRESENTATION_REPRESENTATION (  '', ( #204 ), #244 ) ;
#160 = DIRECTION ( 'NONE',  ( 0.000000000000000000, 0.000000000000000000, -1.000000000000000000 ) ) ;
#161 = AXIS2_PLACEMENT_3D ( 'NONE', #212, #234, #210 ) ;
#162 = EDGE_CURVE ( 'NONE', #104, #279, #53, .T. ) ;
#163 = CLOSED_SHELL ( 'NONE', ( #174, #60, #179, #54 ) ) ;
#164 = EDGE_LOOP ( 'NONE', ( #237, #38, #256, #193 ) ) ;
#165 = VERTEX_POINT ( 'NONE', #75 ) ;
#166 = APPLICATION_PROTOCOL_DEFINITION ( 'draft international standard', 'automotive_design', 1998, #12 ) ;
#167 = EDGE_CURVE ( 'NONE', #191, #82, #169, .T. ) ;
#168 = SURFACE_SIDE_STYLE ('',( #83 ) ) ;
#169 = CIRCLE ( 'NONE', #161, 3.999999999999998224 ) ;
#170 = UNCERTAINTY_MEASURE_WITH_UNIT (LENGTH_MEASURE( 1.000000000000000082E-05 ), #195, 'distance_accuracy_value', 'NONE');
#171 = AXIS2_PLACEMENT_3D ( 'NONE', #68, #192, #186 ) ;
#172 = ORIENTED_EDGE ( 'NONE', *, *, #56, .F. ) ;
#173 = LINE ( 'NONE', #24, #216 ) ;
#174 = ADVANCED_FACE ( 'NONE', ( #35 ), #190, .T. ) ;
#175 =( NAMED_UNIT ( * ) SI_UNIT ( $, .STERADIAN. ) SOLID_ANGLE_UNIT ( ) );
#176 = SURFACE_SIDE_STYLE ('',( #271 ) ) ;
#177 = DIRECTION ( 'NONE',  ( -1.000000000000000000, 0.000000000000000000, 0.000000000000000000 ) ) ;
#178 = CARTESIAN_POINT ( 'NONE',  ( 0.000000000000000000, 12.00000000000000000, -4.000000000000000000 ) ) ;
#179 = ADVANCED_FACE ( 'NONE', ( #42 ), #135, .T. ) ;
#180 = DIRECTION ( 'NONE',  ( 2.881521880346712812E-17, 1.000000000000000000, -0.000000000000000000 ) ) ;
#181 = SURFACE_STYLE_USAGE ( .BOTH. , #95 ) ;
#182 = DIRECTION ( 'NONE',  ( -0.000000000000000000, -1.000000000000000000, -0.000000000000000000 ) ) ;
#183 = CARTESIAN_POINT ( 'NONE',  ( 0.000000000000000000, 11.99999999999999645, 0.000000000000000000 ) ) ;
#184 = MECHANICAL_DESIGN_GEOMETRIC_PRESENTATION_REPRESENTATION (  '', ( #275 ), #250 ) ;
#185 = AXIS2_PLACEMENT_3D ( 'NONE', #211, #259, #277 ) ;
#186 = DIRECTION ( 'NONE',  ( 0.000000000000000000, 0.000000000000000000, -1.000000000000000000 ) ) ;
#187 = CARTESIAN_POINT ( 'NONE',  ( -3.999999999999997335, 63.00000000000000000, 0.000000000000000000 ) ) ;
#188 =( NAMED_UNIT ( * ) SI_UNIT ( $, .STERADIAN. ) SOLID_ANGLE_UNIT ( ) );
#189 = VECTOR ( 'NONE', #103, 1000.000000000000000 ) ;
#190 = CYLINDRICAL_SURFACE ( 'NONE', #231, 4.000000000000000000 ) ;
#191 = VERTEX_POINT ( 'NONE', #273 ) ;
#192 = DIRECTION ( 'NONE',  ( -0.000000000000000000, -1.000000000000000000, -0.000000000000000000 ) ) ;
#193 = ORIENTED_EDGE ( 'NONE', *, *, #280, .F. ) ;
#194 = COLOUR_RGB ( '',1.000000000000000000, 0.000000000000000000, 0.000000000000000000 ) ;
#195 =( LENGTH_UNIT ( ) NAMED_UNIT ( * ) SI_UNIT ( .MILLI., .METRE. ) );
#196 = FILL_AREA_STYLE ('',( #278 ) ) ;
#197 = DIRECTION ( 'NONE',  ( -0.000000000000000000, -1.000000000000000000, -0.000000000000000000 ) ) ;
#198 = AXIS2_PLACEMENT_3D ( 'NONE', #252, #205, #114 ) ;
#199 = PRESENTATION_STYLE_ASSIGNMENT (( #202 ) ) ;
#200 = DIRECTION ( 'NONE',  ( 0.000000000000000000, 0.000000000000000000, -1.000000000000000000 ) ) ;
#201 = ADVANCED_FACE ( 'NONE', ( #55 ), #140, .F. ) ;
#202 = SURFACE_STYLE_USAGE ( .BOTH. , #176 ) ;
#203 =( NAMED_UNIT ( * ) PLANE_ANGLE_UNIT ( ) SI_UNIT ( $, .RADIAN. ) );
#204 = STYLED_ITEM ( 'NONE', ( #199 ), #151 ) ;
#205 = DIRECTION ( 'NONE',  ( -0.000000000000000000, -1.000000000000000000, -0.000000000000000000 ) ) ;
#206 =( NAMED_UNIT ( * ) PLANE_ANGLE_UNIT ( ) SI_UNIT ( $, .RADIAN. ) );
#207 = CIRCLE ( 'NONE', #253, 4.000000000000000000 ) ;
#208 = APPLICATION_CONTEXT ( 'automotive_design' ) ;
#209 = MECHANICAL_DESIGN_GEOMETRIC_PRESENTATION_REPRESENTATION (  '', ( #50 ), #132 ) ;
#210 = DIRECTION ( 'NONE',  ( -1.000000000000000000, 0.000000000000000000, 0.000000000000000000 ) ) ;
#211 = CARTESIAN_POINT ( 'NONE',  ( 0.000000000000000000, 0.000000000000000000, 0.000000000000000000 ) ) ;
#212 = CARTESIAN_POINT ( 'NONE',  ( 1.469576158976823750E-15, 63.00000000000000000, 0.000000000000000000 ) ) ;
#213 = DIRECTION ( 'NONE',  ( 0.000000000000000000, 0.000000000000000000, -1.000000000000000000 ) ) ;
#214 = CARTESIAN_POINT ( 'NONE',  ( 0.000000000000000000, 0.000000000000000000, 0.000000000000000000 ) ) ;
#215 = ORIENTED_EDGE ( 'NONE', *, *, #13, .T. ) ;
#216 = VECTOR ( 'NONE', #49, 1000.000000000000000 ) ;
#217 = CARTESIAN_POINT ( 'NONE',  ( 1.469576158976823750E-15, 63.00000000000000000, 0.000000000000000000 ) ) ;
#218 = COLOUR_RGB ( '',1.000000000000000000, 0.000000000000000000, 0.000000000000000000 ) ;
#219 = SURFACE_STYLE_USAGE ( .BOTH. , #127 ) ;
#220 = DIRECTION ( 'NONE',  ( 2.881521880346712812E-17, 1.000000000000000000, -0.000000000000000000 ) ) ;
#221 =( NAMED_UNIT ( * ) PLANE_ANGLE_UNIT ( ) SI_UNIT ( $, .RADIAN. ) );
#222 = PRESENTATION_STYLE_ASSIGNMENT (( #112 ) ) ;
#223 = ADVANCED_BREP_SHAPE_REPRESENTATION ( '59635', ( #151, #258, #185 ), #33 ) ;
#224 = FACE_OUTER_BOUND ( 'NONE', #121, .T. ) ;
#225 = CIRCLE ( 'NONE', #264, 4.000000000000000000 ) ;
#226 = DIRECTION ( 'NONE',  ( -1.000000000000000000, 0.000000000000000000, 0.000000000000000000 ) ) ;
#227 = DIRECTION ( 'NONE',  ( -1.000000000000000000, 0.000000000000000000, 0.000000000000000000 ) ) ;
#228 = DIRECTION ( 'NONE',  ( 1.000000000000000000, -2.881521880346712812E-17, 0.000000000000000000 ) ) ;
#229 = EDGE_CURVE ( 'NONE', #279, #104, #233, .T. ) ;
#230 =( NAMED_UNIT ( * ) PLANE_ANGLE_UNIT ( ) SI_UNIT ( $, .RADIAN. ) );
#231 = AXIS2_PLACEMENT_3D ( 'NONE', #269, #150, #87 ) ;
#232 = STYLED_ITEM ( 'NONE', ( #222 ), #179 ) ;
#233 = CIRCLE ( 'NONE', #110, 4.000000000000000000 ) ;
#234 = DIRECTION ( 'NONE',  ( 2.881521880346712812E-17, 1.000000000000000000, -0.000000000000000000 ) ) ;
#235 =( NAMED_UNIT ( * ) PLANE_ANGLE_UNIT ( ) SI_UNIT ( $, .RADIAN. ) );
#236 = PRODUCT_DEFINITION_SHAPE ( 'NONE', 'NONE',  #243 ) ;
#237 = ORIENTED_EDGE ( 'NONE', *, *, #18, .F. ) ;
#238 = COLOUR_RGB ( '',1.000000000000000000, 0.000000000000000000, 0.000000000000000000 ) ;
#239 = PRODUCT ( '59635', '59635', '', ( #58 ) ) ;
#240 = MECHANICAL_DESIGN_GEOMETRIC_PRESENTATION_REPRESENTATION (  '', ( #284 ), #27 ) ;
#241 = PLANE ( 'NONE',  #78 ) ;
#242 = VERTEX_POINT ( 'NONE', #178 ) ;
#243 = PRODUCT_DEFINITION ( 'UNKNOWN', '', #124, #115 ) ;
#244 =( GEOMETRIC_REPRESENTATION_CONTEXT ( 3 ) GLOBAL_UNCERTAINTY_ASSIGNED_CONTEXT ( ( #170 ) ) GLOBAL_UNIT_ASSIGNED_CONTEXT ( ( #195, #221, #282 ) ) REPRESENTATION_CONTEXT ( 'NONE', 'WORKASPACE' ) );
#245 = SURFACE_STYLE_FILL_AREA ( #147 ) ;
#246 = CARTESIAN_POINT ( 'NONE',  ( 0.000000000000000000, 12.00000000000000000, 0.000000000000000000 ) ) ;
#247 = UNCERTAINTY_MEASURE_WITH_UNIT (LENGTH_MEASURE( 1.000000000000000082E-05 ), #2, 'distance_accuracy_value', 'NONE');
#248 = FACE_OUTER_BOUND ( 'NONE', #120, .T. ) ;
#249 =( LENGTH_UNIT ( ) NAMED_UNIT ( * ) SI_UNIT ( .MILLI., .METRE. ) );
#250 =( GEOMETRIC_REPRESENTATION_CONTEXT ( 3 ) GLOBAL_UNCERTAINTY_ASSIGNED_CONTEXT ( ( #288 ) ) GLOBAL_UNIT_ASSIGNED_CONTEXT ( ( #106, #109, #175 ) ) REPRESENTATION_CONTEXT ( 'NONE', 'WORKASPACE' ) );
#251 = AXIS2_PLACEMENT_3D ( 'NONE', #93, #107, #177 ) ;
#252 = CARTESIAN_POINT ( 'NONE',  ( 0.000000000000000000, 0.000000000000000000, 0.000000000000000000 ) ) ;
#253 = AXIS2_PLACEMENT_3D ( 'NONE', #152, #197, #131 ) ;
#254 = VECTOR ( 'NONE', #5, 1000.000000000000000 ) ;
#255 =( LENGTH_UNIT ( ) NAMED_UNIT ( * ) SI_UNIT ( .MILLI., .METRE. ) );
#256 = ORIENTED_EDGE ( 'NONE', *, *, #72, .T. ) ;
#257 =( GEOMETRIC_REPRESENTATION_CONTEXT ( 3 ) GLOBAL_UNCERTAINTY_ASSIGNED_CONTEXT ( ( #247 ) ) GLOBAL_UNIT_ASSIGNED_CONTEXT ( ( #2, #206, #74 ) ) REPRESENTATION_CONTEXT ( 'NONE', 'WORKASPACE' ) );
#258 = MANIFOLD_SOLID_BREP ( 'Revolve - Tool Body (Straight Shanked)', #9 ) ;
#259 = DIRECTION ( 'NONE',  ( 0.000000000000000000, 0.000000000000000000, 1.000000000000000000 ) ) ;
#260 = MECHANICAL_DESIGN_GEOMETRIC_PRESENTATION_REPRESENTATION (  '', ( #69 ), #46 ) ;
#261 = SHAPE_DEFINITION_REPRESENTATION ( #236, #223 ) ;
#262 = CARTESIAN_POINT ( 'NONE',  ( 4.000000000000000888, 63.00000000000000000, 4.898587196589411843E-16 ) ) ;
#263 = ORIENTED_EDGE ( 'NONE', *, *, #167, .T. ) ;
#264 = AXIS2_PLACEMENT_3D ( 'NONE', #76, #182, #160 ) ;
#265 = FILL_AREA_STYLE_COLOUR ( '', #41 ) ;
#266 = EDGE_LOOP ( 'NONE', ( #37, #108 ) ) ;
#267 =( NAMED_UNIT ( * ) PLANE_ANGLE_UNIT ( ) SI_UNIT ( $, .RADIAN. ) );
#268 = ADVANCED_FACE ( 'NONE', ( #31 ), #116, .T. ) ;
#269 = CARTESIAN_POINT ( 'NONE',  ( 0.000000000000000000, 0.000000000000000000, 0.000000000000000000 ) ) ;
#270 = PRESENTATION_LAYER_ASSIGNMENT (  '', '', ( #284 ) ) ;
#271 = SURFACE_STYLE_FILL_AREA ( #26 ) ;
#272 = PRESENTATION_STYLE_ASSIGNMENT (( #181 ) ) ;
#273 = CARTESIAN_POINT ( 'NONE',  ( 4.000000000000000000, 63.00000000000000000, 4.898587196589411843E-16 ) ) ;
#274 =( LENGTH_UNIT ( ) NAMED_UNIT ( * ) SI_UNIT ( .MILLI., .METRE. ) );
#275 = STYLED_ITEM ( 'NONE', ( #153 ), #174 ) ;
#276 = ORIENTED_EDGE ( 'NONE', *, *, #91, .T. ) ;
#277 = DIRECTION ( 'NONE',  ( 1.000000000000000000, 0.000000000000000000, 0.000000000000000000 ) ) ;
#278 = FILL_AREA_STYLE_COLOUR ( '', #238 ) ;
#279 = VERTEX_POINT ( 'NONE', #97 ) ;
#280 = EDGE_CURVE ( 'NONE', #165, #126, #225, .T. ) ;
#281 = ORIENTED_EDGE ( 'NONE', *, *, #229, .F. ) ;
#282 =( NAMED_UNIT ( * ) SI_UNIT ( $, .STERADIAN. ) SOLID_ANGLE_UNIT ( ) );
#283 = LINE ( 'NONE', #187, #57 ) ;
#284 = STYLED_ITEM ( 'NONE', ( #272 ), #258 ) ;
#285 = AXIS2_PLACEMENT_3D ( 'NONE', #30, #52, #228 ) ;
#286 = CARTESIAN_POINT ( 'NONE',  ( 1.660633669383370983E-33, 12.00000000000000000, 0.000000000000000000 ) ) ;
#287 = DIRECTION ( 'NONE',  ( 0.000000000000000000, 1.000000000000000000, 0.000000000000000000 ) ) ;
#288 = UNCERTAINTY_MEASURE_WITH_UNIT (LENGTH_MEASURE( 1.000000000000000082E-05 ), #106, 'distance_accuracy_value', 'NONE');
ENDSEC;
END-ISO-10303-21;
