ISO-10303-21;
HEADER;
FILE_DESCRIPTION (( 'STEP AP214' ),
    '1' );
FILE_NAME ('05877.STEP',
    '2023-06-22T16:24:29',
    ( '' ),
    ( '' ),
    'SwSTEP 2.0',
    'SolidWorks 2023',
    '' );
FILE_SCHEMA (( 'AUTOMOTIVE_DESIGN' ));
ENDSEC;

DATA;
#1 = COLOUR_RGB ( '',1.000000000000000000, 0.000000000000000000, 0.000000000000000000 ) ;
#2 = ADVANCED_FACE ( 'NONE', ( #309 ), #203, .T. ) ;
#3 = DIRECTION ( 'NONE',  ( -1.000000000000000000, 0.000000000000000000, 0.000000000000000000 ) ) ;
#4 = SURFACE_STYLE_USAGE ( .BOTH. , #9 ) ;
#5 = CARTESIAN_POINT ( 'NONE',  ( 6.123233995736766036E-17, 0.000000000000000000, 0.5000000000000000000 ) ) ;
#6 = DIRECTION ( 'NONE',  ( 1.000000000000000000, 2.449293598294709003E-17, 0.000000000000000000 ) ) ;
#7 = AXIS2_PLACEMENT_3D ( 'NONE', #47, #172, #273 ) ;
#8 = AXIS2_PLACEMENT_3D ( 'NONE', #234, #233, #14 ) ;
#9 = SURFACE_SIDE_STYLE ('',( #141 ) ) ;
#10 = FILL_AREA_STYLE_COLOUR ( '', #239 ) ;
#11 =( NAMED_UNIT ( * ) PLANE_ANGLE_UNIT ( ) SI_UNIT ( $, .RADIAN. ) );
#12 = FILL_AREA_STYLE_COLOUR ( '', #39 ) ;
#13 = EDGE_LOOP ( 'NONE', ( #229, #30, #145, #175 ) ) ;
#14 = DIRECTION ( 'NONE',  ( 0.000000000000000000, 0.000000000000000000, -1.000000000000000000 ) ) ;
#15 = SURFACE_STYLE_USAGE ( .BOTH. , #209 ) ;
#16 = CYLINDRICAL_SURFACE ( 'NONE', #140, 0.5000000000000000000 ) ;
#17 = AXIS2_PLACEMENT_3D ( 'NONE', #174, #85, #210 ) ;
#18 = EDGE_LOOP ( 'NONE', ( #34, #284, #263, #123 ) ) ;
#19 = SURFACE_STYLE_USAGE ( .BOTH. , #271 ) ;
#20 =( GEOMETRIC_REPRESENTATION_CONTEXT ( 3 ) GLOBAL_UNCERTAINTY_ASSIGNED_CONTEXT ( ( #183 ) ) GLOBAL_UNIT_ASSIGNED_CONTEXT ( ( #250, #105, #150 ) ) REPRESENTATION_CONTEXT ( 'NONE', 'WORKASPACE' ) );
#21 = PRESENTATION_LAYER_ASSIGNMENT (  '', '', ( #195 ) ) ;
#22 = DIRECTION ( 'NONE',  ( -1.000000000000000000, 0.000000000000000000, 0.000000000000000000 ) ) ;
#23 = DIMENSIONAL_EXPONENTS ( 1.000000000000000000, 0.000000000000000000, 0.000000000000000000, 0.000000000000000000, 0.000000000000000000, 0.000000000000000000, 0.000000000000000000 ) ;
#24 = ORIENTED_EDGE ( 'NONE', *, *, #188, .T. ) ;
#25 = PRESENTATION_STYLE_ASSIGNMENT (( #4 ) ) ;
#26 = PRESENTATION_LAYER_ASSIGNMENT (  '', '', ( #154 ) ) ;
#27 = VERTEX_POINT ( 'NONE', #139 ) ;
#28 = DIMENSIONAL_EXPONENTS ( 1.000000000000000000, 0.000000000000000000, 0.000000000000000000, 0.000000000000000000, 0.000000000000000000, 0.000000000000000000, 0.000000000000000000 ) ;
#29 = PLANE ( 'NONE',  #71 ) ;
#30 = ORIENTED_EDGE ( 'NONE', *, *, #260, .T. ) ;
#31 = FILL_AREA_STYLE ('',( #104 ) ) ;
#32 = SURFACE_STYLE_FILL_AREA ( #57 ) ;
#33 = CIRCLE ( 'NONE', #238, 0.5000000000000001110 ) ;
#34 = ORIENTED_EDGE ( 'NONE', *, *, #90, .T. ) ;
#35 = VECTOR ( 'NONE', #127, 39.37007874015748143 ) ;
#36 = FACE_OUTER_BOUND ( 'NONE', #63, .T. ) ;
#37 = CARTESIAN_POINT ( 'NONE',  ( 0.000000000000000000, 2.000000000000000000, 0.000000000000000000 ) ) ;
#38 = PRESENTATION_LAYER_ASSIGNMENT (  '', '', ( #286 ) ) ;
#39 = COLOUR_RGB ( '',1.000000000000000000, 0.000000000000000000, 0.000000000000000000 ) ;
#40 = SURFACE_STYLE_FILL_AREA ( #163 ) ;
#41 = DIRECTION ( 'NONE',  ( -1.000000000000000000, 0.000000000000000000, 0.000000000000000000 ) ) ;
#42 =( LENGTH_UNIT ( ) NAMED_UNIT ( * ) SI_UNIT ( $, .METRE. ) );
#43 = PRESENTATION_LAYER_ASSIGNMENT (  '', '', ( #190 ) ) ;
#44 = SURFACE_STYLE_FILL_AREA ( #64 ) ;
#45 = STYLED_ITEM ( 'NONE', ( #83 ), #116 ) ;
#46 = DIMENSIONAL_EXPONENTS ( 1.000000000000000000, 0.000000000000000000, 0.000000000000000000, 0.000000000000000000, 0.000000000000000000, 0.000000000000000000, 0.000000000000000000 ) ;
#47 = CARTESIAN_POINT ( 'NONE',  ( -6.123233995736772199E-17, 4.500000000000000000, 0.000000000000000000 ) ) ;
#48 = EDGE_CURVE ( 'NONE', #269, #27, #261, .T. ) ;
#49 = FILL_AREA_STYLE_COLOUR ( '', #1 ) ;
#50 = FILL_AREA_STYLE_COLOUR ( '', #173 ) ;
#51 = PRESENTATION_STYLE_ASSIGNMENT (( #52 ) ) ;
#52 = SURFACE_STYLE_USAGE ( .BOTH. , #143 ) ;
#53 = ADVANCED_FACE ( 'NONE', ( #100 ), #223, .T. ) ;
#54 = CARTESIAN_POINT ( 'NONE',  ( -6.123233995736772199E-17, 4.500000000000000000, 0.000000000000000000 ) ) ;
#55 = PRODUCT ( '05877', '05877', '', ( #264 ) ) ;
#56 =( LENGTH_UNIT ( ) NAMED_UNIT ( * ) SI_UNIT ( $, .METRE. ) );
#57 = FILL_AREA_STYLE ('',( #10 ) ) ;
#58 = VERTEX_POINT ( 'NONE', #78 ) ;
#59 = FACE_OUTER_BOUND ( 'NONE', #161, .T. ) ;
#60 = DIRECTION ( 'NONE',  ( 0.000000000000000000, 0.000000000000000000, -1.000000000000000000 ) ) ;
#61 = CARTESIAN_POINT ( 'NONE',  ( 1.499759782661860216E-34, 2.000000000000000000, 0.000000000000000000 ) ) ;
#62 = UNCERTAINTY_MEASURE_WITH_UNIT (LENGTH_MEASURE( 1.000000000000000082E-05 ), #162, 'distance_accuracy_value', 'NONE');
#63 = EDGE_LOOP ( 'NONE', ( #120, #272, #294, #176 ) ) ;
#64 = FILL_AREA_STYLE ('',( #12 ) ) ;
#65 = AXIS2_PLACEMENT_3D ( 'NONE', #299, #278, #60 ) ;
#66 = AXIS2_PLACEMENT_3D ( 'NONE', #67, #197, #308 ) ;
#67 = CARTESIAN_POINT ( 'NONE',  ( 0.000000000000000000, 0.000000000000000000, 0.000000000000000000 ) ) ;
#68 = CIRCLE ( 'NONE', #302, 0.5000000000000000000 ) ;
#69 = EDGE_LOOP ( 'NONE', ( #244, #219 ) ) ;
#70 = SURFACE_STYLE_USAGE ( .BOTH. , #118 ) ;
#71 = AXIS2_PLACEMENT_3D ( 'NONE', #182, #122, #6 ) ;
#72 = VERTEX_POINT ( 'NONE', #108 ) ;
#73 = DIRECTION ( 'NONE',  ( 0.000000000000000000, 0.000000000000000000, -1.000000000000000000 ) ) ;
#74 = DIMENSIONAL_EXPONENTS ( 1.000000000000000000, 0.000000000000000000, 0.000000000000000000, 0.000000000000000000, 0.000000000000000000, 0.000000000000000000, 0.000000000000000000 ) ;
#75 = PRODUCT_DEFINITION_SHAPE ( 'NONE', 'NONE',  #301 ) ;
#76 = CIRCLE ( 'NONE', #65, 0.5000000000000000000 ) ;
#77 = AXIS2_PLACEMENT_3D ( 'NONE', #93, #237, #288 ) ;
#78 = CARTESIAN_POINT ( 'NONE',  ( 0.5000000000000000000, 2.000000000000000000, 6.123233995736766036E-17 ) ) ;
#79 = LENGTH_MEASURE_WITH_UNIT ( LENGTH_MEASURE( 0.02539999999999999897 ), #275 );
#80 = SURFACE_SIDE_STYLE ('',( #32 ) ) ;
#81 = ORIENTED_EDGE ( 'NONE', *, *, #48, .T. ) ;
#82 = CYLINDRICAL_SURFACE ( 'NONE', #8, 0.5000000000000000000 ) ;
#83 = PRESENTATION_STYLE_ASSIGNMENT (( #228 ) ) ;
#84 = CARTESIAN_POINT ( 'NONE',  ( 0.4999999999999999445, 4.500000000000000000, 6.123233995736766036E-17 ) ) ;
#85 = DIRECTION ( 'NONE',  ( -2.449293598294708695E-17, 1.000000000000000000, -0.000000000000000000 ) ) ;
#86 = PRODUCT_DEFINITION_FORMATION_WITH_SPECIFIED_SOURCE ( 'ANY', '', #55, .NOT_KNOWN. ) ;
#87 = LENGTH_MEASURE_WITH_UNIT ( LENGTH_MEASURE( 0.02539999999999999897 ), #177 );
#88 =( CONVERSION_BASED_UNIT ( 'INCH', #283 ) LENGTH_UNIT ( ) NAMED_UNIT ( #23 ) );
#89 = DIRECTION ( 'NONE',  ( -2.449293598294709003E-17, 1.000000000000000000, -0.000000000000000000 ) ) ;
#90 = EDGE_CURVE ( 'NONE', #265, #111, #76, .T. ) ;
#91 =( NAMED_UNIT ( * ) PLANE_ANGLE_UNIT ( ) SI_UNIT ( $, .RADIAN. ) );
#92 =( GEOMETRIC_REPRESENTATION_CONTEXT ( 3 ) GLOBAL_UNCERTAINTY_ASSIGNED_CONTEXT ( ( #167 ) ) GLOBAL_UNIT_ASSIGNED_CONTEXT ( ( #88, #11, #178 ) ) REPRESENTATION_CONTEXT ( 'NONE', 'WORKASPACE' ) );
#93 = CARTESIAN_POINT ( 'NONE',  ( 0.000000000000000000, 0.000000000000000000, 0.000000000000000000 ) ) ;
#94 = EDGE_CURVE ( 'NONE', #171, #58, #242, .T. ) ;
#95 =( LENGTH_UNIT ( ) NAMED_UNIT ( * ) SI_UNIT ( $, .METRE. ) );
#96 = CARTESIAN_POINT ( 'NONE',  ( 0.000000000000000000, 0.000000000000000000, 0.000000000000000000 ) ) ;
#97 = DIRECTION ( 'NONE',  ( -0.000000000000000000, -1.000000000000000000, -0.000000000000000000 ) ) ;
#98 = PRESENTATION_LAYER_ASSIGNMENT (  '', '', ( #45 ) ) ;
#99 = AXIS2_PLACEMENT_3D ( 'NONE', #159, #304, #208 ) ;
#100 = FACE_OUTER_BOUND ( 'NONE', #185, .T. ) ;
#101 =( LENGTH_UNIT ( ) NAMED_UNIT ( * ) SI_UNIT ( $, .METRE. ) );
#102 = DIRECTION ( 'NONE',  ( -2.449293598294709003E-17, 1.000000000000000000, -0.000000000000000000 ) ) ;
#103 = VECTOR ( 'NONE', #102, 39.37007874015748143 ) ;
#104 = FILL_AREA_STYLE_COLOUR ( '', #181 ) ;
#105 =( NAMED_UNIT ( * ) PLANE_ANGLE_UNIT ( ) SI_UNIT ( $, .RADIAN. ) );
#106 = DIRECTION ( 'NONE',  ( 0.000000000000000000, 0.000000000000000000, -1.000000000000000000 ) ) ;
#107 = ORIENTED_EDGE ( 'NONE', *, *, #144, .T. ) ;
#108 = CARTESIAN_POINT ( 'NONE',  ( 0.000000000000000000, 0.000000000000000000, -0.5000000000000000000 ) ) ;
#109 = AXIS2_PLACEMENT_3D ( 'NONE', #184, #251, #155 ) ;
#110 =( GEOMETRIC_REPRESENTATION_CONTEXT ( 3 ) GLOBAL_UNCERTAINTY_ASSIGNED_CONTEXT ( ( #117 ) ) GLOBAL_UNIT_ASSIGNED_CONTEXT ( ( #186, #91, #280 ) ) REPRESENTATION_CONTEXT ( 'NONE', 'WORKASPACE' ) );
#111 = VERTEX_POINT ( 'NONE', #274 ) ;
#112 = EDGE_CURVE ( 'NONE', #171, #27, #121, .T. ) ;
#113 = CARTESIAN_POINT ( 'NONE',  ( 0.000000000000000000, 2.000000000000000000, -0.5000000000000000000 ) ) ;
#114 =( NAMED_UNIT ( * ) PLANE_ANGLE_UNIT ( ) SI_UNIT ( $, .RADIAN. ) );
#115 = CIRCLE ( 'NONE', #146, 0.5000000000000000000 ) ;
#116 = MANIFOLD_SOLID_BREP ( 'Revolve - Cutting Edge', #130 ) ;
#117 = UNCERTAINTY_MEASURE_WITH_UNIT (LENGTH_MEASURE( 1.000000000000000082E-05 ), #186, 'distance_accuracy_value', 'NONE');
#118 = SURFACE_SIDE_STYLE ('',( #44 ) ) ;
#119 = ORIENTED_EDGE ( 'NONE', *, *, #112, .T. ) ;
#120 = ORIENTED_EDGE ( 'NONE', *, *, #157, .F. ) ;
#121 = LINE ( 'NONE', #158, #103 ) ;
#122 = DIRECTION ( 'NONE',  ( 2.449293598294709003E-17, -1.000000000000000000, 0.000000000000000000 ) ) ;
#123 = ORIENTED_EDGE ( 'NONE', *, *, #258, .F. ) ;
#124 = AXIS2_PLACEMENT_3D ( 'NONE', #54, #243, #22 ) ;
#125 = STYLED_ITEM ( 'NONE', ( #131 ), #246 ) ;
#126 = ORIENTED_EDGE ( 'NONE', *, *, #137, .T. ) ;
#127 = DIRECTION ( 'NONE',  ( -0.000000000000000000, -1.000000000000000000, -0.000000000000000000 ) ) ;
#128 = FACE_OUTER_BOUND ( 'NONE', #18, .T. ) ;
#129 = EDGE_LOOP ( 'NONE', ( #293, #192, #119, #151 ) ) ;
#130 = CLOSED_SHELL ( 'NONE', ( #246, #224, #306, #53 ) ) ;
#131 = PRESENTATION_STYLE_ASSIGNMENT (( #15 ) ) ;
#132 = UNCERTAINTY_MEASURE_WITH_UNIT (LENGTH_MEASURE( 1.000000000000000082E-05 ), #193, 'distance_accuracy_value', 'NONE');
#133 = APPLICATION_CONTEXT ( 'automotive_design' ) ;
#134 = LENGTH_MEASURE_WITH_UNIT ( LENGTH_MEASURE( 0.02539999999999999897 ), #95 );
#135 = PRESENTATION_STYLE_ASSIGNMENT (( #70 ) ) ;
#136 = DIMENSIONAL_EXPONENTS ( 1.000000000000000000, 0.000000000000000000, 0.000000000000000000, 0.000000000000000000, 0.000000000000000000, 0.000000000000000000, 0.000000000000000000 ) ;
#137 = EDGE_CURVE ( 'NONE', #298, #72, #268, .T. ) ;
#138 = SHAPE_DEFINITION_REPRESENTATION ( #75, #202 ) ;
#139 = CARTESIAN_POINT ( 'NONE',  ( -0.5000000000000001110, 4.500000000000000000, 0.000000000000000000 ) ) ;
#140 = AXIS2_PLACEMENT_3D ( 'NONE', #156, #207, #41 ) ;
#141 = SURFACE_STYLE_FILL_AREA ( #249 ) ;
#142 = PRESENTATION_STYLE_ASSIGNMENT (( #19 ) ) ;
#143 = SURFACE_SIDE_STYLE ('',( #205 ) ) ;
#144 = EDGE_CURVE ( 'NONE', #27, #269, #33, .T. ) ;
#145 = ORIENTED_EDGE ( 'NONE', *, *, #144, .F. ) ;
#146 = AXIS2_PLACEMENT_3D ( 'NONE', #37, #160, #189 ) ;
#147 =( NAMED_UNIT ( * ) SI_UNIT ( $, .STERADIAN. ) SOLID_ANGLE_UNIT ( ) );
#148 = DIRECTION ( 'NONE',  ( -2.449293598294708695E-17, 1.000000000000000000, -0.000000000000000000 ) ) ;
#149 = CARTESIAN_POINT ( 'NONE',  ( 0.000000000000000000, 2.000000000000000000, 0.000000000000000000 ) ) ;
#150 =( NAMED_UNIT ( * ) SI_UNIT ( $, .STERADIAN. ) SOLID_ANGLE_UNIT ( ) );
#151 = ORIENTED_EDGE ( 'NONE', *, *, #48, .F. ) ;
#152 = PLANE ( 'NONE',  #99 ) ;
#153 = CARTESIAN_POINT ( 'NONE',  ( 0.000000000000000000, 0.000000000000000000, 0.000000000000000000 ) ) ;
#154 = STYLED_ITEM ( 'NONE', ( #51 ), #220 ) ;
#155 = DIRECTION ( 'NONE',  ( 0.000000000000000000, 0.000000000000000000, -1.000000000000000000 ) ) ;
#156 = CARTESIAN_POINT ( 'NONE',  ( -6.123233995736772199E-17, 4.500000000000000000, 0.000000000000000000 ) ) ;
#157 = EDGE_CURVE ( 'NONE', #111, #298, #226, .T. ) ;
#158 = CARTESIAN_POINT ( 'NONE',  ( -0.5000000000000001110, 4.500000000000000000, 0.000000000000000000 ) ) ;
#159 = CARTESIAN_POINT ( 'NONE',  ( 0.000000000000000000, 2.000000000000000000, 0.000000000000000000 ) ) ;
#160 = DIRECTION ( 'NONE',  ( -0.000000000000000000, -1.000000000000000000, -0.000000000000000000 ) ) ;
#161 = EDGE_LOOP ( 'NONE', ( #107, #81 ) ) ;
#162 =( CONVERSION_BASED_UNIT ( 'INCH', #87 ) LENGTH_UNIT ( ) NAMED_UNIT ( #196 ) );
#163 = FILL_AREA_STYLE ('',( #285 ) ) ;
#164 = LENGTH_MEASURE_WITH_UNIT ( LENGTH_MEASURE( 0.02539999999999999897 ), #42 );
#165 =( NAMED_UNIT ( * ) PLANE_ANGLE_UNIT ( ) SI_UNIT ( $, .RADIAN. ) );
#166 = ORIENTED_EDGE ( 'NONE', *, *, #199, .F. ) ;
#167 = UNCERTAINTY_MEASURE_WITH_UNIT (LENGTH_MEASURE( 1.000000000000000082E-05 ), #88, 'distance_accuracy_value', 'NONE');
#168 = MECHANICAL_DESIGN_GEOMETRIC_PRESENTATION_REPRESENTATION (  '', ( #45 ), #92 ) ;
#169 = SURFACE_STYLE_FILL_AREA ( #217 ) ;
#170 = ADVANCED_FACE ( 'NONE', ( #59 ), #29, .F. ) ;
#171 = VERTEX_POINT ( 'NONE', #282 ) ;
#172 = DIRECTION ( 'NONE',  ( -2.449293598294708695E-17, 1.000000000000000000, -0.000000000000000000 ) ) ;
#173 = COLOUR_RGB ( '',1.000000000000000000, 0.000000000000000000, 0.000000000000000000 ) ;
#174 = CARTESIAN_POINT ( 'NONE',  ( 0.000000000000000000, 2.000000000000000000, 0.000000000000000000 ) ) ;
#175 = ORIENTED_EDGE ( 'NONE', *, *, #112, .F. ) ;
#176 = ORIENTED_EDGE ( 'NONE', *, *, #137, .F. ) ;
#177 =( LENGTH_UNIT ( ) NAMED_UNIT ( * ) SI_UNIT ( $, .METRE. ) );
#178 =( NAMED_UNIT ( * ) SI_UNIT ( $, .STERADIAN. ) SOLID_ANGLE_UNIT ( ) );
#179 = EDGE_CURVE ( 'NONE', #111, #265, #115, .T. ) ;
#180 = CARTESIAN_POINT ( 'NONE',  ( 0.5000000000000000000, 4.500000000000000000, 6.123233995736766036E-17 ) ) ;
#181 = COLOUR_RGB ( '',0.7921568627450980005, 0.8196078431372548767, 0.9333333333333333481 ) ;
#182 = CARTESIAN_POINT ( 'NONE',  ( 0.5000000000000000000, 4.500000000000000000, 0.000000000000000000 ) ) ;
#183 = UNCERTAINTY_MEASURE_WITH_UNIT (LENGTH_MEASURE( 1.000000000000000082E-05 ), #250, 'distance_accuracy_value', 'NONE');
#184 = CARTESIAN_POINT ( 'NONE',  ( 0.000000000000000000, 0.000000000000000000, 0.000000000000000000 ) ) ;
#185 = EDGE_LOOP ( 'NONE', ( #24, #126 ) ) ;
#186 =( CONVERSION_BASED_UNIT ( 'INCH', #305 ) LENGTH_UNIT ( ) NAMED_UNIT ( #46 ) );
#187 = DIRECTION ( 'NONE',  ( -1.000000000000000000, -2.449293598294709003E-17, 0.000000000000000000 ) ) ;
#188 = EDGE_CURVE ( 'NONE', #72, #298, #68, .T. ) ;
#189 = DIRECTION ( 'NONE',  ( 0.000000000000000000, 0.000000000000000000, -1.000000000000000000 ) ) ;
#190 = STYLED_ITEM ( 'NONE', ( #135 ), #306 ) ;
#191 = APPLICATION_PROTOCOL_DEFINITION ( 'draft international standard', 'automotive_design', 1998, #133 ) ;
#192 = ORIENTED_EDGE ( 'NONE', *, *, #199, .T. ) ;
#193 =( CONVERSION_BASED_UNIT ( 'INCH', #134 ) LENGTH_UNIT ( ) NAMED_UNIT ( #136 ) );
#194 = PRODUCT_RELATED_PRODUCT_CATEGORY ( 'part', '', ( #55 ) ) ;
#195 = STYLED_ITEM ( 'NONE', ( #25 ), #224 ) ;
#196 = DIMENSIONAL_EXPONENTS ( 1.000000000000000000, 0.000000000000000000, 0.000000000000000000, 0.000000000000000000, 0.000000000000000000, 0.000000000000000000, 0.000000000000000000 ) ;
#197 = DIRECTION ( 'NONE',  ( 0.000000000000000000, 0.000000000000000000, 1.000000000000000000 ) ) ;
#198 = DIMENSIONAL_EXPONENTS ( 1.000000000000000000, 0.000000000000000000, 0.000000000000000000, 0.000000000000000000, 0.000000000000000000, 0.000000000000000000, 0.000000000000000000 ) ;
#199 = EDGE_CURVE ( 'NONE', #58, #171, #200, .T. ) ;
#200 = CIRCLE ( 'NONE', #292, 0.5000000000000000000 ) ;
#201 =( NAMED_UNIT ( * ) PLANE_ANGLE_UNIT ( ) SI_UNIT ( $, .RADIAN. ) );
#202 = ADVANCED_BREP_SHAPE_REPRESENTATION ( '05877', ( #116, #220, #66 ), #279 ) ;
#203 = CYLINDRICAL_SURFACE ( 'NONE', #7, 0.5000000000000000000 ) ;
#204 = MECHANICAL_DESIGN_GEOMETRIC_PRESENTATION_REPRESENTATION (  '', ( #286 ), #20 ) ;
#205 = SURFACE_STYLE_FILL_AREA ( #31 ) ;
#206 = AXIS2_PLACEMENT_3D ( 'NONE', #61, #257, #187 ) ;
#207 = DIRECTION ( 'NONE',  ( -2.449293598294708695E-17, 1.000000000000000000, -0.000000000000000000 ) ) ;
#208 = DIRECTION ( 'NONE',  ( 0.000000000000000000, -0.000000000000000000, 1.000000000000000000 ) ) ;
#209 = SURFACE_SIDE_STYLE ('',( #40 ) ) ;
#210 = DIRECTION ( 'NONE',  ( -1.000000000000000000, 0.000000000000000000, 0.000000000000000000 ) ) ;
#211 = CYLINDRICAL_SURFACE ( 'NONE', #77, 0.5000000000000000000 ) ;
#212 =( NAMED_UNIT ( * ) SI_UNIT ( $, .STERADIAN. ) SOLID_ANGLE_UNIT ( ) );
#213 = APPLICATION_PROTOCOL_DEFINITION ( 'draft international standard', 'automotive_design', 1998, #266 ) ;
#214 = VECTOR ( 'NONE', #89, 39.37007874015748143 ) ;
#215 =( CONVERSION_BASED_UNIT ( 'INCH', #164 ) LENGTH_UNIT ( ) NAMED_UNIT ( #28 ) );
#216 = AXIS2_PLACEMENT_3D ( 'NONE', #153, #252, #106 ) ;
#217 = FILL_AREA_STYLE ('',( #50 ) ) ;
#218 = MECHANICAL_DESIGN_GEOMETRIC_PRESENTATION_REPRESENTATION (  '', ( #195 ), #110 ) ;
#219 = ORIENTED_EDGE ( 'NONE', *, *, #179, .F. ) ;
#220 = MANIFOLD_SOLID_BREP ( 'Revolve - Tool Body (Straight Shanked)', #235 ) ;
#221 =( GEOMETRIC_REPRESENTATION_CONTEXT ( 3 ) GLOBAL_UNCERTAINTY_ASSIGNED_CONTEXT ( ( #241 ) ) GLOBAL_UNIT_ASSIGNED_CONTEXT ( ( #245, #201, #147 ) ) REPRESENTATION_CONTEXT ( 'NONE', 'WORKASPACE' ) );
#222 =( LENGTH_UNIT ( ) NAMED_UNIT ( * ) SI_UNIT ( $, .METRE. ) );
#223 = PLANE ( 'NONE',  #216 ) ;
#224 = ADVANCED_FACE ( 'NONE', ( #270 ), #152, .T. ) ;
#225 = DIRECTION ( 'NONE',  ( -2.449293598294708695E-17, 1.000000000000000000, -0.000000000000000000 ) ) ;
#226 = LINE ( 'NONE', #5, #253 ) ;
#227 = CARTESIAN_POINT ( 'NONE',  ( -6.123233995736772199E-17, 4.500000000000000000, 0.000000000000000000 ) ) ;
#228 = SURFACE_STYLE_USAGE ( .BOTH. , #80 ) ;
#229 = ORIENTED_EDGE ( 'NONE', *, *, #94, .T. ) ;
#230 = FACE_OUTER_BOUND ( 'NONE', #129, .T. ) ;
#231 = ADVANCED_FACE ( 'NONE', ( #254 ), #303, .F. ) ;
#232 = LENGTH_MEASURE_WITH_UNIT ( LENGTH_MEASURE( 0.02539999999999999897 ), #101 );
#233 = DIRECTION ( 'NONE',  ( -0.000000000000000000, -1.000000000000000000, -0.000000000000000000 ) ) ;
#234 = CARTESIAN_POINT ( 'NONE',  ( 0.000000000000000000, 0.000000000000000000, 0.000000000000000000 ) ) ;
#235 = CLOSED_SHELL ( 'NONE', ( #2, #231, #236, #170 ) ) ;
#236 = ADVANCED_FACE ( 'NONE', ( #230 ), #16, .T. ) ;
#237 = DIRECTION ( 'NONE',  ( -0.000000000000000000, -1.000000000000000000, -0.000000000000000000 ) ) ;
#238 = AXIS2_PLACEMENT_3D ( 'NONE', #227, #148, #276 ) ;
#239 = COLOUR_RGB ( '',0.7921568627450980005, 0.8196078431372548767, 0.9333333333333333481 ) ;
#240 =( NAMED_UNIT ( * ) PLANE_ANGLE_UNIT ( ) SI_UNIT ( $, .RADIAN. ) );
#241 = UNCERTAINTY_MEASURE_WITH_UNIT (LENGTH_MEASURE( 1.000000000000000082E-05 ), #245, 'distance_accuracy_value', 'NONE');
#242 = CIRCLE ( 'NONE', #17, 0.5000000000000000000 ) ;
#243 = DIRECTION ( 'NONE',  ( -2.449293598294708695E-17, 1.000000000000000000, -0.000000000000000000 ) ) ;
#244 = ORIENTED_EDGE ( 'NONE', *, *, #90, .F. ) ;
#245 =( CONVERSION_BASED_UNIT ( 'INCH', #79 ) LENGTH_UNIT ( ) NAMED_UNIT ( #74 ) );
#246 = ADVANCED_FACE ( 'NONE', ( #128 ), #82, .T. ) ;
#247 = EDGE_LOOP ( 'NONE', ( #296, #166 ) ) ;
#248 = COLOUR_RGB ( '',1.000000000000000000, 0.000000000000000000, 0.000000000000000000 ) ;
#249 = FILL_AREA_STYLE ('',( #49 ) ) ;
#250 =( CONVERSION_BASED_UNIT ( 'INCH', #232 ) LENGTH_UNIT ( ) NAMED_UNIT ( #198 ) );
#251 = DIRECTION ( 'NONE',  ( -0.000000000000000000, -1.000000000000000000, -0.000000000000000000 ) ) ;
#252 = DIRECTION ( 'NONE',  ( 0.000000000000000000, -1.000000000000000000, -0.000000000000000000 ) ) ;
#253 = VECTOR ( 'NONE', #297, 39.37007874015748143 ) ;
#254 = FACE_OUTER_BOUND ( 'NONE', #247, .T. ) ;
#255 = MECHANICAL_DESIGN_GEOMETRIC_PRESENTATION_REPRESENTATION (  '', ( #190 ), #307 ) ;
#256 = CARTESIAN_POINT ( 'NONE',  ( 6.123233995736766036E-17, 0.000000000000000000, 0.5000000000000000000 ) ) ;
#257 = DIRECTION ( 'NONE',  ( -2.449293598294709003E-17, 1.000000000000000000, 0.000000000000000000 ) ) ;
#258 = EDGE_CURVE ( 'NONE', #265, #72, #259, .T. ) ;
#259 = LINE ( 'NONE', #277, #35 ) ;
#260 = EDGE_CURVE ( 'NONE', #58, #269, #300, .T. ) ;
#261 = CIRCLE ( 'NONE', #124, 0.5000000000000001110 ) ;
#262 =( GEOMETRIC_REPRESENTATION_CONTEXT ( 3 ) GLOBAL_UNCERTAINTY_ASSIGNED_CONTEXT ( ( #62 ) ) GLOBAL_UNIT_ASSIGNED_CONTEXT ( ( #162, #114, #212 ) ) REPRESENTATION_CONTEXT ( 'NONE', 'WORKASPACE' ) );
#263 = ORIENTED_EDGE ( 'NONE', *, *, #188, .F. ) ;
#264 = PRODUCT_CONTEXT ( 'NONE', #133, 'mechanical' ) ;
#265 = VERTEX_POINT ( 'NONE', #113 ) ;
#266 = APPLICATION_CONTEXT ( 'automotive_design' ) ;
#267 = UNCERTAINTY_MEASURE_WITH_UNIT (LENGTH_MEASURE( 1.000000000000000082E-05 ), #215, 'distance_accuracy_value', 'NONE');
#268 = CIRCLE ( 'NONE', #109, 0.5000000000000000000 ) ;
#269 = VERTEX_POINT ( 'NONE', #180 ) ;
#270 = FACE_OUTER_BOUND ( 'NONE', #69, .T. ) ;
#271 = SURFACE_SIDE_STYLE ('',( #169 ) ) ;
#272 = ORIENTED_EDGE ( 'NONE', *, *, #179, .T. ) ;
#273 = DIRECTION ( 'NONE',  ( -1.000000000000000000, 0.000000000000000000, 0.000000000000000000 ) ) ;
#274 = CARTESIAN_POINT ( 'NONE',  ( 6.123233995736766036E-17, 2.000000000000000000, 0.5000000000000000000 ) ) ;
#275 =( LENGTH_UNIT ( ) NAMED_UNIT ( * ) SI_UNIT ( $, .METRE. ) );
#276 = DIRECTION ( 'NONE',  ( -1.000000000000000000, 0.000000000000000000, 0.000000000000000000 ) ) ;
#277 = CARTESIAN_POINT ( 'NONE',  ( 0.000000000000000000, 0.000000000000000000, -0.5000000000000000000 ) ) ;
#278 = DIRECTION ( 'NONE',  ( -0.000000000000000000, -1.000000000000000000, -0.000000000000000000 ) ) ;
#279 =( GEOMETRIC_REPRESENTATION_CONTEXT ( 3 ) GLOBAL_UNCERTAINTY_ASSIGNED_CONTEXT ( ( #132 ) ) GLOBAL_UNIT_ASSIGNED_CONTEXT ( ( #193, #240, #289 ) ) REPRESENTATION_CONTEXT ( 'NONE', 'WORKASPACE' ) );
#280 =( NAMED_UNIT ( * ) SI_UNIT ( $, .STERADIAN. ) SOLID_ANGLE_UNIT ( ) );
#281 = PRESENTATION_LAYER_ASSIGNMENT (  '', '', ( #125 ) ) ;
#282 = CARTESIAN_POINT ( 'NONE',  ( -0.5000000000000000000, 2.000000000000000000, 0.000000000000000000 ) ) ;
#283 = LENGTH_MEASURE_WITH_UNIT ( LENGTH_MEASURE( 0.02539999999999999897 ), #56 );
#284 = ORIENTED_EDGE ( 'NONE', *, *, #157, .T. ) ;
#285 = FILL_AREA_STYLE_COLOUR ( '', #248 ) ;
#286 = STYLED_ITEM ( 'NONE', ( #142 ), #53 ) ;
#287 = MECHANICAL_DESIGN_GEOMETRIC_PRESENTATION_REPRESENTATION (  '', ( #125 ), #262 ) ;
#288 = DIRECTION ( 'NONE',  ( 0.000000000000000000, 0.000000000000000000, -1.000000000000000000 ) ) ;
#289 =( NAMED_UNIT ( * ) SI_UNIT ( $, .STERADIAN. ) SOLID_ANGLE_UNIT ( ) );
#290 = MECHANICAL_DESIGN_GEOMETRIC_PRESENTATION_REPRESENTATION (  '', ( #154 ), #221 ) ;
#291 =( NAMED_UNIT ( * ) SI_UNIT ( $, .STERADIAN. ) SOLID_ANGLE_UNIT ( ) );
#292 = AXIS2_PLACEMENT_3D ( 'NONE', #149, #225, #3 ) ;
#293 = ORIENTED_EDGE ( 'NONE', *, *, #260, .F. ) ;
#294 = ORIENTED_EDGE ( 'NONE', *, *, #258, .T. ) ;
#295 = PRODUCT_DEFINITION_CONTEXT ( 'detailed design', #266, 'design' ) ;
#296 = ORIENTED_EDGE ( 'NONE', *, *, #94, .F. ) ;
#297 = DIRECTION ( 'NONE',  ( -0.000000000000000000, -1.000000000000000000, -0.000000000000000000 ) ) ;
#298 = VERTEX_POINT ( 'NONE', #256 ) ;
#299 = CARTESIAN_POINT ( 'NONE',  ( 0.000000000000000000, 2.000000000000000000, 0.000000000000000000 ) ) ;
#300 = LINE ( 'NONE', #84, #214 ) ;
#301 = PRODUCT_DEFINITION ( 'UNKNOWN', '', #86, #295 ) ;
#302 = AXIS2_PLACEMENT_3D ( 'NONE', #96, #97, #73 ) ;
#303 = PLANE ( 'NONE',  #206 ) ;
#304 = DIRECTION ( 'NONE',  ( 0.000000000000000000, 1.000000000000000000, 0.000000000000000000 ) ) ;
#305 = LENGTH_MEASURE_WITH_UNIT ( LENGTH_MEASURE( 0.02539999999999999897 ), #222 );
#306 = ADVANCED_FACE ( 'NONE', ( #36 ), #211, .T. ) ;
#307 =( GEOMETRIC_REPRESENTATION_CONTEXT ( 3 ) GLOBAL_UNCERTAINTY_ASSIGNED_CONTEXT ( ( #267 ) ) GLOBAL_UNIT_ASSIGNED_CONTEXT ( ( #215, #165, #291 ) ) REPRESENTATION_CONTEXT ( 'NONE', 'WORKASPACE' ) );
#308 = DIRECTION ( 'NONE',  ( 1.000000000000000000, 0.000000000000000000, 0.000000000000000000 ) ) ;
#309 = FACE_OUTER_BOUND ( 'NONE', #13, .T. ) ;
ENDSEC;
END-ISO-10303-21;
