ISO-10303-21;
HEADER;
FILE_DESCRIPTION (( 'STEP AP214' ),
    '1' );
FILE_NAME ('Micro_KC-500-750-156.STEP',
    '2021-09-03T20:01:25',
    ( '' ),
    ( '' ),
    'SwSTEP 2.0',
    'SolidWorks 2020',
    '' );
FILE_SCHEMA (( 'AUTOMOTIVE_DESIGN' ));
ENDSEC;

DATA;
#1 = EDGE_CURVE ( 'NONE', #259, #348, #330, .T. ) ;
#2 = CARTESIAN_POINT ( 'NONE',  ( 0.0000000000000000000, 0.0000000000000000000, 0.0000000000000000000 ) ) ;
#3 = AXIS2_PLACEMENT_3D ( 'NONE', #301, #237, #97 ) ;
#4 = DIRECTION ( 'NONE',  ( 1.000000000000000000, 0.0000000000000000000, 0.0000000000000000000 ) ) ;
#5 = CARTESIAN_POINT ( 'NONE',  ( 0.1250000000000000278, 1.530808498934191817E-17, 0.1559999999999999998 ) ) ;
#6 = SURFACE_SIDE_STYLE ('',( #245 ) ) ;
#7 = CIRCLE ( 'NONE', #193, 0.2500000000000000000 ) ;
#8 = AXIS2_PLACEMENT_3D ( 'NONE', #31, #211, #126 ) ;
#9 = EDGE_CURVE ( 'NONE', #348, #259, #37, .T. ) ;
#10 = CYLINDRICAL_SURFACE ( 'NONE', #189, 0.2500000000000000000 ) ;
#11 = DIRECTION ( 'NONE',  ( 1.000000000000000000, 0.0000000000000000000, -0.0000000000000000000 ) ) ;
#12 = APPLICATION_CONTEXT ( 'automotive_design' ) ;
#13 = LENGTH_MEASURE_WITH_UNIT ( LENGTH_MEASURE( 0.02539999999999999897 ), #18 );
#14 = CIRCLE ( 'NONE', #375, 0.1250000000000000278 ) ;
#15 = CARTESIAN_POINT ( 'NONE',  ( 0.0000000000000000000, 0.0000000000000000000, 3.000000000000000444 ) ) ;
#16 = ORIENTED_EDGE ( 'NONE', *, *, #1, .F. ) ;
#17 = ADVANCED_FACE ( 'NONE', ( #239 ), #157, .T. ) ;
#18 =( LENGTH_UNIT ( ) NAMED_UNIT ( * ) SI_UNIT ( $, .METRE. ) );
#19 = FACE_BOUND ( 'NONE', #234, .T. ) ;
#20 = ORIENTED_EDGE ( 'NONE', *, *, #316, .F. ) ;
#21 =( NAMED_UNIT ( * ) PLANE_ANGLE_UNIT ( ) SI_UNIT ( $, .RADIAN. ) );
#22 = CIRCLE ( 'NONE', #247, 0.2500000000000000000 ) ;
#23 = DIMENSIONAL_EXPONENTS ( 1.000000000000000000, 0.0000000000000000000, 0.0000000000000000000, 0.0000000000000000000, 0.0000000000000000000, 0.0000000000000000000, 0.0000000000000000000 ) ;
#24 = UNCERTAINTY_MEASURE_WITH_UNIT (LENGTH_MEASURE( 1.000000000000000082E-05 ), #115, 'distance_accuracy_value', 'NONE');
#25 = EDGE_LOOP ( 'NONE', ( #16, #204, #120, #229 ) ) ;
#26 = DIRECTION ( 'NONE',  ( 0.0000000000000000000, 0.0000000000000000000, 1.000000000000000000 ) ) ;
#27 = ORIENTED_EDGE ( 'NONE', *, *, #292, .T. ) ;
#28 = ORIENTED_EDGE ( 'NONE', *, *, #252, .F. ) ;
#29 = ORIENTED_EDGE ( 'NONE', *, *, #300, .T. ) ;
#30 = DIRECTION ( 'NONE',  ( 0.0000000000000000000, 0.0000000000000000000, -1.000000000000000000 ) ) ;
#31 = CARTESIAN_POINT ( 'NONE',  ( 0.0000000000000000000, 0.0000000000000000000, 0.0000000000000000000 ) ) ;
#32 = CARTESIAN_POINT ( 'NONE',  ( 0.0000000000000000000, 0.0000000000000000000, 3.000000000000000444 ) ) ;
#33 = ORIENTED_EDGE ( 'NONE', *, *, #378, .T. ) ;
#34 = CARTESIAN_POINT ( 'NONE',  ( 0.2500000000000000000, 3.061616997868382402E-17, 0.0000000000000000000 ) ) ;
#35 = SURFACE_SIDE_STYLE ('',( #185 ) ) ;
#36 = CARTESIAN_POINT ( 'NONE',  ( 0.0000000000000000000, 0.0000000000000000000, 2.985000000000001208 ) ) ;
#37 = CIRCLE ( 'NONE', #321, 0.1250000000000000833 ) ;
#38 = SURFACE_STYLE_USAGE ( .BOTH. , #6 ) ;
#39 = DIRECTION ( 'NONE',  ( -0.0000000000000000000, -0.0000000000000000000, -1.000000000000000000 ) ) ;
#40 = LINE ( 'NONE', #358, #367 ) ;
#41 = EDGE_CURVE ( 'NONE', #148, #370, #361, .T. ) ;
#42 = COLOUR_RGB ( '',0.7921568627450980005, 0.8196078431372548767, 0.9333333333333333481 ) ;
#43 = EDGE_CURVE ( 'NONE', #370, #88, #182, .T. ) ;
#44 = CARTESIAN_POINT ( 'NONE',  ( -0.2350000000000011524, 0.0000000000000000000, 3.000000000000000444 ) ) ;
#45 = EDGE_CURVE ( 'NONE', #53, #88, #91, .T. ) ;
#46 = LINE ( 'NONE', #233, #219 ) ;
#47 = AXIS2_PLACEMENT_3D ( 'NONE', #295, #153, #156 ) ;
#48 = CIRCLE ( 'NONE', #272, 0.2500000000000000000 ) ;
#49 = EDGE_LOOP ( 'NONE', ( #177, #20 ) ) ;
#50 = DIRECTION ( 'NONE',  ( 0.0000000000000000000, 0.0000000000000000000, 1.000000000000000000 ) ) ;
#51 = ORIENTED_EDGE ( 'NONE', *, *, #163, .F. ) ;
#52 = DIRECTION ( 'NONE',  ( -0.0000000000000000000, -0.0000000000000000000, -1.000000000000000000 ) ) ;
#53 = VERTEX_POINT ( 'NONE', #356 ) ;
#54 = DIMENSIONAL_EXPONENTS ( 1.000000000000000000, 0.0000000000000000000, 0.0000000000000000000, 0.0000000000000000000, 0.0000000000000000000, 0.0000000000000000000, 0.0000000000000000000 ) ;
#55 = DIRECTION ( 'NONE',  ( 1.000000000000000000, 0.0000000000000000000, -0.0000000000000000000 ) ) ;
#56 = AXIS2_PLACEMENT_3D ( 'NONE', #299, #150, #374 ) ;
#57 = ORIENTED_EDGE ( 'NONE', *, *, #319, .T. ) ;
#58 = PRODUCT_DEFINITION_FORMATION_WITH_SPECIFIED_SOURCE ( 'ANY', '', #269, .NOT_KNOWN. ) ;
#59 = SHAPE_DEFINITION_REPRESENTATION ( #331, #179 ) ;
#60 = ORIENTED_EDGE ( 'NONE', *, *, #262, .T. ) ;
#61 = ORIENTED_EDGE ( 'NONE', *, *, #349, .F. ) ;
#62 = EDGE_CURVE ( 'NONE', #198, #293, #22, .T. ) ;
#63 = DIRECTION ( 'NONE',  ( -0.0000000000000000000, -0.0000000000000000000, -1.000000000000000000 ) ) ;
#64 = APPLICATION_PROTOCOL_DEFINITION ( 'draft international standard', 'automotive_design', 1998, #243 ) ;
#65 = DIRECTION ( 'NONE',  ( -0.0000000000000000000, -0.0000000000000000000, -1.000000000000000000 ) ) ;
#66 = EDGE_CURVE ( 'NONE', #293, #198, #296, .T. ) ;
#67 = AXIS2_PLACEMENT_3D ( 'NONE', #168, #170, #281 ) ;
#68 = AXIS2_PLACEMENT_3D ( 'NONE', #287, #369, #174 ) ;
#69 = FACE_OUTER_BOUND ( 'NONE', #208, .T. ) ;
#70 = FILL_AREA_STYLE ('',( #213 ) ) ;
#71 = DIRECTION ( 'NONE',  ( 1.000000000000000000, 0.0000000000000000000, 0.0000000000000000000 ) ) ;
#72 = ADVANCED_FACE ( 'NONE', ( #297 ), #324, .T. ) ;
#73 = DIRECTION ( 'NONE',  ( -1.000000000000000000, 0.0000000000000000000, 0.0000000000000000000 ) ) ;
#74 = CARTESIAN_POINT ( 'NONE',  ( -0.2500000000000000555, 0.0000000000000000000, 0.1559999999999999998 ) ) ;
#75 = CIRCLE ( 'NONE', #327, 0.2500000000000000555 ) ;
#76 = CARTESIAN_POINT ( 'NONE',  ( 0.0000000000000000000, 0.0000000000000000000, 0.0000000000000000000 ) ) ;
#77 = AXIS2_PLACEMENT_3D ( 'NONE', #158, #273, #4 ) ;
#78 = MECHANICAL_DESIGN_GEOMETRIC_PRESENTATION_REPRESENTATION (  '', ( #194 ), #338 ) ;
#79 = DIRECTION ( 'NONE',  ( 0.7071067811865402453, 8.659560562354845344E-17, -0.7071067811865546782 ) ) ;
#80 = ADVANCED_FACE ( 'NONE', ( #69 ), #303, .T. ) ;
#81 = LINE ( 'NONE', #283, #165 ) ;
#82 = ORIENTED_EDGE ( 'NONE', *, *, #62, .T. ) ;
#83 = DIRECTION ( 'NONE',  ( 1.000000000000000000, 0.0000000000000000000, 0.0000000000000000000 ) ) ;
#84 = VECTOR ( 'NONE', #79, 39.37007874015748854 ) ;
#85 = COLOUR_RGB ( '',0.7921568627450980005, 0.8196078431372548767, 0.9333333333333333481 ) ;
#86 = ORIENTED_EDGE ( 'NONE', *, *, #335, .T. ) ;
#87 = DIRECTION ( 'NONE',  ( -0.0000000000000000000, -0.0000000000000000000, -1.000000000000000000 ) ) ;
#88 = VERTEX_POINT ( 'NONE', #34 ) ;
#89 = CARTESIAN_POINT ( 'NONE',  ( 0.1250000000000000833, 0.0000000000000000000, 0.7500000000000001110 ) ) ;
#90 = ORIENTED_EDGE ( 'NONE', *, *, #9, .T. ) ;
#91 = CIRCLE ( 'NONE', #178, 0.2500000000000000000 ) ;
#92 = VECTOR ( 'NONE', #134, 39.37007874015748143 ) ;
#93 = ORIENTED_EDGE ( 'NONE', *, *, #316, .T. ) ;
#94 = APPLICATION_PROTOCOL_DEFINITION ( 'draft international standard', 'automotive_design', 1998, #12 ) ;
#95 = CARTESIAN_POINT ( 'NONE',  ( 0.1250000000000000555, 1.530808498934192125E-17, 0.0000000000000000000 ) ) ;
#96 = PRODUCT_DEFINITION ( 'UNKNOWN', '', #58, #235 ) ;
#97 = DIRECTION ( 'NONE',  ( -1.000000000000000000, 0.0000000000000000000, 0.0000000000000000000 ) ) ;
#98 = PRODUCT_CONTEXT ( 'NONE', #12, 'mechanical' ) ;
#99 = DIRECTION ( 'NONE',  ( 1.000000000000000000, 0.0000000000000000000, 0.0000000000000000000 ) ) ;
#100 = DIRECTION ( 'NONE',  ( 1.000000000000000000, 0.0000000000000000000, 0.0000000000000000000 ) ) ;
#101 = DIRECTION ( 'NONE',  ( -1.000000000000000000, 0.0000000000000000000, 0.0000000000000000000 ) ) ;
#102 = PRESENTATION_STYLE_ASSIGNMENT (( #38 ) ) ;
#103 = CONICAL_SURFACE ( 'NONE', #56, 0.1250000000000000833, 0.7853981633974503884 ) ;
#104 = CARTESIAN_POINT ( 'NONE',  ( 0.0000000000000000000, 0.0000000000000000000, 3.000000000000000444 ) ) ;
#105 = CARTESIAN_POINT ( 'NONE',  ( 0.2500000000000000000, 3.061616997868382402E-17, 3.000000000000000444 ) ) ;
#106 = CARTESIAN_POINT ( 'NONE',  ( 0.0000000000000000000, 0.0000000000000000000, 0.8749999999999994449 ) ) ;
#107 = FILL_AREA_STYLE ('',( #192 ) ) ;
#108 = AXIS2_PLACEMENT_3D ( 'NONE', #217, #379, #125 ) ;
#109 = CIRCLE ( 'NONE', #138, 0.2350000000000011524 ) ;
#110 = DIRECTION ( 'NONE',  ( -1.000000000000000000, 0.0000000000000000000, 0.0000000000000000000 ) ) ;
#111 = CARTESIAN_POINT ( 'NONE',  ( 0.0000000000000000000, 0.0000000000000000000, 0.1559999999999999998 ) ) ;
#112 = EDGE_LOOP ( 'NONE', ( #183, #332, #141, #206 ) ) ;
#113 = FACE_OUTER_BOUND ( 'NONE', #143, .T. ) ;
#114 = EDGE_LOOP ( 'NONE', ( #121, #212, #285, #313 ) ) ;
#115 =( CONVERSION_BASED_UNIT ( 'INCH', #366 ) LENGTH_UNIT ( ) NAMED_UNIT ( #54 ) );
#116 = EDGE_CURVE ( 'NONE', #202, #362, #159, .T. ) ;
#117 =( GEOMETRIC_REPRESENTATION_CONTEXT ( 3 ) GLOBAL_UNCERTAINTY_ASSIGNED_CONTEXT ( ( #24 ) ) GLOBAL_UNIT_ASSIGNED_CONTEXT ( ( #115, #21, #147 ) ) REPRESENTATION_CONTEXT ( 'NONE', 'WORKASPACE' ) );
#118 = VERTEX_POINT ( 'NONE', #127 ) ;
#119 = CLOSED_SHELL ( 'NONE', ( #80, #227, #17, #137, #184, #286, #355, #352, #151, #72, #365, #187, #306 ) ) ;
#120 = ORIENTED_EDGE ( 'NONE', *, *, #221, .T. ) ;
#121 = ORIENTED_EDGE ( 'NONE', *, *, #1, .T. ) ;
#122 = AXIS2_PLACEMENT_3D ( 'NONE', #32, #30, #350 ) ;
#123 = LINE ( 'NONE', #95, #175 ) ;
#124 = FACE_OUTER_BOUND ( 'NONE', #149, .T. ) ;
#125 = DIRECTION ( 'NONE',  ( -1.000000000000000000, 0.0000000000000000000, 0.0000000000000000000 ) ) ;
#126 = DIRECTION ( 'NONE',  ( 1.000000000000000000, 0.0000000000000000000, 0.0000000000000000000 ) ) ;
#127 = CARTESIAN_POINT ( 'NONE',  ( -0.1250000000000000278, 0.0000000000000000000, 0.1559999999999999998 ) ) ;
#128 = PRODUCT_RELATED_PRODUCT_CATEGORY ( 'part', '', ( #269 ) ) ;
#129 = CARTESIAN_POINT ( 'NONE',  ( -0.1250000000000000833, 2.296212748401287726E-17, 0.7500000000000001110 ) ) ;
#130 =( NAMED_UNIT ( * ) SI_UNIT ( $, .STERADIAN. ) SOLID_ANGLE_UNIT ( ) );
#131 = AXIS2_PLACEMENT_3D ( 'NONE', #166, #228, #340 ) ;
#132 = FACE_OUTER_BOUND ( 'NONE', #173, .T. ) ;
#133 = DIRECTION ( 'NONE',  ( -1.000000000000000000, 0.0000000000000000000, 0.0000000000000000000 ) ) ;
#134 = DIRECTION ( 'NONE',  ( -0.7071067811865490160, 8.659560562354951347E-17, 0.7071067811865460184 ) ) ;
#135 = CARTESIAN_POINT ( 'NONE',  ( 0.0000000000000000000, 0.0000000000000000000, 0.0000000000000000000 ) ) ;
#136 = DIRECTION ( 'NONE',  ( -0.0000000000000000000, -0.0000000000000000000, -1.000000000000000000 ) ) ;
#137 = ADVANCED_FACE ( 'NONE', ( #334 ), #314, .T. ) ;
#138 = AXIS2_PLACEMENT_3D ( 'NONE', #244, #359, #275 ) ;
#139 = CARTESIAN_POINT ( 'NONE',  ( 0.0000000000000000000, 0.0000000000000000000, 0.0000000000000000000 ) ) ;
#140 = DIRECTION ( 'NONE',  ( -0.7071067811865402453, 0.0000000000000000000, -0.7071067811865546782 ) ) ;
#141 = ORIENTED_EDGE ( 'NONE', *, *, #66, .F. ) ;
#142 = DIRECTION ( 'NONE',  ( 1.000000000000000000, 0.0000000000000000000, -0.0000000000000000000 ) ) ;
#143 = EDGE_LOOP ( 'NONE', ( #61, #236, #57, #341 ) ) ;
#144 = LINE ( 'NONE', #44, #337 ) ;
#145 = VECTOR ( 'NONE', #248, 39.37007874015748143 ) ;
#146 = ORIENTED_EDGE ( 'NONE', *, *, #43, .F. ) ;
#147 =( NAMED_UNIT ( * ) SI_UNIT ( $, .STERADIAN. ) SOLID_ANGLE_UNIT ( ) );
#148 = VERTEX_POINT ( 'NONE', #74 ) ;
#149 = EDGE_LOOP ( 'NONE', ( #260, #284, #256, #155 ) ) ;
#150 = DIRECTION ( 'NONE',  ( 0.0000000000000000000, 0.0000000000000000000, 1.000000000000000000 ) ) ;
#151 = ADVANCED_FACE ( 'NONE', ( #188 ), #103, .T. ) ;
#152 = MECHANICAL_DESIGN_GEOMETRIC_PRESENTATION_REPRESENTATION (  '', ( #322 ), #302 ) ;
#153 = DIRECTION ( 'NONE',  ( -0.0000000000000000000, -0.0000000000000000000, -1.000000000000000000 ) ) ;
#154 = FACE_OUTER_BOUND ( 'NONE', #373, .T. ) ;
#155 = ORIENTED_EDGE ( 'NONE', *, *, #310, .F. ) ;
#156 = DIRECTION ( 'NONE',  ( -1.000000000000000000, 0.0000000000000000000, 0.0000000000000000000 ) ) ;
#157 = CONICAL_SURFACE ( 'NONE', #246, 0.1250000000000000833, 0.7853981633974503884 ) ;
#158 = CARTESIAN_POINT ( 'NONE',  ( 0.0000000000000000000, 0.0000000000000000000, 0.8749999999999994449 ) ) ;
#159 = CIRCLE ( 'NONE', #77, 0.2500000000000000000 ) ;
#160 = CARTESIAN_POINT ( 'NONE',  ( -0.2500000000000000000, 0.0000000000000000000, 2.985000000000001208 ) ) ;
#161 =( LENGTH_UNIT ( ) NAMED_UNIT ( * ) SI_UNIT ( $, .METRE. ) );
#162 = FACE_OUTER_BOUND ( 'NONE', #114, .T. ) ;
#163 = EDGE_CURVE ( 'NONE', #348, #298, #123, .T. ) ;
#164 = DIRECTION ( 'NONE',  ( -1.000000000000000000, 0.0000000000000000000, 0.0000000000000000000 ) ) ;
#165 = VECTOR ( 'NONE', #258, 39.37007874015748143 ) ;
#166 = CARTESIAN_POINT ( 'NONE',  ( 0.0000000000000000000, 0.0000000000000000000, 3.000000000000000444 ) ) ;
#167 = AXIS2_PLACEMENT_3D ( 'NONE', #76, #280, #11 ) ;
#168 = CARTESIAN_POINT ( 'NONE',  ( 0.0000000000000000000, 0.0000000000000000000, 3.000000000000000444 ) ) ;
#169 = ORIENTED_EDGE ( 'NONE', *, *, #43, .T. ) ;
#170 = DIRECTION ( 'NONE',  ( 0.0000000000000000000, 0.0000000000000000000, 1.000000000000000000 ) ) ;
#171 = ORIENTED_EDGE ( 'NONE', *, *, #329, .F. ) ;
#172 = LINE ( 'NONE', #263, #344 ) ;
#173 = EDGE_LOOP ( 'NONE', ( #146, #93, #264, #368 ) ) ;
#174 = DIRECTION ( 'NONE',  ( -1.000000000000000000, 0.0000000000000000000, 0.0000000000000000000 ) ) ;
#175 = VECTOR ( 'NONE', #63, 39.37007874015748143 ) ;
#176 = ORIENTED_EDGE ( 'NONE', *, *, #45, .F. ) ;
#177 = ORIENTED_EDGE ( 'NONE', *, *, #41, .F. ) ;
#178 = AXIS2_PLACEMENT_3D ( 'NONE', #214, #209, #241 ) ;
#179 = ADVANCED_BREP_SHAPE_REPRESENTATION ( 'Micro_KC-500-750-156', ( #279, #8 ), #117 ) ;
#180 = AXIS2_PLACEMENT_3D ( 'NONE', #15, #196, #55 ) ;
#181 = DIRECTION ( 'NONE',  ( -1.000000000000000000, 0.0000000000000000000, 0.0000000000000000000 ) ) ;
#182 = LINE ( 'NONE', #215, #251 ) ;
#183 = ORIENTED_EDGE ( 'NONE', *, *, #378, .F. ) ;
#184 = ADVANCED_FACE ( 'NONE', ( #124 ), #210, .T. ) ;
#185 = SURFACE_STYLE_FILL_AREA ( #70 ) ;
#186 = DIRECTION ( 'NONE',  ( -0.0000000000000000000, -0.0000000000000000000, -1.000000000000000000 ) ) ;
#187 = ADVANCED_FACE ( 'NONE', ( #154 ), #270, .F. ) ;
#188 = FACE_OUTER_BOUND ( 'NONE', #317, .T. ) ;
#189 = AXIS2_PLACEMENT_3D ( 'NONE', #218, #136, #164 ) ;
#190 = CYLINDRICAL_SURFACE ( 'NONE', #282, 0.2500000000000000000 ) ;
#191 = CARTESIAN_POINT ( 'NONE',  ( 0.2500000000000000000, 3.061616997868382402E-17, 0.8749999999999994449 ) ) ;
#192 = FILL_AREA_STYLE_COLOUR ( '', #42 ) ;
#193 = AXIS2_PLACEMENT_3D ( 'NONE', #139, #26, #83 ) ;
#194 = STYLED_ITEM ( 'NONE', ( #309 ), #179 ) ;
#195 =( CONVERSION_BASED_UNIT ( 'INCH', #304 ) LENGTH_UNIT ( ) NAMED_UNIT ( #23 ) );
#196 = DIRECTION ( 'NONE',  ( 0.0000000000000000000, 0.0000000000000000000, 1.000000000000000000 ) ) ;
#197 = CARTESIAN_POINT ( 'NONE',  ( 0.2350000000000011524, 2.969768487932338510E-17, 3.000000000000000444 ) ) ;
#198 = VERTEX_POINT ( 'NONE', #305 ) ;
#199 = CONICAL_SURFACE ( 'NONE', #131, 0.2350000000000011524, 0.7853981633974380649 ) ;
#200 = CARTESIAN_POINT ( 'NONE',  ( -0.2350000000000011524, 0.0000000000000000000, 3.000000000000000444 ) ) ;
#201 = UNCERTAINTY_MEASURE_WITH_UNIT (LENGTH_MEASURE( 1.000000000000000082E-05 ), #254, 'distance_accuracy_value', 'NONE');
#202 = VERTEX_POINT ( 'NONE', #191 ) ;
#203 = DIRECTION ( 'NONE',  ( 0.7071067811865490160, 0.0000000000000000000, 0.7071067811865460184 ) ) ;
#204 = ORIENTED_EDGE ( 'NONE', *, *, #257, .T. ) ;
#205 = CARTESIAN_POINT ( 'NONE',  ( -0.2500000000000000000, 0.0000000000000000000, 0.8749999999999994449 ) ) ;
#206 = ORIENTED_EDGE ( 'NONE', *, *, #319, .F. ) ;
#207 = PRESENTATION_LAYER_ASSIGNMENT (  '', '', ( #322 ) ) ;
#208 = EDGE_LOOP ( 'NONE', ( #326, #169, #266, #171 ) ) ;
#209 = DIRECTION ( 'NONE',  ( 0.0000000000000000000, 0.0000000000000000000, 1.000000000000000000 ) ) ;
#210 = CYLINDRICAL_SURFACE ( 'NONE', #253, 0.2500000000000000000 ) ;
#211 = DIRECTION ( 'NONE',  ( 0.0000000000000000000, 0.0000000000000000000, 1.000000000000000000 ) ) ;
#212 = ORIENTED_EDGE ( 'NONE', *, *, #163, .T. ) ;
#213 = FILL_AREA_STYLE_COLOUR ( '', #85 ) ;
#214 = CARTESIAN_POINT ( 'NONE',  ( 0.0000000000000000000, 0.0000000000000000000, 0.0000000000000000000 ) ) ;
#215 = CARTESIAN_POINT ( 'NONE',  ( 0.2500000000000000000, 3.061616997868382402E-17, 3.000000000000000444 ) ) ;
#216 = CARTESIAN_POINT ( 'NONE',  ( 0.0000000000000000000, 0.0000000000000000000, 0.1559999999999999998 ) ) ;
#217 = CARTESIAN_POINT ( 'NONE',  ( 0.0000000000000000000, 0.0000000000000000000, 0.7500000000000001110 ) ) ;
#218 = CARTESIAN_POINT ( 'NONE',  ( 0.0000000000000000000, 0.0000000000000000000, 3.000000000000000444 ) ) ;
#219 = VECTOR ( 'NONE', #203, 39.37007874015748143 ) ;
#220 = DIRECTION ( 'NONE',  ( -0.0000000000000000000, -0.0000000000000000000, -1.000000000000000000 ) ) ;
#221 = EDGE_CURVE ( 'NONE', #362, #202, #48, .T. ) ;
#222 = CYLINDRICAL_SURFACE ( 'NONE', #307, 0.1250000000000000555 ) ;
#223 = PLANE ( 'NONE',  #180 ) ;
#224 = LINE ( 'NONE', #353, #92 ) ;
#225 = ORIENTED_EDGE ( 'NONE', *, *, #257, .F. ) ;
#226 =( NAMED_UNIT ( * ) PLANE_ANGLE_UNIT ( ) SI_UNIT ( $, .RADIAN. ) );
#227 = ADVANCED_FACE ( 'NONE', ( #162 ), #222, .T. ) ;
#228 = DIRECTION ( 'NONE',  ( 0.0000000000000000000, 0.0000000000000000000, -1.000000000000000000 ) ) ;
#229 = ORIENTED_EDGE ( 'NONE', *, *, #335, .F. ) ;
#230 = CIRCLE ( 'NONE', #67, 0.2350000000000011524 ) ;
#231 = AXIS2_PLACEMENT_3D ( 'NONE', #360, #50, #142 ) ;
#232 = ORIENTED_EDGE ( 'NONE', *, *, #116, .T. ) ;
#233 = CARTESIAN_POINT ( 'NONE',  ( 0.1250000000000000833, 0.0000000000000000000, 0.7500000000000001110 ) ) ;
#234 = EDGE_LOOP ( 'NONE', ( #288, #27 ) ) ;
#235 = PRODUCT_DEFINITION_CONTEXT ( 'detailed design', #243, 'design' ) ;
#236 = ORIENTED_EDGE ( 'NONE', *, *, #262, .F. ) ;
#237 = DIRECTION ( 'NONE',  ( -0.0000000000000000000, -0.0000000000000000000, -1.000000000000000000 ) ) ;
#238 = DIRECTION ( 'NONE',  ( 0.0000000000000000000, 0.0000000000000000000, -1.000000000000000000 ) ) ;
#239 = FACE_OUTER_BOUND ( 'NONE', #25, .T. ) ;
#240 = AXIS2_PLACEMENT_3D ( 'NONE', #36, #328, #71 ) ;
#241 = DIRECTION ( 'NONE',  ( 1.000000000000000000, 0.0000000000000000000, 0.0000000000000000000 ) ) ;
#242 = DIRECTION ( 'NONE',  ( -0.0000000000000000000, -0.0000000000000000000, -1.000000000000000000 ) ) ;
#243 = APPLICATION_CONTEXT ( 'automotive_design' ) ;
#244 = CARTESIAN_POINT ( 'NONE',  ( 0.0000000000000000000, 0.0000000000000000000, 3.000000000000000444 ) ) ;
#245 = SURFACE_STYLE_FILL_AREA ( #107 ) ;
#246 = AXIS2_PLACEMENT_3D ( 'NONE', #268, #376, #99 ) ;
#247 = AXIS2_PLACEMENT_3D ( 'NONE', #354, #238, #100 ) ;
#248 = DIRECTION ( 'NONE',  ( -0.0000000000000000000, -0.0000000000000000000, -1.000000000000000000 ) ) ;
#249 = LINE ( 'NONE', #105, #145 ) ;
#250 = DIRECTION ( 'NONE',  ( 1.000000000000000000, 0.0000000000000000000, 0.0000000000000000000 ) ) ;
#251 = VECTOR ( 'NONE', #271, 39.37007874015748143 ) ;
#252 = EDGE_CURVE ( 'NONE', #198, #202, #249, .T. ) ;
#253 = AXIS2_PLACEMENT_3D ( 'NONE', #325, #65, #181 ) ;
#254 =( CONVERSION_BASED_UNIT ( 'INCH', #13 ) LENGTH_UNIT ( ) NAMED_UNIT ( #294 ) );
#255 =( LENGTH_UNIT ( ) NAMED_UNIT ( * ) SI_UNIT ( $, .METRE. ) );
#256 = ORIENTED_EDGE ( 'NONE', *, *, #221, .F. ) ;
#257 = EDGE_CURVE ( 'NONE', #259, #362, #224, .T. ) ;
#258 = DIRECTION ( 'NONE',  ( -0.0000000000000000000, -0.0000000000000000000, -1.000000000000000000 ) ) ;
#259 = VERTEX_POINT ( 'NONE', #129 ) ;
#260 = ORIENTED_EDGE ( 'NONE', *, *, #66, .T. ) ;
#261 = CIRCLE ( 'NONE', #68, 0.1250000000000000278 ) ;
#262 = EDGE_CURVE ( 'NONE', #323, #318, #109, .T. ) ;
#263 = CARTESIAN_POINT ( 'NONE',  ( -0.2500000000000000000, 0.0000000000000000000, 3.000000000000000444 ) ) ;
#264 = ORIENTED_EDGE ( 'NONE', *, *, #329, .T. ) ;
#265 = ORIENTED_EDGE ( 'NONE', *, *, #357, .F. ) ;
#266 = ORIENTED_EDGE ( 'NONE', *, *, #357, .T. ) ;
#267 = CARTESIAN_POINT ( 'NONE',  ( 0.0000000000000000000, 0.0000000000000000000, 0.7500000000000001110 ) ) ;
#268 = CARTESIAN_POINT ( 'NONE',  ( 0.0000000000000000000, 0.0000000000000000000, 0.7500000000000001110 ) ) ;
#269 = PRODUCT ( 'Micro_KC-500-750-156', 'Micro_KC-500-750-156', '', ( #98 ) ) ;
#270 = PLANE ( 'NONE',  #167 ) ;
#271 = DIRECTION ( 'NONE',  ( -0.0000000000000000000, -0.0000000000000000000, -1.000000000000000000 ) ) ;
#272 = AXIS2_PLACEMENT_3D ( 'NONE', #106, #39, #250 ) ;
#273 = DIRECTION ( 'NONE',  ( -0.0000000000000000000, -0.0000000000000000000, -1.000000000000000000 ) ) ;
#274 = SURFACE_STYLE_USAGE ( .BOTH. , #35 ) ;
#275 = DIRECTION ( 'NONE',  ( 1.000000000000000000, 0.0000000000000000000, 0.0000000000000000000 ) ) ;
#276 = DIRECTION ( 'NONE',  ( -0.0000000000000000000, -0.0000000000000000000, -1.000000000000000000 ) ) ;
#277 = FACE_OUTER_BOUND ( 'NONE', #320, .T. ) ;
#278 = PRESENTATION_LAYER_ASSIGNMENT (  '', '', ( #194 ) ) ;
#279 = MANIFOLD_SOLID_BREP ( 'Cut-Revolve1', #119 ) ;
#280 = DIRECTION ( 'NONE',  ( 0.0000000000000000000, 0.0000000000000000000, 1.000000000000000000 ) ) ;
#281 = DIRECTION ( 'NONE',  ( 1.000000000000000000, 0.0000000000000000000, 0.0000000000000000000 ) ) ;
#282 = AXIS2_PLACEMENT_3D ( 'NONE', #104, #220, #339 ) ;
#283 = CARTESIAN_POINT ( 'NONE',  ( -0.2500000000000000000, 0.0000000000000000000, 3.000000000000000444 ) ) ;
#284 = ORIENTED_EDGE ( 'NONE', *, *, #252, .T. ) ;
#285 = ORIENTED_EDGE ( 'NONE', *, *, #377, .F. ) ;
#286 = ADVANCED_FACE ( 'NONE', ( #277 ), #10, .T. ) ;
#287 = CARTESIAN_POINT ( 'NONE',  ( 0.0000000000000000000, 0.0000000000000000000, 0.1559999999999999998 ) ) ;
#288 = ORIENTED_EDGE ( 'NONE', *, *, #377, .T. ) ;
#289 = AXIS2_PLACEMENT_3D ( 'NONE', #2, #186, #101 ) ;
#290 = LINE ( 'NONE', #342, #84 ) ;
#291 = ORIENTED_EDGE ( 'NONE', *, *, #292, .F. ) ;
#292 = EDGE_CURVE ( 'NONE', #298, #118, #14, .T. ) ;
#293 = VERTEX_POINT ( 'NONE', #160 ) ;
#294 = DIMENSIONAL_EXPONENTS ( 1.000000000000000000, 0.0000000000000000000, 0.0000000000000000000, 0.0000000000000000000, 0.0000000000000000000, 0.0000000000000000000, 0.0000000000000000000 ) ;
#295 = CARTESIAN_POINT ( 'NONE',  ( 0.0000000000000000000, 0.0000000000000000000, 0.1559999999999999998 ) ) ;
#296 = CIRCLE ( 'NONE', #240, 0.2500000000000000000 ) ;
#297 = FACE_OUTER_BOUND ( 'NONE', #372, .T. ) ;
#298 = VERTEX_POINT ( 'NONE', #5 ) ;
#299 = CARTESIAN_POINT ( 'NONE',  ( 0.0000000000000000000, 0.0000000000000000000, 0.7500000000000001110 ) ) ;
#300 = EDGE_CURVE ( 'NONE', #259, #118, #40, .T. ) ;
#301 = CARTESIAN_POINT ( 'NONE',  ( 0.0000000000000000000, 0.0000000000000000000, 3.000000000000000444 ) ) ;
#302 =( GEOMETRIC_REPRESENTATION_CONTEXT ( 3 ) GLOBAL_UNCERTAINTY_ASSIGNED_CONTEXT ( ( #371 ) ) GLOBAL_UNIT_ASSIGNED_CONTEXT ( ( #195, #308, #130 ) ) REPRESENTATION_CONTEXT ( 'NONE', 'WORKASPACE' ) );
#303 = CYLINDRICAL_SURFACE ( 'NONE', #3, 0.2500000000000000000 ) ;
#304 = LENGTH_MEASURE_WITH_UNIT ( LENGTH_MEASURE( 0.02539999999999999897 ), #161 );
#305 = CARTESIAN_POINT ( 'NONE',  ( 0.2500000000000000000, 3.061616997868382402E-17, 2.985000000000001208 ) ) ;
#306 = ADVANCED_FACE ( 'NONE', ( #132 ), #190, .T. ) ;
#307 = AXIS2_PLACEMENT_3D ( 'NONE', #135, #276, #133 ) ;
#308 =( NAMED_UNIT ( * ) PLANE_ANGLE_UNIT ( ) SI_UNIT ( $, .RADIAN. ) );
#309 = PRESENTATION_STYLE_ASSIGNMENT (( #274 ) ) ;
#310 = EDGE_CURVE ( 'NONE', #293, #362, #81, .T. ) ;
#311 = PLANE ( 'NONE',  #231 ) ;
#312 = CARTESIAN_POINT ( 'NONE',  ( 0.2500000000000000555, 3.061616997868383018E-17, 0.1559999999999999998 ) ) ;
#313 = ORIENTED_EDGE ( 'NONE', *, *, #300, .F. ) ;
#314 = CONICAL_SURFACE ( 'NONE', #122, 0.2350000000000011524, 0.7853981633974380649 ) ;
#315 = FACE_OUTER_BOUND ( 'NONE', #49, .T. ) ;
#316 = EDGE_CURVE ( 'NONE', #370, #148, #75, .T. ) ;
#317 = EDGE_LOOP ( 'NONE', ( #225, #363, #86, #232 ) ) ;
#318 = VERTEX_POINT ( 'NONE', #197 ) ;
#319 = EDGE_CURVE ( 'NONE', #323, #293, #144, .T. ) ;
#320 = EDGE_LOOP ( 'NONE', ( #28, #82, #347, #343 ) ) ;
#321 = AXIS2_PLACEMENT_3D ( 'NONE', #267, #242, #351 ) ;
#322 = STYLED_ITEM ( 'NONE', ( #102 ), #279 ) ;
#323 = VERTEX_POINT ( 'NONE', #200 ) ;
#324 = CYLINDRICAL_SURFACE ( 'NONE', #289, 0.1250000000000000555 ) ;
#325 = CARTESIAN_POINT ( 'NONE',  ( 0.0000000000000000000, 0.0000000000000000000, 3.000000000000000444 ) ) ;
#326 = ORIENTED_EDGE ( 'NONE', *, *, #41, .T. ) ;
#327 = AXIS2_PLACEMENT_3D ( 'NONE', #111, #52, #110 ) ;
#328 = DIRECTION ( 'NONE',  ( 0.0000000000000000000, 0.0000000000000000000, -1.000000000000000000 ) ) ;
#329 = EDGE_CURVE ( 'NONE', #148, #53, #172, .T. ) ;
#330 = CIRCLE ( 'NONE', #108, 0.1250000000000000833 ) ;
#331 = PRODUCT_DEFINITION_SHAPE ( 'NONE', 'NONE',  #96 ) ;
#332 = ORIENTED_EDGE ( 'NONE', *, *, #349, .T. ) ;
#333 = DIRECTION ( 'NONE',  ( -0.0000000000000000000, -0.0000000000000000000, -1.000000000000000000 ) ) ;
#334 = FACE_OUTER_BOUND ( 'NONE', #112, .T. ) ;
#335 = EDGE_CURVE ( 'NONE', #348, #202, #46, .T. ) ;
#336 = DIRECTION ( 'NONE',  ( -0.0000000000000000000, -0.0000000000000000000, -1.000000000000000000 ) ) ;
#337 = VECTOR ( 'NONE', #140, 39.37007874015748854 ) ;
#338 =( GEOMETRIC_REPRESENTATION_CONTEXT ( 3 ) GLOBAL_UNCERTAINTY_ASSIGNED_CONTEXT ( ( #201 ) ) GLOBAL_UNIT_ASSIGNED_CONTEXT ( ( #254, #226, #364 ) ) REPRESENTATION_CONTEXT ( 'NONE', 'WORKASPACE' ) );
#339 = DIRECTION ( 'NONE',  ( -1.000000000000000000, 0.0000000000000000000, 0.0000000000000000000 ) ) ;
#340 = DIRECTION ( 'NONE',  ( -1.000000000000000000, 0.0000000000000000000, 0.0000000000000000000 ) ) ;
#341 = ORIENTED_EDGE ( 'NONE', *, *, #62, .F. ) ;
#342 = CARTESIAN_POINT ( 'NONE',  ( 0.2350000000000011524, 2.877919977996294002E-17, 3.000000000000000444 ) ) ;
#343 = ORIENTED_EDGE ( 'NONE', *, *, #116, .F. ) ;
#344 = VECTOR ( 'NONE', #87, 39.37007874015748143 ) ;
#345 = EDGE_LOOP ( 'NONE', ( #60, #33 ) ) ;
#346 = FACE_OUTER_BOUND ( 'NONE', #345, .T. ) ;
#347 = ORIENTED_EDGE ( 'NONE', *, *, #310, .T. ) ;
#348 = VERTEX_POINT ( 'NONE', #89 ) ;
#349 = EDGE_CURVE ( 'NONE', #318, #198, #290, .T. ) ;
#350 = DIRECTION ( 'NONE',  ( -1.000000000000000000, 0.0000000000000000000, 0.0000000000000000000 ) ) ;
#351 = DIRECTION ( 'NONE',  ( -1.000000000000000000, 0.0000000000000000000, 0.0000000000000000000 ) ) ;
#352 = ADVANCED_FACE ( 'NONE', ( #113 ), #199, .T. ) ;
#353 = CARTESIAN_POINT ( 'NONE',  ( -0.1250000000000000833, 1.530808498934192433E-17, 0.7500000000000001110 ) ) ;
#354 = CARTESIAN_POINT ( 'NONE',  ( 0.0000000000000000000, 0.0000000000000000000, 2.985000000000001208 ) ) ;
#355 = ADVANCED_FACE ( 'NONE', ( #346 ), #223, .T. ) ;
#356 = CARTESIAN_POINT ( 'NONE',  ( -0.2500000000000000000, 0.0000000000000000000, 0.0000000000000000000 ) ) ;
#357 = EDGE_CURVE ( 'NONE', #88, #53, #7, .T. ) ;
#358 = CARTESIAN_POINT ( 'NONE',  ( -0.1250000000000000555, 0.0000000000000000000, 0.0000000000000000000 ) ) ;
#359 = DIRECTION ( 'NONE',  ( 0.0000000000000000000, 0.0000000000000000000, 1.000000000000000000 ) ) ;
#360 = CARTESIAN_POINT ( 'NONE',  ( 0.2500000000000000555, 0.0000000000000000000, 0.1559999999999999998 ) ) ;
#361 = CIRCLE ( 'NONE', #47, 0.2500000000000000555 ) ;
#362 = VERTEX_POINT ( 'NONE', #205 ) ;
#363 = ORIENTED_EDGE ( 'NONE', *, *, #9, .F. ) ;
#364 =( NAMED_UNIT ( * ) SI_UNIT ( $, .STERADIAN. ) SOLID_ANGLE_UNIT ( ) );
#365 = ADVANCED_FACE ( 'NONE', ( #19, #315 ), #311, .T. ) ;
#366 = LENGTH_MEASURE_WITH_UNIT ( LENGTH_MEASURE( 0.02539999999999999897 ), #255 );
#367 = VECTOR ( 'NONE', #336, 39.37007874015748143 ) ;
#368 = ORIENTED_EDGE ( 'NONE', *, *, #45, .T. ) ;
#369 = DIRECTION ( 'NONE',  ( -0.0000000000000000000, -0.0000000000000000000, -1.000000000000000000 ) ) ;
#370 = VERTEX_POINT ( 'NONE', #312 ) ;
#371 = UNCERTAINTY_MEASURE_WITH_UNIT (LENGTH_MEASURE( 1.000000000000000082E-05 ), #195, 'distance_accuracy_value', 'NONE');
#372 = EDGE_LOOP ( 'NONE', ( #51, #90, #29, #291 ) ) ;
#373 = EDGE_LOOP ( 'NONE', ( #176, #265 ) ) ;
#374 = DIRECTION ( 'NONE',  ( 1.000000000000000000, 0.0000000000000000000, 0.0000000000000000000 ) ) ;
#375 = AXIS2_PLACEMENT_3D ( 'NONE', #216, #333, #73 ) ;
#376 = DIRECTION ( 'NONE',  ( 0.0000000000000000000, 0.0000000000000000000, 1.000000000000000000 ) ) ;
#377 = EDGE_CURVE ( 'NONE', #118, #298, #261, .T. ) ;
#378 = EDGE_CURVE ( 'NONE', #318, #323, #230, .T. ) ;
#379 = DIRECTION ( 'NONE',  ( -0.0000000000000000000, -0.0000000000000000000, -1.000000000000000000 ) ) ;
ENDSEC;
END-ISO-10303-21;
